  0
SECTION
  2
HEADER
  9
$ACADVER
  1
AC1021
  9
$ACADMAINTVER
 70
    25
  9
$DWGCODEPAGE
  3
ANSI_1252
  9
$INSBASE
 10
3804.693056528511
 20
1444.863951419895
 30
0.0
  9
$EXTMIN
 10
1.000000000000000E+20
 20
1.000000000000000E+20
 30
1.000000000000000E+20
  9
$EXTMAX
 10
-1.000000000000000E+20
 20
-1.000000000000000E+20
 30
-1.000000000000000E+20
  9
$LIMMIN
 10
0.0
 20
0.0
  9
$LIMMAX
 10
12.0
 20
9.0
  9
$ORTHOMODE
 70
     0
  9
$REGENMODE
 70
     1
  9
$FILLMODE
 70
     1
  9
$QTEXTMODE
 70
     0
  9
$MIRRTEXT
 70
     1
  9
$LTSCALE
 40
1.0
  9
$ATTMODE
 70
     1
  9
$TEXTSIZE
 40
0.2
  9
$TRACEWID
 40
0.05
  9
$TEXTSTYLE
  7
Standard
  9
$CLAYER
  8
Graypants_Dome36
  9
$CELTYPE
  6
ByLayer
  9
$CECOLOR
 62
   256
  9
$CELTSCALE
 40
1.0
  9
$DISPSILH
 70
     0
  9
$DIMSCALE
 40
1.0
  9
$DIMASZ
 40
0.18
  9
$DIMEXO
 40
0.0625
  9
$DIMDLI
 40
0.38
  9
$DIMRND
 40
0.0
  9
$DIMDLE
 40
0.0
  9
$DIMEXE
 40
0.18
  9
$DIMTP
 40
0.0
  9
$DIMTM
 40
0.0
  9
$DIMTXT
 40
0.18
  9
$DIMCEN
 40
0.09
  9
$DIMTSZ
 40
0.0
  9
$DIMTOL
 70
     0
  9
$DIMLIM
 70
     0
  9
$DIMTIH
 70
     1
  9
$DIMTOH
 70
     1
  9
$DIMSE1
 70
     0
  9
$DIMSE2
 70
     0
  9
$DIMTAD
 70
     0
  9
$DIMZIN
 70
     0
  9
$DIMBLK
  1

  9
$DIMASO
 70
     1
  9
$DIMSHO
 70
     1
  9
$DIMPOST
  1

  9
$DIMAPOST
  1

  9
$DIMALT
 70
     0
  9
$DIMALTD
 70
     2
  9
$DIMALTF
 40
25.4
  9
$DIMLFAC
 40
1.0
  9
$DIMTOFL
 70
     0
  9
$DIMTVP
 40
0.0
  9
$DIMTIX
 70
     0
  9
$DIMSOXD
 70
     0
  9
$DIMSAH
 70
     0
  9
$DIMBLK1
  1

  9
$DIMBLK2
  1

  9
$DIMSTYLE
  2
STANDARD_ACAD
  9
$DIMCLRD
 70
     0
  9
$DIMCLRE
 70
     0
  9
$DIMCLRT
 70
     0
  9
$DIMTFAC
 40
1.0
  9
$DIMGAP
 40
0.09
  9
$DIMJUST
 70
     0
  9
$DIMSD1
 70
     0
  9
$DIMSD2
 70
     0
  9
$DIMTOLJ
 70
     1
  9
$DIMTZIN
 70
     0
  9
$DIMALTZ
 70
     0
  9
$DIMALTTZ
 70
     0
  9
$DIMUPT
 70
     0
  9
$DIMDEC
 70
     4
  9
$DIMTDEC
 70
     4
  9
$DIMALTU
 70
     2
  9
$DIMALTTD
 70
     2
  9
$DIMTXSTY
  7
Standard
  9
$DIMAUNIT
 70
     0
  9
$DIMADEC
 70
     0
  9
$DIMALTRND
 40
0.0
  9
$DIMAZIN
 70
     0
  9
$DIMDSEP
 70
    46
  9
$DIMATFIT
 70
     3
  9
$DIMFRAC
 70
     0
  9
$DIMLDRBLK
  1

  9
$DIMLUNIT
 70
     2
  9
$DIMLWD
 70
    -2
  9
$DIMLWE
 70
    -2
  9
$DIMTMOVE
 70
     2
  9
$DIMFXL
 40
1.0
  9
$DIMFXLON
 70
     0
  9
$DIMJOGANG
 40
0.7853981633974483
  9
$DIMTFILL
 70
     0
  9
$DIMTFILLCLR
 70
     0
  9
$DIMARCSYM
 70
     0
  9
$DIMLTYPE
  6

  9
$DIMLTEX1
  6

  9
$DIMLTEX2
  6

  9
$LUNITS
 70
     2
  9
$LUPREC
 70
     3
  9
$SKETCHINC
 40
0.1
  9
$FILLETRAD
 40
0.5
  9
$AUNITS
 70
     0
  9
$AUPREC
 70
     0
  9
$MENU
  1
.
  9
$ELEVATION
 40
0.0
  9
$PELEVATION
 40
0.0
  9
$THICKNESS
 40
0.0
  9
$LIMCHECK
 70
     0
  9
$CHAMFERA
 40
0.0
  9
$CHAMFERB
 40
0.0
  9
$CHAMFERC
 40
0.0
  9
$CHAMFERD
 40
0.0
  9
$SKPOLY
 70
     0
  9
$TDCREATE
 40
2460864.474746748
  9
$TDUCREATE
 40
2460864.808080081
  9
$TDUPDATE
 40
2460864.474764664
  9
$TDUUPDATE
 40
2460864.808097998
  9
$TDINDWG
 40
0.0000000116
  9
$TDUSRTIMER
 40
0.0000000116
  9
$USRTIMER
 70
     1
  9
$ANGBASE
 50
0.0
  9
$ANGDIR
 70
     0
  9
$PDMODE
 70
     0
  9
$PDSIZE
 40
0.0
  9
$PLINEWID
 40
0.0
  9
$SPLFRAME
 70
     0
  9
$SPLINETYPE
 70
     6
  9
$SPLINESEGS
 70
     8
  9
$HANDSEED
  5
413
  9
$SURFTAB1
 70
     6
  9
$SURFTAB2
 70
     6
  9
$SURFTYPE
 70
     6
  9
$SURFU
 70
     6
  9
$SURFV
 70
     6
  9
$UCSBASE
  2

  9
$UCSNAME
  2

  9
$UCSORG
 10
0.0
 20
0.0
 30
0.0
  9
$UCSXDIR
 10
1.0
 20
0.0
 30
0.0
  9
$UCSYDIR
 10
0.0
 20
1.0
 30
0.0
  9
$UCSORTHOREF
  2

  9
$UCSORTHOVIEW
 70
     0
  9
$UCSORGTOP
 10
0.0
 20
0.0
 30
0.0
  9
$UCSORGBOTTOM
 10
0.0
 20
0.0
 30
0.0
  9
$UCSORGLEFT
 10
0.0
 20
0.0
 30
0.0
  9
$UCSORGRIGHT
 10
0.0
 20
0.0
 30
0.0
  9
$UCSORGFRONT
 10
0.0
 20
0.0
 30
0.0
  9
$UCSORGBACK
 10
0.0
 20
0.0
 30
0.0
  9
$PUCSBASE
  2

  9
$PUCSNAME
  2

  9
$PUCSORG
 10
0.0
 20
0.0
 30
0.0
  9
$PUCSXDIR
 10
1.0
 20
0.0
 30
0.0
  9
$PUCSYDIR
 10
0.0
 20
1.0
 30
0.0
  9
$PUCSORTHOREF
  2

  9
$PUCSORTHOVIEW
 70
     0
  9
$PUCSORGTOP
 10
0.0
 20
0.0
 30
0.0
  9
$PUCSORGBOTTOM
 10
0.0
 20
0.0
 30
0.0
  9
$PUCSORGLEFT
 10
0.0
 20
0.0
 30
0.0
  9
$PUCSORGRIGHT
 10
0.0
 20
0.0
 30
0.0
  9
$PUCSORGFRONT
 10
0.0
 20
0.0
 30
0.0
  9
$PUCSORGBACK
 10
0.0
 20
0.0
 30
0.0
  9
$USERI1
 70
     0
  9
$USERI2
 70
     0
  9
$USERI3
 70
     0
  9
$USERI4
 70
     0
  9
$USERI5
 70
     0
  9
$USERR1
 40
0.0
  9
$USERR2
 40
0.0
  9
$USERR3
 40
0.0
  9
$USERR4
 40
0.0
  9
$USERR5
 40
0.0
  9
$WORLDVIEW
 70
     1
  9
$SHADEDGE
 70
     3
  9
$SHADEDIF
 70
    70
  9
$TILEMODE
 70
     1
  9
$MAXACTVP
 70
    64
  9
$PINSBASE
 10
0.0
 20
0.0
 30
0.0
  9
$PLIMCHECK
 70
     0
  9
$PEXTMIN
 10
1.000000000000000E+20
 20
1.000000000000000E+20
 30
1.000000000000000E+20
  9
$PEXTMAX
 10
-1.000000000000000E+20
 20
-1.000000000000000E+20
 30
-1.000000000000000E+20
  9
$PLIMMIN
 10
0.0
 20
0.0
  9
$PLIMMAX
 10
12.0
 20
9.0
  9
$UNITMODE
 70
     0
  9
$VISRETAIN
 70
     1
  9
$PLINEGEN
 70
     0
  9
$PSLTSCALE
 70
     1
  9
$TREEDEPTH
 70
  3020
  9
$CMLSTYLE
  2
Standard
  9
$CMLJUST
 70
     0
  9
$CMLSCALE
 40
1.0
  9
$PROXYGRAPHICS
 70
     1
  9
$MEASUREMENT
 70
     1
  9
$CELWEIGHT
370
    -1
  9
$ENDCAPS
280
     0
  9
$JOINSTYLE
280
     0
  9
$LWDISPLAY
290
     0
  9
$INSUNITS
 70
     4
  9
$HYPERLINKBASE
  1

  9
$STYLESHEET
  1

  9
$XEDIT
290
     1
  9
$CEPSNTYPE
380
     0
  9
$PSTYLEMODE
290
     1
  9
$FINGERPRINTGUID
  2
{597fd2d4-e726-0542-8bca-00b515411609}
  9
$VERSIONGUID
  2
{FAEB1C32-E019-11D5-929B-00C0DF256EC4}
  9
$EXTNAMES
290
     1
  9
$PSVPSCALE
 40
0.0
  9
$OLESTARTUP
290
     0
  9
$SORTENTS
280
   127
  9
$INDEXCTL
280
     0
  9
$HIDETEXT
280
     1
  9
$XCLIPFRAME
290
     0
  9
$HALOGAP
280
     0
  9
$OBSCOLOR
 70
   257
  9
$OBSLTYPE
280
     0
  9
$INTERSECTIONDISPLAY
280
     0
  9
$INTERSECTIONCOLOR
 70
   257
  9
$DIMASSOC
280
     2
  9
$PROJECTNAME
  1

  9
$CAMERADISPLAY
290
     0
  9
$LENSLENGTH
 40
50.0
  9
$CAMERAHEIGHT
 40
0.0
  9
$STEPSPERSEC
 40
2.0
  9
$STEPSIZE
 40
6.0
  9
$3DDWFPREC
 40
2.0
  9
$PSOLWIDTH
 40
0.25
  9
$PSOLHEIGHT
 40
4.0
  9
$LOFTANG1
 40
1.570796326794897
  9
$LOFTANG2
 40
1.570796326794897
  9
$LOFTMAG1
 40
0.0
  9
$LOFTMAG2
 40
0.0
  9
$LOFTPARAM
 70
     7
  9
$LOFTNORMALS
280
     1
  9
$LATITUDE
 40
37.795
  9
$LONGITUDE
 40
-122.394
  9
$NORTHDIRECTION
 40
0.0
  9
$TIMEZONE
 70
 -8000
  9
$LIGHTGLYPHDISPLAY
280
     1
  9
$TILEMODELIGHTSYNCH
280
     1
  9
$CMATERIAL
347
44
  9
$SOLIDHIST
280
     0
  9
$SHOWHIST
280
     1
  9
$DWFFRAME
280
     2
  9
$DGNFRAME
280
     2
  9
$REALWORLDSCALE
290
     1
  9
$INTERFERECOLOR
 62
   256
  9
$CSHADOW
280
     0
  9
$SHADOWPLANELOCATION
 40
0.0
  0
ENDSEC
  0
SECTION
  2
CLASSES
  0
CLASS
  1
ACDBDICTIONARYWDFLT
  2
AcDbDictionaryWithDefault
  3
ObjectDBX Classes
 90
        0
 91
        3
280
     0
281
     0
  0
CLASS
  1
VISUALSTYLE
  2
AcDbVisualStyle
  3
ObjectDBX Classes
 90
     4095
 91
        3
280
     0
281
     0
  0
CLASS
  1
MATERIAL
  2
AcDbMaterial
  3
ObjectDBX Classes
 90
     1153
 91
        3
280
     0
281
     0
  0
CLASS
  1
SCALE
  2
AcDbScale
  3
ObjectDBX Classes
 90
     1153
 91
        3
280
     0
281
     0
  0
CLASS
  1
TABLESTYLE
  2
AcDbTableStyle
  3
ObjectDBX Classes
 90
     4095
 91
        3
280
     0
281
     0
  0
CLASS
  1
MLEADERSTYLE
  2
AcDbMLeaderStyle
  3
ACDB_MLEADERSTYLE_CLASS
 90
     4095
 91
        3
280
     0
281
     0
  0
CLASS
  1
SUN
  2
AcDbSun
  3
SCENEOE
 90
     1153
 91
        3
280
     0
281
     0
  0
CLASS
  1
DICTIONARYVAR
  2
AcDbDictionaryVar
  3
ObjectDBX Classes
 90
        0
 91
        3
280
     0
281
     0
  0
CLASS
  1
CELLSTYLEMAP
  2
AcDbCellStyleMap
  3
ObjectDBX Classes
 90
     1152
 91
        3
280
     0
281
     0
  0
ENDSEC
  0
SECTION
  2
TABLES
  0
TABLE
  2
VPORT
  5
8
330
0
100
AcDbSymbolTable
 70
     1
  0
VPORT
  5
29
330
8
100
AcDbSymbolTableRecord
100
AcDbViewportTableRecord
  2
*Active
 70
     0
 10
0.0
 20
0.0
 11
1.0
 21
1.0
 12
10.42990654205607
 22
4.5
 13
0.0
 23
0.0
 14
0.5
 24
0.5
 15
0.5
 25
0.5
 16
0.0
 26
0.0
 36
1.0
 17
0.0
 27
0.0
 37
0.0
 40
9.0
 41
1.972972972850329
 42
50.0
 43
0.0
 44
0.0
 50
0.0
 51
0.0
 71
     0
 72
   100
 73
     1
 74
     3
 75
     0
 76
     0
 77
     0
 78
     0
281
     0
 65
     1
110
0.0
120
0.0
130
0.0
111
1.0
121
0.0
131
0.0
112
0.0
122
1.0
132
0.0
 79
     0
146
0.0
348
2F
 60
     3
 61
     5
292
     1
282
     1
141
0.0
142
0.0
 63
   250
361
6D
  0
ENDTAB
  0
TABLE
  2
LTYPE
  5
5
330
0
100
AcDbSymbolTable
 70
     2
  0
LTYPE
  5
14
330
5
100
AcDbSymbolTableRecord
100
AcDbLinetypeTableRecord
  2
ByBlock
 70
     0
  3

 72
    65
 73
     0
 40
0.0
  0
LTYPE
  5
15
330
5
100
AcDbSymbolTableRecord
100
AcDbLinetypeTableRecord
  2
ByLayer
 70
     0
  3

 72
    65
 73
     0
 40
0.0
  0
LTYPE
  5
16
330
5
100
AcDbSymbolTableRecord
100
AcDbLinetypeTableRecord
  2
Continuous
 70
     0
  3
Solid line
 72
    65
 73
     0
 40
0.0
  0
LTYPE
  5
3AD
330
5
100
AcDbSymbolTableRecord
100
AcDbLinetypeTableRecord
  2
Hidden
 70
     0
  3

 72
    65
 73
     2
 40
4.0
 49
2.0
 74
     0
 49
-2.0
 74
     0
  0
ENDTAB
  0
TABLE
  2
LAYER
  5
2
330
0
100
AcDbSymbolTable
 70
     2
  0
LAYER
  5
10
330
2
100
AcDbSymbolTableRecord
100
AcDbLayerTableRecord
  2
0
 70
     0
 62
     7
  6
Continuous
370
    -3
390
F
347
46
  0
LAYER
  5
6E
330
2
100
AcDbSymbolTableRecord
100
AcDbLayerTableRecord
  2
Graypants_Dome36
 70
     0
 62
    36
420
  8866048
  6
Continuous
370
    -3
390
F
347
46
  0
ENDTAB
  0
TABLE
  2
STYLE
  5
3
330
0
100
AcDbSymbolTable
 70
     1
  0
STYLE
  5
11
330
3
100
AcDbSymbolTableRecord
100
AcDbTextStyleTableRecord
  2
Standard
 70
     0
 40
0.0
 41
1.0
 50
0.0
 71
     0
 42
0.2
  3
txt
  4

  0
ENDTAB
  0
TABLE
  2
VIEW
  5
6
330
0
100
AcDbSymbolTable
 70
     0
  0
ENDTAB
  0
TABLE
  2
UCS
  5
7
330
0
100
AcDbSymbolTable
 70
     0
  0
ENDTAB
  0
TABLE
  2
APPID
  5
9
330
0
100
AcDbSymbolTable
 70
     2
  0
APPID
  5
12
330
9
100
AcDbSymbolTableRecord
100
AcDbRegAppTableRecord
  2
ACAD
 70
     0
  0
APPID
  5
40B
330
9
100
AcDbSymbolTableRecord
100
AcDbRegAppTableRecord
  2
ACAD_MLEADERVER
 70
     0
  0
ENDTAB
  0
TABLE
  2
DIMSTYLE
  5
A
330
0
100
AcDbSymbolTable
 70
     1
100
AcDbDimStyleTable
  0
DIMSTYLE
105
27
330
A
100
AcDbSymbolTableRecord
100
AcDbDimStyleTableRecord
  2
STANDARD_ACAD
 70
     0
178
     0
340
11
  0
ENDTAB
  0
TABLE
  2
BLOCK_RECORD
  5
1
330
0
100
AcDbSymbolTable
 70
     1
  0
BLOCK_RECORD
  5
1F
330
1
100
AcDbSymbolTableRecord
100
AcDbBlockTableRecord
  2
*Model_Space
340
22
 70
     0
280
     1
281
     0
  0
BLOCK_RECORD
  5
1B
330
1
100
AcDbSymbolTableRecord
100
AcDbBlockTableRecord
  2
*Paper_Space
340
1E
 70
     0
280
     1
281
     0
  0
BLOCK_RECORD
  5
23
330
1
100
AcDbSymbolTableRecord
100
AcDbBlockTableRecord
  2
*Paper_Space0
340
26
 70
     0
280
     1
281
     0
  0
ENDTAB
  0
ENDSEC
  0
SECTION
  2
BLOCKS
  0
BLOCK
  5
20
330
1F
100
AcDbEntity
  8
0
100
AcDbBlockBegin
  2
*Model_Space
 70
     0
 10
0.0
 20
0.0
 30
0.0
  3
*Model_Space
  1

  0
ENDBLK
  5
21
330
1F
100
AcDbEntity
  8
0
100
AcDbBlockEnd
  0
BLOCK
  5
1C
330
1B
100
AcDbEntity
 67
     1
  8
0
100
AcDbBlockBegin
  2
*Paper_Space
 70
     0
 10
0.0
 20
0.0
 30
0.0
  3
*Paper_Space
  1

  0
ENDBLK
  5
1D
330
1B
100
AcDbEntity
 67
     1
  8
0
100
AcDbBlockEnd
  0
BLOCK
  5
24
330
23
100
AcDbEntity
  8
0
100
AcDbBlockBegin
  2
*Paper_Space0
 70
     0
 10
0.0
 20
0.0
 30
0.0
  3
*Paper_Space0
  1

  0
ENDBLK
  5
25
330
23
100
AcDbEntity
  8
0
100
AcDbBlockEnd
  0
ENDSEC
  0
SECTION
  2
ENTITIES
  0
CIRCLE
  5
6F
330
1F
100
AcDbEntity
  8
Graypants_Dome36
100
AcDbCircle
 10
0.0
 20
0.0
 30
0.0
 40
463.3978893831184
  0
CIRCLE
  5
70
330
1F
100
AcDbEntity
  8
Graypants_Dome36
100
AcDbCircle
 10
0.0
 20
0.0
 30
0.0
 40
463.0276491579405
  0
CIRCLE
  5
71
330
1F
100
AcDbEntity
  8
Graypants_Dome36
100
AcDbCircle
 10
0.0
 20
0.0
 30
0.0
 40
463.6621656817913
  0
CIRCLE
  5
72
330
1F
100
AcDbEntity
  8
Graypants_Dome36
100
AcDbCircle
 10
0.0
 20
0.0
 30
0.0
 40
462.551190555952
  0
CIRCLE
  5
73
330
1F
100
AcDbEntity
  8
Graypants_Dome36
100
AcDbCircle
 10
0.0
 20
0.0
 30
0.0
 40
461.9681849269803
  0
CIRCLE
  5
74
330
1F
100
AcDbEntity
  8
Graypants_Dome36
100
AcDbCircle
 10
0.0
 20
0.0
 30
0.0
 40
461.278228279559
  0
CIRCLE
  5
75
330
1F
100
AcDbEntity
  8
Graypants_Dome36
100
AcDbCircle
 10
0.0
 20
0.0
 30
0.0
 40
460.4808398671203
  0
CIRCLE
  5
76
330
1F
100
AcDbEntity
  8
Graypants_Dome36
100
AcDbCircle
 10
0.0
 20
0.0
 30
0.0
 40
459.5754604901442
  0
CIRCLE
  5
77
330
1F
100
AcDbEntity
  8
Graypants_Dome36
100
AcDbCircle
 10
0.0
 20
0.0
 30
0.0
 40
458.5614505000694
  0
CIRCLE
  5
78
330
1F
100
AcDbEntity
  8
Graypants_Dome36
100
AcDbCircle
 10
0.0
 20
0.0
 30
0.0
 40
457.4380874880537
  0
CIRCLE
  5
79
330
1F
100
AcDbEntity
  8
Graypants_Dome36
100
AcDbCircle
 10
0.0
 20
0.0
 30
0.0
 40
456.1891236539477
  0
CIRCLE
  5
7A
330
1F
100
AcDbEntity
  8
Graypants_Dome36
100
AcDbCircle
 10
0.0
 20
0.0
 30
0.0
 40
454.859982725153
  0
CIRCLE
  5
7B
330
1F
100
AcDbEntity
  8
Graypants_Dome36
100
AcDbCircle
 10
0.0
 20
0.0
 30
0.0
 40
453.4033567197387
  0
CIRCLE
  5
7C
330
1F
100
AcDbEntity
  8
Graypants_Dome36
100
AcDbCircle
 10
0.0
 20
0.0
 30
0.0
 40
451.8336019871974
  0
CIRCLE
  5
7D
330
1F
100
AcDbEntity
  8
Graypants_Dome36
100
AcDbCircle
 10
0.0
 20
0.0
 30
0.0
 40
450.1495350266671
  0
CIRCLE
  5
7E
330
1F
100
AcDbEntity
  8
Graypants_Dome36
100
AcDbCircle
 10
0.0
 20
0.0
 30
0.0
 40
448.3498677202042
  0
CIRCLE
  5
7F
330
1F
100
AcDbEntity
  8
Graypants_Dome36
100
AcDbCircle
 10
0.0
 20
0.0
 30
0.0
 40
446.4332020411614
  0
CIRCLE
  5
80
330
1F
100
AcDbEntity
  8
Graypants_Dome36
100
AcDbCircle
 10
0.0
 20
0.0
 30
0.0
 40
444.3980241683382
  0
CIRCLE
  5
81
330
1F
100
AcDbEntity
  8
Graypants_Dome36
100
AcDbCircle
 10
0.0
 20
0.0
 30
0.0
 40
442.2426979439267
  0
CIRCLE
  5
82
330
1F
100
AcDbEntity
  8
Graypants_Dome36
100
AcDbCircle
 10
0.0
 20
0.0
 30
0.0
 40
439.9654576040286
  0
CIRCLE
  5
83
330
1F
100
AcDbEntity
  8
Graypants_Dome36
100
AcDbCircle
 10
0.0
 20
0.0
 30
0.0
 40
437.5643996998865
  0
CIRCLE
  5
84
330
1F
100
AcDbEntity
  8
Graypants_Dome36
100
AcDbCircle
 10
0.0
 20
0.0
 30
0.0
 40
435.0374741154167
  0
CIRCLE
  5
85
330
1F
100
AcDbEntity
  8
Graypants_Dome36
100
AcDbCircle
 10
0.0
 20
0.0
 30
0.0
 40
432.3824740721104
  0
CIRCLE
  5
86
330
1F
100
AcDbEntity
  8
Graypants_Dome36
100
AcDbCircle
 10
0.0
 20
0.0
 30
0.0
 40
429.5970249951922
  0
CIRCLE
  5
87
330
1F
100
AcDbEntity
  8
Graypants_Dome36
100
AcDbCircle
 10
0.0
 20
0.0
 30
0.0
 40
426.6785720946391
  0
CIRCLE
  5
88
330
1F
100
AcDbEntity
  8
Graypants_Dome36
100
AcDbCircle
 10
0.0
 20
0.0
 30
0.0
 40
423.6243664907838
  0
CIRCLE
  5
89
330
1F
100
AcDbEntity
  8
Graypants_Dome36
100
AcDbCircle
 10
0.0
 20
0.0
 30
0.0
 40
420.4314496855791
  0
CIRCLE
  5
8A
330
1F
100
AcDbEntity
  8
Graypants_Dome36
100
AcDbCircle
 10
0.0
 20
0.0
 30
0.0
 40
417.0966361464882
  0
CIRCLE
  5
8B
330
1F
100
AcDbEntity
  8
Graypants_Dome36
100
AcDbCircle
 10
0.0
 20
0.0
 30
0.0
 40
413.6164937290541
  0
CIRCLE
  5
8C
330
1F
100
AcDbEntity
  8
Graypants_Dome36
100
AcDbCircle
 10
0.0
 20
0.0
 30
0.0
 40
409.987321614602
  0
CIRCLE
  5
8D
330
1F
100
AcDbEntity
  8
Graypants_Dome36
100
AcDbCircle
 10
0.0
 20
0.0
 30
0.0
 40
406.2051253796708
  0
CIRCLE
  5
8E
330
1F
100
AcDbEntity
  8
Graypants_Dome36
100
AcDbCircle
 10
0.0
 20
0.0
 30
0.0
 40
402.2655887404628
  0
CIRCLE
  5
8F
330
1F
100
AcDbEntity
  8
Graypants_Dome36
100
AcDbCircle
 10
0.0
 20
0.0
 30
0.0
 40
398.1640414260323
  0
CIRCLE
  5
90
330
1F
100
AcDbEntity
  8
Graypants_Dome36
100
AcDbCircle
 10
0.0
 20
0.0
 30
0.0
 40
393.8954225231714
  0
CIRCLE
  5
91
330
1F
100
AcDbEntity
  8
Graypants_Dome36
100
AcDbCircle
 10
0.0
 20
0.0
 30
0.0
 40
389.4542384988374
  0
CIRCLE
  5
92
330
1F
100
AcDbEntity
  8
Graypants_Dome36
100
AcDbCircle
 10
0.0
 20
0.0
 30
0.0
 40
384.8345149342865
  0
CIRCLE
  5
93
330
1F
100
AcDbEntity
  8
Graypants_Dome36
100
AcDbCircle
 10
0.0
 20
0.0
 30
0.0
 40
380.0297407897256
  0
CIRCLE
  5
94
330
1F
100
AcDbEntity
  8
Graypants_Dome36
100
AcDbCircle
 10
0.0
 20
0.0
 30
0.0
 40
375.0328037448221
  0
CIRCLE
  5
95
330
1F
100
AcDbEntity
  8
Graypants_Dome36
100
AcDbCircle
 10
0.0
 20
0.0
 30
0.0
 40
369.8359148118304
  0
CIRCLE
  5
96
330
1F
100
AcDbEntity
  8
Graypants_Dome36
100
AcDbCircle
 10
0.0
 20
0.0
 30
0.0
 40
364.4305199687574
  0
CIRCLE
  5
97
330
1F
100
AcDbEntity
  8
Graypants_Dome36
100
AcDbCircle
 10
0.0
 20
0.0
 30
0.0
 40
358.8071959767524
  0
CIRCLE
  5
98
330
1F
100
AcDbEntity
  8
Graypants_Dome36
100
AcDbCircle
 10
0.0
 20
0.0
 30
0.0
 40
352.9555267802125
  0
CIRCLE
  5
99
330
1F
100
AcDbEntity
  8
Graypants_Dome36
100
AcDbCircle
 10
0.0
 20
0.0
 30
0.0
 40
346.863955874195
  0
CIRCLE
  5
9A
330
1F
100
AcDbEntity
  8
Graypants_Dome36
100
AcDbCircle
 10
0.0
 20
0.0
 30
0.0
 40
340.5196086640153
  0
CIRCLE
  5
9B
330
1F
100
AcDbEntity
  8
Graypants_Dome36
100
AcDbCircle
 10
0.0
 20
0.0
 30
0.0
 40
333.9080769982836
  0
CIRCLE
  5
9C
330
1F
100
AcDbEntity
  8
Graypants_Dome36
100
AcDbCircle
 10
0.0
 20
0.0
 30
0.0
 40
327.0131555223627
  0
CIRCLE
  5
9D
330
1F
100
AcDbEntity
  8
Graypants_Dome36
100
AcDbCircle
 10
0.0
 20
0.0
 30
0.0
 40
319.8165159660923
  0
CIRCLE
  5
9E
330
1F
100
AcDbEntity
  8
Graypants_Dome36
100
AcDbCircle
 10
0.0
 20
0.0
 30
0.0
 40
312.2973004761429
  0
CIRCLE
  5
9F
330
1F
100
AcDbEntity
  8
Graypants_Dome36
100
AcDbCircle
 10
0.0
 20
0.0
 30
0.0
 40
304.431607893591
  0
CIRCLE
  5
A0
330
1F
100
AcDbEntity
  8
Graypants_Dome36
100
AcDbCircle
 10
0.0
 20
0.0
 30
0.0
 40
296.1918362897238
  0
CIRCLE
  5
A1
330
1F
100
AcDbEntity
  8
Graypants_Dome36
100
AcDbCircle
 10
0.0
 20
0.0
 30
0.0
 40
287.5458291901905
  0
CIRCLE
  5
A2
330
1F
100
AcDbEntity
  8
Graypants_Dome36
100
AcDbCircle
 10
0.0
 20
0.0
 30
0.0
 40
268.8765588233186
  0
CIRCLE
  5
A3
330
1F
100
AcDbEntity
  8
Graypants_Dome36
100
AcDbCircle
 10
0.0
 20
0.0
 30
0.0
 40
278.4557485215078
  0
CIRCLE
  5
A4
330
1F
100
AcDbEntity
  8
Graypants_Dome36
100
AcDbCircle
 10
0.0
 20
0.0
 30
0.0
 40
258.7539446745875
  0
CIRCLE
  5
A5
330
1F
100
AcDbEntity
  8
Graypants_Dome36
100
AcDbCircle
 10
0.0
 20
0.0
 30
0.0
 40
248.0213778783261
  0
CIRCLE
  5
A6
330
1F
100
AcDbEntity
  8
Graypants_Dome36
100
AcDbCircle
 10
0.0
 20
0.0
 30
0.0
 40
236.595866161389
  0
CIRCLE
  5
A7
330
1F
100
AcDbEntity
  8
Graypants_Dome36
100
AcDbCircle
 10
0.0
 20
0.0
 30
0.0
 40
224.3715754828538
  0
CIRCLE
  5
A8
330
1F
100
AcDbEntity
  8
Graypants_Dome36
100
AcDbCircle
 10
0.0
 20
0.0
 30
0.0
 40
211.2098574514202
  0
CIRCLE
  5
A9
330
1F
100
AcDbEntity
  8
Graypants_Dome36
100
AcDbCircle
 10
0.0
 20
0.0
 30
0.0
 40
196.922837387252
  0
CIRCLE
  5
AA
330
1F
100
AcDbEntity
  8
Graypants_Dome36
100
AcDbCircle
 10
0.0
 20
0.0
 30
0.0
 40
181.2445968426073
  0
CIRCLE
  5
AB
330
1F
100
AcDbEntity
  8
Graypants_Dome36
100
AcDbCircle
 10
0.0
 20
0.0
 30
0.0
 40
163.7760784871789
  0
CIRCLE
  5
AC
330
1F
100
AcDbEntity
  8
Graypants_Dome36
100
AcDbCircle
 10
0.0
 20
0.0
 30
0.0
 40
143.8666183818571
  0
CIRCLE
  5
AD
330
1F
100
AcDbEntity
  8
Graypants_Dome36
100
AcDbCircle
 10
0.0
 20
0.0
 30
0.0
 40
120.3104479445697
  0
CIRCLE
  5
AE
330
1F
100
AcDbEntity
  8
Graypants_Dome36
100
AcDbCircle
 10
0.0
 20
0.0
 30
0.0
 40
90.29730829111963
  0
LINE
  5
AF
330
1F
100
AcDbEntity
  8
Graypants_Dome36
100
AcDbLine
 10
-0.0000000001509761
 20
-1442.067022283511
 30
0.0
 11
258.7539446742855
 21
-1442.067022283511
 31
0.0
  0
LINE
  5
B0
330
1F
100
AcDbEntity
  8
Graypants_Dome36
100
AcDbLine
 10
-0.0000000001509761
 20
-1435.067022283511
 30
0.0
 11
248.0213778780246
 21
-1435.067022283511
 31
0.0
  0
LINE
  5
B1
330
1F
100
AcDbEntity
  8
Graypants_Dome36
100
AcDbLine
 10
-0.0000000001509761
 20
-1428.067022283511
 30
0.0
 11
236.5958661610866
 21
-1428.067022283511
 31
0.0
  0
LINE
  5
B2
330
1F
100
AcDbEntity
  8
Graypants_Dome36
100
AcDbLine
 10
-0.0000000001509761
 20
-1421.067022283511
 30
0.0
 11
224.3715754825519
 21
-1421.067022283511
 31
0.0
  0
LINE
  5
B3
330
1F
100
AcDbEntity
  8
Graypants_Dome36
100
AcDbLine
 10
-0.0000000001509761
 20
-1414.067022283511
 30
0.0
 11
211.2098574511185
 21
-1414.067022283511
 31
0.0
  0
LINE
  5
B4
330
1F
100
AcDbEntity
  8
Graypants_Dome36
100
AcDbLine
 10
-0.0000000001509761
 20
-1407.067022283511
 30
0.0
 11
196.9228373869501
 21
-1407.067022283511
 31
0.0
  0
LINE
  5
B5
330
1F
100
AcDbEntity
  8
Graypants_Dome36
100
AcDbLine
 10
-0.0000000001509761
 20
-1400.067022283511
 30
0.0
 11
181.2445968423053
 21
-1400.067022283511
 31
0.0
  0
LINE
  5
B6
330
1F
100
AcDbEntity
  8
Graypants_Dome36
100
AcDbLine
 10
-0.0000000001509761
 20
-1393.067022283511
 30
0.0
 11
163.7760784868769
 21
-1393.067022283511
 31
0.0
  0
LINE
  5
B7
330
1F
100
AcDbEntity
  8
Graypants_Dome36
100
AcDbLine
 10
-0.0000000001509761
 20
-1386.067022283511
 30
0.0
 11
143.8666183815551
 21
-1386.067022283511
 31
0.0
  0
LINE
  5
B8
330
1F
100
AcDbEntity
  8
Graypants_Dome36
100
AcDbLine
 10
-0.0000000001509761
 20
-1379.067022283511
 30
0.0
 11
120.3104479442677
 21
-1379.067022283511
 31
0.0
  0
LINE
  5
B9
330
1F
100
AcDbEntity
  8
Graypants_Dome36
100
AcDbLine
 10
-0.0000000001509761
 20
-1372.067022283511
 30
0.0
 11
90.29730829081768
 21
-1372.067022283511
 31
0.0
  0
LINE
  5
BA
330
1F
100
AcDbEntity
  8
Graypants_Dome36
100
AcDbLine
 10
-0.0000000001509761
 20
-1596.067022283511
 30
0.0
 11
402.2655887401609
 21
-1596.067022283515
 31
0.0
  0
LINE
  5
BB
330
1F
100
AcDbEntity
  8
Graypants_Dome36
100
AcDbLine
 10
-0.0000000001509761
 20
-1589.067022283511
 30
0.0
 11
398.1640414257304
 21
-1589.067022283515
 31
0.0
  0
LINE
  5
BC
330
1F
100
AcDbEntity
  8
Graypants_Dome36
100
AcDbLine
 10
-0.0000000001509761
 20
-1582.067022283511
 30
0.0
 11
393.8954225228695
 21
-1582.067022283515
 31
0.0
  0
LINE
  5
BD
330
1F
100
AcDbEntity
  8
Graypants_Dome36
100
AcDbLine
 10
-0.0000000001509761
 20
-1575.067022283511
 30
0.0
 11
389.4542384985355
 21
-1575.067022283515
 31
0.0
  0
LINE
  5
BE
330
1F
100
AcDbEntity
  8
Graypants_Dome36
100
AcDbLine
 10
-0.0000000001509761
 20
-1568.067022283511
 30
0.0
 11
384.8345149339825
 21
-1568.067022283515
 31
0.0
  0
LINE
  5
BF
330
1F
100
AcDbEntity
  8
Graypants_Dome36
100
AcDbLine
 10
-0.0000000001509761
 20
-1561.067022283511
 30
0.0
 11
380.0297407894238
 21
-1561.067022283515
 31
0.0
  0
LINE
  5
C0
330
1F
100
AcDbEntity
  8
Graypants_Dome36
100
AcDbLine
 10
-0.0000000001509761
 20
-1547.067022283511
 30
0.0
 11
369.8359148115235
 21
-1547.067022283515
 31
0.0
  0
LINE
  5
C1
330
1F
100
AcDbEntity
  8
Graypants_Dome36
100
AcDbLine
 10
-0.0000000001509761
 20
-1540.067022283511
 30
0.0
 11
364.4305199684559
 21
-1540.067022283511
 31
0.0
  0
LINE
  5
C2
330
1F
100
AcDbEntity
  8
Graypants_Dome36
100
AcDbLine
 10
-0.0000000001509761
 20
-1533.067022283511
 30
0.0
 11
358.8071959764504
 21
-1533.067022283515
 31
0.0
  0
LINE
  5
C3
330
1F
100
AcDbEntity
  8
Graypants_Dome36
100
AcDbLine
 10
-0.0000000001509761
 20
-1526.067022283511
 30
0.0
 11
352.9555267799105
 21
-1526.067022283515
 31
0.0
  0
LINE
  5
C4
330
1F
100
AcDbEntity
  8
Graypants_Dome36
100
AcDbLine
 10
-0.0000000001509761
 20
-1519.067022283511
 30
0.0
 11
346.8639558738935
 21
-1519.067022283515
 31
0.0
  0
LINE
  5
C5
330
1F
100
AcDbEntity
  8
Graypants_Dome36
100
AcDbLine
 10
-0.0000000001509761
 20
-1512.067022283511
 30
0.0
 11
340.5196086637134
 21
-1512.067022283515
 31
0.0
  0
LINE
  5
C6
330
1F
100
AcDbEntity
  8
Graypants_Dome36
100
AcDbLine
 10
-0.0000000001509761
 20
-1505.067022283511
 30
0.0
 11
333.9080769979817
 21
-1505.067022283515
 31
0.0
  0
LINE
  5
C7
330
1F
100
AcDbEntity
  8
Graypants_Dome36
100
AcDbLine
 10
-0.0000000001509761
 20
-1498.067022283511
 30
0.0
 11
327.0131555220607
 21
-1498.067022283515
 31
0.0
  0
LINE
  5
C8
330
1F
100
AcDbEntity
  8
Graypants_Dome36
100
AcDbLine
 10
-0.0000000001509761
 20
-1491.067022283511
 30
0.0
 11
319.8165159657888
 21
-1491.067022283515
 31
0.0
  0
LINE
  5
C9
330
1F
100
AcDbEntity
  8
Graypants_Dome36
100
AcDbLine
 10
-0.0000000001509761
 20
-1484.067022283511
 30
0.0
 11
312.297300475841
 21
-1484.067022283515
 31
0.0
  0
LINE
  5
CA
330
1F
100
AcDbEntity
  8
Graypants_Dome36
100
AcDbLine
 10
-0.0000000001509761
 20
-1477.067022283511
 30
0.0
 11
304.4316078932891
 21
-1477.067022283511
 31
0.0
  0
LINE
  5
CB
330
1F
100
AcDbEntity
  8
Graypants_Dome36
100
AcDbLine
 10
-0.0000000001509761
 20
-1470.067022283511
 30
0.0
 11
296.1918362894219
 21
-1470.067022283511
 31
0.0
  0
LINE
  5
CC
330
1F
100
AcDbEntity
  8
Graypants_Dome36
100
AcDbLine
 10
-0.0000000001509761
 20
-1463.067022283511
 30
0.0
 11
287.5458291898885
 21
-1463.067022283511
 31
0.0
  0
LINE
  5
CD
330
1F
100
AcDbEntity
  8
Graypants_Dome36
100
AcDbLine
 10
-0.0000000001509761
 20
-1456.067022283511
 30
0.0
 11
278.4557485212044
 21
-1456.067022283511
 31
0.0
  0
LINE
  5
CE
330
1F
100
AcDbEntity
  8
Graypants_Dome36
100
AcDbLine
 10
-0.0000000001509761
 20
-1449.067022283511
 30
0.0
 11
268.8765588230167
 21
-1449.067022283511
 31
0.0
  0
LINE
  5
CF
330
1F
100
AcDbEntity
  8
Graypants_Dome36
100
AcDbLine
 10
-0.0000000001509761
 20
-1645.067022283511
 30
0.0
 11
426.6785720943371
 21
-1645.067022283515
 31
0.0
  0
LINE
  5
D0
330
1F
100
AcDbEntity
  8
Graypants_Dome36
100
AcDbLine
 10
-0.0000000001509761
 20
-1638.067022283511
 30
0.0
 11
423.6243664904825
 21
-1638.067022283515
 31
0.0
  0
LINE
  5
D1
330
1F
100
AcDbEntity
  8
Graypants_Dome36
100
AcDbLine
 10
-0.0000000001509761
 20
-1631.067022283511
 30
0.0
 11
420.4314496852778
 21
-1631.067022283515
 31
0.0
  0
LINE
  5
D2
330
1F
100
AcDbEntity
  8
Graypants_Dome36
100
AcDbLine
 10
-0.0000000001509761
 20
-1624.067022283511
 30
0.0
 11
417.0966361461865
 21
-1624.067022283511
 31
0.0
  0
LINE
  5
D3
330
1F
100
AcDbEntity
  8
Graypants_Dome36
100
AcDbLine
 10
-0.0000000001509761
 20
-1617.067022283511
 30
0.0
 11
413.6164937287515
 21
-1617.067022283515
 31
0.0
  0
LINE
  5
D4
330
1F
100
AcDbEntity
  8
Graypants_Dome36
100
AcDbLine
 10
-0.0000000001509761
 20
-1610.067022283511
 30
0.0
 11
409.9873216143008
 21
-1610.067022283515
 31
0.0
  0
LINE
  5
D5
330
1F
100
AcDbEntity
  8
Graypants_Dome36
100
AcDbLine
 10
-0.0000000001509761
 20
-1603.067022283511
 30
0.0
 11
406.2051253793682
 21
-1603.067022283515
 31
0.0
  0
LINE
  5
D6
330
1F
100
AcDbEntity
  8
Graypants_Dome36
100
AcDbLine
 10
-0.0000000001509761
 20
-1708.067022283511
 30
0.0
 11
448.3498677199022
 21
-1708.067022283515
 31
0.0
  0
LINE
  5
D7
330
1F
100
AcDbEntity
  8
Graypants_Dome36
100
AcDbLine
 10
-0.0000000001509761
 20
-1701.067022283511
 30
0.0
 11
446.4332020408594
 21
-1701.067022283515
 31
0.0
  0
LINE
  5
D8
330
1F
100
AcDbEntity
  8
Graypants_Dome36
100
AcDbLine
 10
-0.0000000001509761
 20
-1694.067022283511
 30
0.0
 11
444.3980241680376
 21
-1694.067022283515
 31
0.0
  0
LINE
  5
D9
330
1F
100
AcDbEntity
  8
Graypants_Dome36
100
AcDbLine
 10
-0.0000000001509761
 20
-1687.067022283511
 30
0.0
 11
442.2426979436248
 21
-1687.067022283515
 31
0.0
  0
LINE
  5
DA
330
1F
100
AcDbEntity
  8
Graypants_Dome36
100
AcDbLine
 10
-0.0000000001509761
 20
-1680.067022283511
 30
0.0
 11
439.9654576037267
 21
-1680.067022283515
 31
0.0
  0
LINE
  5
DB
330
1F
100
AcDbEntity
  8
Graypants_Dome36
100
AcDbLine
 10
-0.0000000001509761
 20
-1673.067022283511
 30
0.0
 11
437.5643996995846
 21
-1673.067022283515
 31
0.0
  0
LINE
  5
DC
330
1F
100
AcDbEntity
  8
Graypants_Dome36
100
AcDbLine
 10
-0.0000000001509761
 20
-1666.067022283511
 30
0.0
 11
435.0374741151113
 21
-1666.067022283515
 31
0.0
  0
LINE
  5
DD
330
1F
100
AcDbEntity
  8
Graypants_Dome36
100
AcDbLine
 10
-0.0000000001509761
 20
-1659.067022283511
 30
0.0
 11
432.3824740718085
 21
-1659.067022283515
 31
0.0
  0
LINE
  5
DE
330
1F
100
AcDbEntity
  8
Graypants_Dome36
100
AcDbLine
 10
-0.0000000001509761
 20
-1652.067022283511
 30
0.0
 11
429.5970249948903
 21
-1652.067022283515
 31
0.0
  0
LINE
  5
DF
330
1F
100
AcDbEntity
  8
Graypants_Dome36
100
AcDbLine
 10
-0.0000000001509761
 20
-1750.067022283511
 30
0.0
 11
457.4380874877518
 21
-1750.067022283515
 31
0.0
  0
LINE
  5
E0
330
1F
100
AcDbEntity
  8
Graypants_Dome36
100
AcDbLine
 10
-0.0000000001509761
 20
-1743.067022283511
 30
0.0
 11
456.2045636383439
 21
-1743.067022283515
 31
0.0
  0
LINE
  5
E1
330
1F
100
AcDbEntity
  8
Graypants_Dome36
100
AcDbLine
 10
-0.0000000001509761
 20
-1736.067022283511
 30
0.0
 11
454.8599827248511
 21
-1736.067022283515
 31
0.0
  0
LINE
  5
E2
330
1F
100
AcDbEntity
  8
Graypants_Dome36
100
AcDbLine
 10
-0.0000000001509761
 20
-1729.067022283511
 30
0.0
 11
453.4033567194369
 21
-1729.067022283515
 31
0.0
  0
LINE
  5
E3
330
1F
100
AcDbEntity
  8
Graypants_Dome36
100
AcDbLine
 10
-0.0000000001509761
 20
-1722.067022283511
 30
0.0
 11
451.8336019868955
 21
-1722.067022283515
 31
0.0
  0
LINE
  5
E4
330
1F
100
AcDbEntity
  8
Graypants_Dome36
100
AcDbLine
 10
-0.0000000001509761
 20
-1715.067022283511
 30
0.0
 11
450.1495350263665
 21
-1715.067022283515
 31
0.0
  0
LINE
  5
E5
330
1F
100
AcDbEntity
  8
Graypants_Dome36
100
AcDbLine
 10
-0.0000000001509761
 20
-1778.067022283511
 30
0.0
 11
461.2782282792571
 21
-1778.067022283515
 31
0.0
  0
LINE
  5
E6
330
1F
100
AcDbEntity
  8
Graypants_Dome36
100
AcDbLine
 10
-0.0000000001509761
 20
-1771.067022283511
 30
0.0
 11
460.4808398668183
 21
-1771.067022283515
 31
0.0
  0
LINE
  5
E7
330
1F
100
AcDbEntity
  8
Graypants_Dome36
100
AcDbLine
 10
-0.0000000001509761
 20
-1764.067022283511
 30
0.0
 11
459.575460489842
 21
-1764.067022283515
 31
0.0
  0
LINE
  5
E8
330
1F
100
AcDbEntity
  8
Graypants_Dome36
100
AcDbLine
 10
-0.0000000001509761
 20
-1757.067022283511
 30
0.0
 11
458.5614504997679
 21
-1757.067022283515
 31
0.0
  0
LINE
  5
E9
330
1F
100
AcDbEntity
  8
Graypants_Dome36
100
AcDbLine
 10
-0.0000000001509761
 20
-1785.067022283511
 30
0.0
 11
461.9681849266783
 21
-1785.067022283515
 31
0.0
  0
LINE
  5
EA
330
1F
100
AcDbEntity
  8
Graypants_Dome36
100
AcDbLine
 10
-0.0000000001509761
 20
-1792.067022283511
 30
0.0
 11
462.55119055565
 21
-1792.067022283515
 31
0.0
  0
LINE
  5
EB
330
1F
100
AcDbEntity
  8
Graypants_Dome36
100
AcDbLine
 10
-0.0000000001509761
 20
-1799.067022283511
 30
0.0
 11
463.0276491576385
 21
-1799.067022283515
 31
0.0
  0
LINE
  5
EC
330
1F
100
AcDbEntity
  8
Graypants_Dome36
100
AcDbLine
 10
-0.0000000001509761
 20
-1806.067022283511
 30
0.0
 11
463.3978893828164
 21
-1806.067022283515
 31
0.0
  0
LINE
  5
ED
330
1F
100
AcDbEntity
  8
Graypants_Dome36
100
AcDbLine
 10
-0.0000000001509761
 20
-1813.067022283511
 30
0.0
 11
463.6621656814893
 21
-1813.067022283515
 31
0.0
  0
LINE
  5
EE
330
1F
100
AcDbEntity
  8
Graypants_Dome36
100
AcDbLine
 10
463.6621656814893
 20
-1813.067022283519
 30
0.0
 11
463.6621656814893
 21
-1820.067022283522
 31
0.0
  0
LINE
  5
EF
330
1F
100
AcDbEntity
  8
Graypants_Dome36
100
AcDbLine
 10
463.3978893828164
 20
-1806.067022283519
 30
0.0
 11
463.3978893828164
 21
-1813.067022283522
 31
0.0
  0
LINE
  5
F0
330
1F
100
AcDbEntity
  8
Graypants_Dome36
100
AcDbLine
 10
463.0276491576385
 20
-1799.067022283515
 30
0.0
 11
463.0276491576385
 21
-1806.067022283519
 31
0.0
  0
LINE
  5
F1
330
1F
100
AcDbEntity
  8
Graypants_Dome36
100
AcDbLine
 10
462.55119055565
 20
-1792.067022283519
 30
0.0
 11
462.55119055565
 21
-1799.067022283522
 31
0.0
  0
LINE
  5
F2
330
1F
100
AcDbEntity
  8
Graypants_Dome36
100
AcDbLine
 10
461.9681849266783
 20
-1785.067022283519
 30
0.0
 11
461.9681849266783
 21
-1792.067022283522
 31
0.0
  0
LINE
  5
F3
330
1F
100
AcDbEntity
  8
Graypants_Dome36
100
AcDbLine
 10
461.2782282792571
 20
-1778.067022283519
 30
0.0
 11
461.2782282792571
 21
-1785.067022283522
 31
0.0
  0
LINE
  5
F4
330
1F
100
AcDbEntity
  8
Graypants_Dome36
100
AcDbLine
 10
460.4808398668183
 20
-1771.067022283519
 30
0.0
 11
460.4808398668183
 21
-1778.067022283522
 31
0.0
  0
LINE
  5
F5
330
1F
100
AcDbEntity
  8
Graypants_Dome36
100
AcDbLine
 10
459.5754604898423
 20
-1764.067022283519
 30
0.0
 11
459.5754604898423
 21
-1771.067022283522
 31
0.0
  0
LINE
  5
F6
330
1F
100
AcDbEntity
  8
Graypants_Dome36
100
AcDbLine
 10
458.5614504997675
 20
-1757.067022283519
 30
0.0
 11
458.5614504997675
 21
-1764.067022283522
 31
0.0
  0
LINE
  5
F7
330
1F
100
AcDbEntity
  8
Graypants_Dome36
100
AcDbLine
 10
457.4380874877518
 20
-1750.067022283519
 30
0.0
 11
457.4380874877518
 21
-1757.067022283522
 31
0.0
  0
LINE
  5
F8
330
1F
100
AcDbEntity
  8
Graypants_Dome36
100
AcDbLine
 10
456.2045636383439
 20
-1743.067022283519
 30
0.0
 11
456.2045636383439
 21
-1750.067022283522
 31
0.0
  0
LINE
  5
F9
330
1F
100
AcDbEntity
  8
Graypants_Dome36
100
AcDbLine
 10
454.8599827248511
 20
-1736.067022283519
 30
0.0
 11
454.8599827248511
 21
-1743.067022283522
 31
0.0
  0
LINE
  5
FA
330
1F
100
AcDbEntity
  8
Graypants_Dome36
100
AcDbLine
 10
453.4033567194367
 20
-1729.067022283515
 30
0.0
 11
453.4033567194367
 21
-1736.067022283519
 31
0.0
  0
LINE
  5
FB
330
1F
100
AcDbEntity
  8
Graypants_Dome36
100
AcDbLine
 10
451.8336019868955
 20
-1722.067022283519
 30
0.0
 11
451.8336019868955
 21
-1729.067022283522
 31
0.0
  0
LINE
  5
FC
330
1F
100
AcDbEntity
  8
Graypants_Dome36
100
AcDbLine
 10
450.1495350263651
 20
-1715.067022283511
 30
0.0
 11
450.1495350263651
 21
-1722.067022283515
 31
0.0
  0
LINE
  5
FD
330
1F
100
AcDbEntity
  8
Graypants_Dome36
100
AcDbLine
 10
448.3498677199022
 20
-1708.067022283522
 30
0.0
 11
448.3498677199022
 21
-1715.067022283526
 31
0.0
  0
LINE
  5
FE
330
1F
100
AcDbEntity
  8
Graypants_Dome36
100
AcDbLine
 10
446.4332020408594
 20
-1701.067022283515
 30
0.0
 11
446.4332020408594
 21
-1708.067022283519
 31
0.0
  0
LINE
  5
FF
330
1F
100
AcDbEntity
  8
Graypants_Dome36
100
AcDbLine
 10
444.3980241680363
 20
-1694.067022283511
 30
0.0
 11
444.3980241680363
 21
-1701.067022283515
 31
0.0
  0
LINE
  5
100
330
1F
100
AcDbEntity
  8
Graypants_Dome36
100
AcDbLine
 10
442.2426979436243
 20
-1687.067022283522
 30
0.0
 11
442.2426979436243
 21
-1694.067022283526
 31
0.0
  0
LINE
  5
101
330
1F
100
AcDbEntity
  8
Graypants_Dome36
100
AcDbLine
 10
439.9654576037274
 20
-1680.067022283519
 30
0.0
 11
439.9654576037274
 21
-1687.067022283522
 31
0.0
  0
LINE
  5
102
330
1F
100
AcDbEntity
  8
Graypants_Dome36
100
AcDbLine
 10
437.5643996995846
 20
-1673.067022283526
 30
0.0
 11
437.5643996995846
 21
-1680.067022283529
 31
0.0
  0
LINE
  5
103
330
1F
100
AcDbEntity
  8
Graypants_Dome36
100
AcDbLine
 10
435.0374741151147
 20
-1666.067022283522
 30
0.0
 11
435.0374741151147
 21
-1673.067022283526
 31
0.0
  0
LINE
  5
104
330
1F
100
AcDbEntity
  8
Graypants_Dome36
100
AcDbLine
 10
432.3824740718085
 20
-1659.067022283508
 30
0.0
 11
432.3824740718085
 21
-1666.067022283511
 31
0.0
  0
LINE
  5
105
330
1F
100
AcDbEntity
  8
Graypants_Dome36
100
AcDbLine
 10
429.5970249948903
 20
-1652.067022283515
 30
0.0
 11
429.5970249948903
 21
-1659.067022283519
 31
0.0
  0
LINE
  5
106
330
1F
100
AcDbEntity
  8
Graypants_Dome36
100
AcDbLine
 10
426.6785720943371
 20
-1645.067022283519
 30
0.0
 11
426.6785720943371
 21
-1652.067022283522
 31
0.0
  0
LINE
  5
107
330
1F
100
AcDbEntity
  8
Graypants_Dome36
100
AcDbLine
 10
423.6243664904819
 20
-1638.067022283519
 30
0.0
 11
423.6243664904819
 21
-1645.067022283522
 31
0.0
  0
LINE
  5
108
330
1F
100
AcDbEntity
  8
Graypants_Dome36
100
AcDbLine
 10
420.4314496852771
 20
-1631.067022283522
 30
0.0
 11
420.4314496852771
 21
-1638.067022283526
 31
0.0
  0
LINE
  5
109
330
1F
100
AcDbEntity
  8
Graypants_Dome36
100
AcDbLine
 10
417.0966361461863
 20
-1624.067022283515
 30
0.0
 11
417.0966361461863
 21
-1631.067022283519
 31
0.0
  0
LINE
  5
10A
330
1F
100
AcDbEntity
  8
Graypants_Dome36
100
AcDbLine
 10
413.6164937287522
 20
-1617.067022283522
 30
0.0
 11
413.6164937287522
 21
-1624.067022283526
 31
0.0
  0
LINE
  5
10B
330
1F
100
AcDbEntity
  8
Graypants_Dome36
100
AcDbLine
 10
409.9873216143001
 20
-1610.067022283522
 30
0.0
 11
409.9873216143001
 21
-1617.067022283526
 31
0.0
  0
LINE
  5
10C
330
1F
100
AcDbEntity
  8
Graypants_Dome36
100
AcDbLine
 10
406.2051253793688
 20
-1603.067022283519
 30
0.0
 11
406.2051253793688
 21
-1610.067022283522
 31
0.0
  0
LINE
  5
10D
330
1F
100
AcDbEntity
  8
Graypants_Dome36
100
AcDbLine
 10
402.2655887401618
 20
-1596.067022283522
 30
0.0
 11
402.2655887401618
 21
-1603.067022283526
 31
0.0
  0
LINE
  5
10E
330
1F
100
AcDbEntity
  8
Graypants_Dome36
100
AcDbLine
 10
398.1640414257306
 20
-1589.067022283522
 30
0.0
 11
398.1640414257306
 21
-1596.067022283526
 31
0.0
  0
LINE
  5
10F
330
1F
100
AcDbEntity
  8
Graypants_Dome36
100
AcDbLine
 10
393.8954225228695
 20
-1582.067022283519
 30
0.0
 11
393.8954225228695
 21
-1589.067022283522
 31
0.0
  0
LINE
  5
110
330
1F
100
AcDbEntity
  8
Graypants_Dome36
100
AcDbLine
 10
389.4542384985361
 20
-1575.067022283515
 30
0.0
 11
389.4542384985361
 21
-1582.067022283519
 31
0.0
  0
LINE
  5
111
330
1F
100
AcDbEntity
  8
Graypants_Dome36
100
AcDbLine
 10
384.8345149339846
 20
-1568.067022283522
 30
0.0
 11
384.8345149339846
 21
-1575.067022283526
 31
0.0
  0
LINE
  5
112
330
1F
100
AcDbEntity
  8
Graypants_Dome36
100
AcDbLine
 10
380.0297407894236
 20
-1561.067022283508
 30
0.0
 11
380.0297407894236
 21
-1568.067022283511
 31
0.0
  0
LINE
  5
113
330
1F
100
AcDbEntity
  8
Graypants_Dome36
100
AcDbLine
 10
-0.0000000001509761
 20
-1554.067022283511
 30
0.0
 11
375.0328037445202
 21
-1554.067022283511
 31
0.0
  0
LINE
  5
114
330
1F
100
AcDbEntity
  8
Graypants_Dome36
100
AcDbLine
 10
375.0328037445202
 20
-1554.067022283511
 30
0.0
 11
375.0328037445202
 21
-1561.067022283515
 31
0.0
  0
LINE
  5
115
330
1F
100
AcDbEntity
  8
Graypants_Dome36
100
AcDbLine
 10
369.8359148115285
 20
-1547.067022283515
 30
0.0
 11
369.8359148115285
 21
-1554.067022283519
 31
0.0
  0
LINE
  5
116
330
1F
100
AcDbEntity
  8
Graypants_Dome36
100
AcDbLine
 10
364.4305199684554
 20
-1540.067022283511
 30
0.0
 11
364.4305199684554
 21
-1547.067022283515
 31
0.0
  0
LINE
  5
117
330
1F
100
AcDbEntity
  8
Graypants_Dome36
100
AcDbLine
 10
358.8071959764441
 20
-1533.067022283508
 30
0.0
 11
358.8071959764441
 21
-1540.067022283511
 31
0.0
  0
LINE
  5
118
330
1F
100
AcDbEntity
  8
Graypants_Dome36
100
AcDbLine
 10
352.9555267799105
 20
-1526.067022283515
 30
0.0
 11
352.9555267799105
 21
-1533.067022283519
 31
0.0
  0
LINE
  5
119
330
1F
100
AcDbEntity
  8
Graypants_Dome36
100
AcDbLine
 10
346.863955873893
 20
-1519.067022283511
 30
0.0
 11
346.863955873893
 21
-1526.067022283515
 31
0.0
  0
LINE
  5
11A
330
1F
100
AcDbEntity
  8
Graypants_Dome36
100
AcDbLine
 10
340.5196086637134
 20
-1512.067022283515
 30
0.0
 11
340.5196086637134
 21
-1519.067022283519
 31
0.0
  0
LINE
  5
11B
330
1F
100
AcDbEntity
  8
Graypants_Dome36
100
AcDbLine
 10
333.9080769979817
 20
-1505.067022283515
 30
0.0
 11
333.9080769979817
 21
-1512.067022283519
 31
0.0
  0
LINE
  5
11C
330
1F
100
AcDbEntity
  8
Graypants_Dome36
100
AcDbLine
 10
327.0131555220607
 20
-1498.067022283515
 30
0.0
 11
327.0131555220607
 21
-1505.067022283519
 31
0.0
  0
LINE
  5
11D
330
1F
100
AcDbEntity
  8
Graypants_Dome36
100
AcDbLine
 10
319.8165159657901
 20
-1491.067022283515
 30
0.0
 11
319.8165159657901
 21
-1498.067022283519
 31
0.0
  0
LINE
  5
11E
330
1F
100
AcDbEntity
  8
Graypants_Dome36
100
AcDbLine
 10
312.297300475841
 20
-1484.067022283515
 30
0.0
 11
312.297300475841
 21
-1491.067022283519
 31
0.0
  0
LINE
  5
11F
330
1F
100
AcDbEntity
  8
Graypants_Dome36
100
AcDbLine
 10
304.4316078932918
 20
-1477.067022283515
 30
0.0
 11
304.4316078932918
 21
-1484.067022283519
 31
0.0
  0
LINE
  5
120
330
1F
100
AcDbEntity
  8
Graypants_Dome36
100
AcDbLine
 10
296.191836289423
 20
-1470.067022283508
 30
0.0
 11
296.191836289423
 21
-1477.067022283511
 31
0.0
  0
LINE
  5
121
330
1F
100
AcDbEntity
  8
Graypants_Dome36
100
AcDbLine
 10
287.5458291898904
 20
-1463.067022283511
 30
0.0
 11
287.5458291898904
 21
-1470.067022283515
 31
0.0
  0
LINE
  5
122
330
1F
100
AcDbEntity
  8
Graypants_Dome36
100
AcDbLine
 10
278.4557485212058
 20
-1456.067022283515
 30
0.0
 11
278.4557485212058
 21
-1463.067022283519
 31
0.0
  0
LINE
  5
123
330
1F
100
AcDbEntity
  8
Graypants_Dome36
100
AcDbLine
 10
268.8765588230167
 20
-1449.067022283511
 30
0.0
 11
268.8765588230167
 21
-1456.067022283515
 31
0.0
  0
LINE
  5
124
330
1F
100
AcDbEntity
  8
Graypants_Dome36
100
AcDbLine
 10
258.7539446742855
 20
-1442.067022283511
 30
0.0
 11
258.7539446742855
 21
-1449.067022283515
 31
0.0
  0
LINE
  5
125
330
1F
100
AcDbEntity
  8
Graypants_Dome36
100
AcDbLine
 10
248.0213778780242
 20
-1435.067022283511
 30
0.0
 11
248.0213778780242
 21
-1442.067022283515
 31
0.0
  0
LINE
  5
126
330
1F
100
AcDbEntity
  8
Graypants_Dome36
100
AcDbLine
 10
236.5958661610869
 20
-1428.067022283511
 30
0.0
 11
236.5958661610869
 21
-1435.067022283515
 31
0.0
  0
LINE
  5
127
330
1F
100
AcDbEntity
  8
Graypants_Dome36
100
AcDbLine
 10
224.3715754825505
 20
-1421.067022283504
 30
0.0
 11
224.3715754825505
 21
-1428.067022283508
 31
0.0
  0
LINE
  5
128
330
1F
100
AcDbEntity
  8
Graypants_Dome36
100
AcDbLine
 10
211.2098574511185
 20
-1414.067022283504
 30
0.0
 11
211.2098574511185
 21
-1421.067022283508
 31
0.0
  0
LINE
  5
129
330
1F
100
AcDbEntity
  8
Graypants_Dome36
100
AcDbLine
 10
196.9228373869501
 20
-1407.067022283511
 30
0.0
 11
196.9228373869501
 21
-1414.067022283515
 31
0.0
  0
LINE
  5
12A
330
1F
100
AcDbEntity
  8
Graypants_Dome36
100
AcDbLine
 10
181.2445968423053
 20
-1400.067022283511
 30
0.0
 11
181.2445968423053
 21
-1407.067022283515
 31
0.0
  0
LINE
  5
12B
330
1F
100
AcDbEntity
  8
Graypants_Dome36
100
AcDbLine
 10
163.7760784868744
 20
-1393.067022283511
 30
0.0
 11
163.7760784868744
 21
-1400.067022283515
 31
0.0
  0
LINE
  5
12C
330
1F
100
AcDbEntity
  8
Graypants_Dome36
100
AcDbLine
 10
143.8666183815551
 20
-1386.067022283511
 30
0.0
 11
143.8666183815551
 21
-1393.067022283515
 31
0.0
  0
LINE
  5
12D
330
1F
100
AcDbEntity
  8
Graypants_Dome36
100
AcDbLine
 10
120.3104479442677
 20
-1379.067022283511
 30
0.0
 11
120.3104479442677
 21
-1386.067022283515
 31
0.0
  0
LINE
  5
12E
330
1F
100
AcDbEntity
  8
Graypants_Dome36
100
AcDbLine
 10
90.29730829081768
 20
-1372.067022283511
 30
0.0
 11
90.29730829081768
 21
-1379.067022283515
 31
0.0
  0
LINE
  5
12F
330
1F
100
AcDbEntity
  8
Graypants_Dome36
100
AcDbLine
 10
463.6621656814893
 20
-1820.067022283522
 30
0.0
 11
463.6621656814893
 21
-1827.067022283526
 31
0.0
  0
LINE
  5
130
330
1F
100
AcDbEntity
  8
Graypants_Dome36
100
AcDbLine
 10
-0.0000000001509761
 20
-1820.067022283511
 30
0.0
 11
463.6621656814893
 21
-1820.067022283515
 31
0.0
  0
LINE
  5
131
330
1F
100
AcDbEntity
  8
Graypants_Dome36
100
AcDbLine
 10
-0.0000000001509761
 20
-1827.067022283511
 30
0.0
 11
463.6621656814893
 21
-1827.067022283515
 31
0.0
  0
LINE
  5
132
330
1F
100
AcDbEntity
  8
Graypants_Dome36
100
AcDbLine
 10
-0.0000000001509761
 20
-1834.06702228354
 30
0.0
 11
463.6621656814893
 21
-1834.067022283537
 31
0.0
  0
LINE
  5
133
330
1F
100
AcDbEntity
  8
Graypants_Dome36
100
AcDbLine
 10
463.6621656814893
 20
-1834.067022283529
 30
0.0
 11
463.6621656814893
 21
-1827.067022283526
 31
0.0
  0
LINE
  5
134
330
1F
100
AcDbEntity
  8
Graypants_Dome36
100
AcDbLine
 10
461.9681849266783
 20
-1869.067022283533
 30
0.0
 11
461.9681849266783
 21
-1862.067022283529
 31
0.0
  0
LINE
  5
135
330
1F
100
AcDbEntity
  8
Graypants_Dome36
100
AcDbLine
 10
462.55119055565
 20
-1862.067022283533
 30
0.0
 11
462.55119055565
 21
-1855.067022283529
 31
0.0
  0
LINE
  5
136
330
1F
100
AcDbEntity
  8
Graypants_Dome36
100
AcDbLine
 10
463.0276491576385
 20
-1855.067022283537
 30
0.0
 11
463.0276491576385
 21
-1848.067022283533
 31
0.0
  0
LINE
  5
137
330
1F
100
AcDbEntity
  8
Graypants_Dome36
100
AcDbLine
 10
463.3978893828164
 20
-1848.067022283533
 30
0.0
 11
463.3978893828164
 21
-1841.067022283529
 31
0.0
  0
LINE
  5
138
330
1F
100
AcDbEntity
  8
Graypants_Dome36
100
AcDbLine
 10
463.6621656814893
 20
-1841.067022283533
 30
0.0
 11
463.6621656814893
 21
-1834.067022283529
 31
0.0
  0
LINE
  5
139
330
1F
100
AcDbEntity
  8
Graypants_Dome36
100
AcDbLine
 10
-0.0000000001509761
 20
-1841.06702228354
 30
0.0
 11
463.6621656814893
 21
-1841.067022283537
 31
0.0
  0
LINE
  5
13A
330
1F
100
AcDbEntity
  8
Graypants_Dome36
100
AcDbLine
 10
-0.0000000001509761
 20
-1848.06702228354
 30
0.0
 11
463.3978893828164
 21
-1848.067022283537
 31
0.0
  0
LINE
  5
13B
330
1F
100
AcDbEntity
  8
Graypants_Dome36
100
AcDbLine
 10
-0.0000000001509761
 20
-1855.06702228354
 30
0.0
 11
463.0276491576385
 21
-1855.067022283537
 31
0.0
  0
LINE
  5
13C
330
1F
100
AcDbEntity
  8
Graypants_Dome36
100
AcDbLine
 10
-0.0000000001509761
 20
-1862.06702228354
 30
0.0
 11
462.55119055565
 21
-1862.067022283537
 31
0.0
  0
LINE
  5
13D
330
1F
100
AcDbEntity
  8
Graypants_Dome36
100
AcDbLine
 10
-0.0000000001509761
 20
-1869.06702228354
 30
0.0
 11
461.9681849266783
 21
-1869.067022283537
 31
0.0
  0
LINE
  5
13E
330
1F
100
AcDbEntity
  8
Graypants_Dome36
100
AcDbLine
 10
-0.0000000001509761
 20
-1869.06702228354
 30
0.0
 11
-461.9681849269803
 21
-1869.067022283537
 31
0.0
  0
LINE
  5
13F
330
1F
100
AcDbEntity
  8
Graypants_Dome36
100
AcDbLine
 10
-0.0000000001509761
 20
-1862.06702228354
 30
0.0
 11
-462.551190555952
 21
-1862.067022283537
 31
0.0
  0
LINE
  5
140
330
1F
100
AcDbEntity
  8
Graypants_Dome36
100
AcDbLine
 10
-0.0000000001509761
 20
-1855.06702228354
 30
0.0
 11
-463.0276491579405
 21
-1855.067022283537
 31
0.0
  0
LINE
  5
141
330
1F
100
AcDbEntity
  8
Graypants_Dome36
100
AcDbLine
 10
-0.0000000001509761
 20
-1848.06702228354
 30
0.0
 11
-463.3978893831184
 21
-1848.067022283537
 31
0.0
  0
LINE
  5
142
330
1F
100
AcDbEntity
  8
Graypants_Dome36
100
AcDbLine
 10
-0.0000000001509761
 20
-1841.06702228354
 30
0.0
 11
-463.6621656817913
 21
-1841.067022283537
 31
0.0
  0
LINE
  5
143
330
1F
100
AcDbEntity
  8
Graypants_Dome36
100
AcDbLine
 10
-463.6621656817913
 20
-1841.067022283533
 30
0.0
 11
-463.6621656817913
 21
-1834.067022283529
 31
0.0
  0
LINE
  5
144
330
1F
100
AcDbEntity
  8
Graypants_Dome36
100
AcDbLine
 10
-463.3978893831184
 20
-1848.067022283533
 30
0.0
 11
-463.3978893831184
 21
-1841.067022283529
 31
0.0
  0
LINE
  5
145
330
1F
100
AcDbEntity
  8
Graypants_Dome36
100
AcDbLine
 10
-463.0276491579405
 20
-1855.067022283537
 30
0.0
 11
-463.0276491579405
 21
-1848.067022283533
 31
0.0
  0
LINE
  5
146
330
1F
100
AcDbEntity
  8
Graypants_Dome36
100
AcDbLine
 10
-462.551190555952
 20
-1862.067022283533
 30
0.0
 11
-462.551190555952
 21
-1855.067022283529
 31
0.0
  0
LINE
  5
147
330
1F
100
AcDbEntity
  8
Graypants_Dome36
100
AcDbLine
 10
-461.9681849269803
 20
-1869.067022283533
 30
0.0
 11
-461.9681849269803
 21
-1862.067022283529
 31
0.0
  0
LINE
  5
148
330
1F
100
AcDbEntity
  8
Graypants_Dome36
100
AcDbLine
 10
-463.6621656817913
 20
-1834.067022283529
 30
0.0
 11
-463.6621656817913
 21
-1827.067022283526
 31
0.0
  0
LINE
  5
149
330
1F
100
AcDbEntity
  8
Graypants_Dome36
100
AcDbLine
 10
-0.0000000001509761
 20
-1834.06702228354
 30
0.0
 11
-463.6621656817913
 21
-1834.067022283537
 31
0.0
  0
LINE
  5
14A
330
1F
100
AcDbEntity
  8
Graypants_Dome36
100
AcDbLine
 10
-0.0000000001509761
 20
-1827.067022283511
 30
0.0
 11
-463.6621656817913
 21
-1827.067022283515
 31
0.0
  0
LINE
  5
14B
330
1F
100
AcDbEntity
  8
Graypants_Dome36
100
AcDbLine
 10
-0.0000000001509761
 20
-1820.067022283511
 30
0.0
 11
-463.6621656817913
 21
-1820.067022283515
 31
0.0
  0
LINE
  5
14C
330
1F
100
AcDbEntity
  8
Graypants_Dome36
100
AcDbLine
 10
-463.6621656817913
 20
-1820.067022283522
 30
0.0
 11
-463.6621656817913
 21
-1827.067022283526
 31
0.0
  0
LINE
  5
14D
330
1F
100
AcDbEntity
  8
Graypants_Dome36
100
AcDbLine
 10
-90.29730829111963
 20
-1372.067022283511
 30
0.0
 11
-90.29730829111963
 21
-1379.067022283515
 31
0.0
  0
LINE
  5
14E
330
1F
100
AcDbEntity
  8
Graypants_Dome36
100
AcDbLine
 10
-120.3104479445697
 20
-1379.067022283511
 30
0.0
 11
-120.3104479445697
 21
-1386.067022283515
 31
0.0
  0
LINE
  5
14F
330
1F
100
AcDbEntity
  8
Graypants_Dome36
100
AcDbLine
 10
-143.8666183818571
 20
-1386.067022283511
 30
0.0
 11
-143.8666183818571
 21
-1393.067022283515
 31
0.0
  0
LINE
  5
150
330
1F
100
AcDbEntity
  8
Graypants_Dome36
100
AcDbLine
 10
-163.7760784871764
 20
-1393.067022283511
 30
0.0
 11
-163.7760784871764
 21
-1400.067022283515
 31
0.0
  0
LINE
  5
151
330
1F
100
AcDbEntity
  8
Graypants_Dome36
100
AcDbLine
 10
-181.2445968426073
 20
-1400.067022283511
 30
0.0
 11
-181.2445968426073
 21
-1407.067022283515
 31
0.0
  0
LINE
  5
152
330
1F
100
AcDbEntity
  8
Graypants_Dome36
100
AcDbLine
 10
-196.922837387252
 20
-1407.067022283511
 30
0.0
 11
-196.922837387252
 21
-1414.067022283515
 31
0.0
  0
LINE
  5
153
330
1F
100
AcDbEntity
  8
Graypants_Dome36
100
AcDbLine
 10
-211.2098574514205
 20
-1414.067022283504
 30
0.0
 11
-211.2098574514205
 21
-1421.067022283508
 31
0.0
  0
LINE
  5
154
330
1F
100
AcDbEntity
  8
Graypants_Dome36
100
AcDbLine
 10
-224.3715754828524
 20
-1421.067022283504
 30
0.0
 11
-224.3715754828524
 21
-1428.067022283508
 31
0.0
  0
LINE
  5
155
330
1F
100
AcDbEntity
  8
Graypants_Dome36
100
AcDbLine
 10
-236.5958661613888
 20
-1428.067022283511
 30
0.0
 11
-236.5958661613888
 21
-1435.067022283515
 31
0.0
  0
LINE
  5
156
330
1F
100
AcDbEntity
  8
Graypants_Dome36
100
AcDbLine
 10
-248.0213778783261
 20
-1435.067022283511
 30
0.0
 11
-248.0213778783261
 21
-1442.067022283515
 31
0.0
  0
LINE
  5
157
330
1F
100
AcDbEntity
  8
Graypants_Dome36
100
AcDbLine
 10
-258.7539446745875
 20
-1442.067022283511
 30
0.0
 11
-258.7539446745875
 21
-1449.067022283515
 31
0.0
  0
LINE
  5
158
330
1F
100
AcDbEntity
  8
Graypants_Dome36
100
AcDbLine
 10
-268.8765588233186
 20
-1449.067022283511
 30
0.0
 11
-268.8765588233186
 21
-1456.067022283515
 31
0.0
  0
LINE
  5
159
330
1F
100
AcDbEntity
  8
Graypants_Dome36
100
AcDbLine
 10
-278.4557485215078
 20
-1456.067022283515
 30
0.0
 11
-278.4557485215078
 21
-1463.067022283519
 31
0.0
  0
LINE
  5
15A
330
1F
100
AcDbEntity
  8
Graypants_Dome36
100
AcDbLine
 10
-287.5458291901923
 20
-1463.067022283511
 30
0.0
 11
-287.5458291901923
 21
-1470.067022283515
 31
0.0
  0
LINE
  5
15B
330
1F
100
AcDbEntity
  8
Graypants_Dome36
100
AcDbLine
 10
-296.191836289725
 20
-1470.067022283508
 30
0.0
 11
-296.191836289725
 21
-1477.067022283511
 31
0.0
  0
LINE
  5
15C
330
1F
100
AcDbEntity
  8
Graypants_Dome36
100
AcDbLine
 10
-304.4316078935938
 20
-1477.067022283515
 30
0.0
 11
-304.4316078935938
 21
-1484.067022283519
 31
0.0
  0
LINE
  5
15D
330
1F
100
AcDbEntity
  8
Graypants_Dome36
100
AcDbLine
 10
-312.2973004761429
 20
-1484.067022283515
 30
0.0
 11
-312.2973004761429
 21
-1491.067022283519
 31
0.0
  0
LINE
  5
15E
330
1F
100
AcDbEntity
  8
Graypants_Dome36
100
AcDbLine
 10
-319.8165159660921
 20
-1491.067022283515
 30
0.0
 11
-319.8165159660921
 21
-1498.067022283519
 31
0.0
  0
LINE
  5
15F
330
1F
100
AcDbEntity
  8
Graypants_Dome36
100
AcDbLine
 10
-327.0131555223627
 20
-1498.067022283515
 30
0.0
 11
-327.0131555223627
 21
-1505.067022283519
 31
0.0
  0
LINE
  5
160
330
1F
100
AcDbEntity
  8
Graypants_Dome36
100
AcDbLine
 10
-333.9080769982836
 20
-1505.067022283515
 30
0.0
 11
-333.9080769982836
 21
-1512.067022283519
 31
0.0
  0
LINE
  5
161
330
1F
100
AcDbEntity
  8
Graypants_Dome36
100
AcDbLine
 10
-340.5196086640153
 20
-1512.067022283515
 30
0.0
 11
-340.5196086640153
 21
-1519.067022283519
 31
0.0
  0
LINE
  5
162
330
1F
100
AcDbEntity
  8
Graypants_Dome36
100
AcDbLine
 10
-346.863955874195
 20
-1519.067022283511
 30
0.0
 11
-346.863955874195
 21
-1526.067022283515
 31
0.0
  0
LINE
  5
163
330
1F
100
AcDbEntity
  8
Graypants_Dome36
100
AcDbLine
 10
-352.9555267802125
 20
-1526.067022283515
 30
0.0
 11
-352.9555267802125
 21
-1533.067022283519
 31
0.0
  0
LINE
  5
164
330
1F
100
AcDbEntity
  8
Graypants_Dome36
100
AcDbLine
 10
-358.807195976746
 20
-1533.067022283508
 30
0.0
 11
-358.807195976746
 21
-1540.067022283511
 31
0.0
  0
LINE
  5
165
330
1F
100
AcDbEntity
  8
Graypants_Dome36
100
AcDbLine
 10
-364.4305199687574
 20
-1540.067022283511
 30
0.0
 11
-364.4305199687574
 21
-1547.067022283515
 31
0.0
  0
LINE
  5
166
330
1F
100
AcDbEntity
  8
Graypants_Dome36
100
AcDbLine
 10
-369.8359148118304
 20
-1547.067022283515
 30
0.0
 11
-369.8359148118304
 21
-1554.067022283519
 31
0.0
  0
LINE
  5
167
330
1F
100
AcDbEntity
  8
Graypants_Dome36
100
AcDbLine
 10
-375.0328037448221
 20
-1554.067022283511
 30
0.0
 11
-375.0328037448221
 21
-1561.067022283515
 31
0.0
  0
LINE
  5
168
330
1F
100
AcDbEntity
  8
Graypants_Dome36
100
AcDbLine
 10
-0.0000000001509761
 20
-1554.067022283511
 30
0.0
 11
-375.0328037448221
 21
-1554.067022283511
 31
0.0
  0
LINE
  5
169
330
1F
100
AcDbEntity
  8
Graypants_Dome36
100
AcDbLine
 10
-380.0297407897256
 20
-1561.067022283508
 30
0.0
 11
-380.0297407897256
 21
-1568.067022283511
 31
0.0
  0
LINE
  5
16A
330
1F
100
AcDbEntity
  8
Graypants_Dome36
100
AcDbLine
 10
-384.8345149342865
 20
-1568.067022283522
 30
0.0
 11
-384.8345149342865
 21
-1575.067022283526
 31
0.0
  0
LINE
  5
16B
330
1F
100
AcDbEntity
  8
Graypants_Dome36
100
AcDbLine
 10
-389.4542384988381
 20
-1575.067022283515
 30
0.0
 11
-389.4542384988381
 21
-1582.067022283519
 31
0.0
  0
LINE
  5
16C
330
1F
100
AcDbEntity
  8
Graypants_Dome36
100
AcDbLine
 10
-393.8954225231714
 20
-1582.067022283519
 30
0.0
 11
-393.8954225231714
 21
-1589.067022283522
 31
0.0
  0
LINE
  5
16D
330
1F
100
AcDbEntity
  8
Graypants_Dome36
100
AcDbLine
 10
-398.1640414260326
 20
-1589.067022283522
 30
0.0
 11
-398.1640414260326
 21
-1596.067022283526
 31
0.0
  0
LINE
  5
16E
330
1F
100
AcDbEntity
  8
Graypants_Dome36
100
AcDbLine
 10
-402.2655887404637
 20
-1596.067022283522
 30
0.0
 11
-402.2655887404637
 21
-1603.067022283526
 31
0.0
  0
LINE
  5
16F
330
1F
100
AcDbEntity
  8
Graypants_Dome36
100
AcDbLine
 10
-406.2051253796708
 20
-1603.067022283519
 30
0.0
 11
-406.2051253796708
 21
-1610.067022283522
 31
0.0
  0
LINE
  5
170
330
1F
100
AcDbEntity
  8
Graypants_Dome36
100
AcDbLine
 10
-409.987321614602
 20
-1610.067022283522
 30
0.0
 11
-409.987321614602
 21
-1617.067022283526
 31
0.0
  0
LINE
  5
171
330
1F
100
AcDbEntity
  8
Graypants_Dome36
100
AcDbLine
 10
-413.6164937290541
 20
-1617.067022283522
 30
0.0
 11
-413.6164937290541
 21
-1624.067022283526
 31
0.0
  0
LINE
  5
172
330
1F
100
AcDbEntity
  8
Graypants_Dome36
100
AcDbLine
 10
-417.0966361464882
 20
-1624.067022283515
 30
0.0
 11
-417.0966361464882
 21
-1631.067022283519
 31
0.0
  0
LINE
  5
173
330
1F
100
AcDbEntity
  8
Graypants_Dome36
100
AcDbLine
 10
-420.4314496855791
 20
-1631.067022283522
 30
0.0
 11
-420.4314496855791
 21
-1638.067022283526
 31
0.0
  0
LINE
  5
174
330
1F
100
AcDbEntity
  8
Graypants_Dome36
100
AcDbLine
 10
-423.6243664907838
 20
-1638.067022283519
 30
0.0
 11
-423.6243664907838
 21
-1645.067022283522
 31
0.0
  0
LINE
  5
175
330
1F
100
AcDbEntity
  8
Graypants_Dome36
100
AcDbLine
 10
-426.6785720946391
 20
-1645.067022283519
 30
0.0
 11
-426.6785720946391
 21
-1652.067022283522
 31
0.0
  0
LINE
  5
176
330
1F
100
AcDbEntity
  8
Graypants_Dome36
100
AcDbLine
 10
-429.5970249951922
 20
-1652.067022283515
 30
0.0
 11
-429.5970249951922
 21
-1659.067022283519
 31
0.0
  0
LINE
  5
177
330
1F
100
AcDbEntity
  8
Graypants_Dome36
100
AcDbLine
 10
-432.3824740721104
 20
-1659.067022283508
 30
0.0
 11
-432.3824740721104
 21
-1666.067022283511
 31
0.0
  0
LINE
  5
178
330
1F
100
AcDbEntity
  8
Graypants_Dome36
100
AcDbLine
 10
-435.0374741154167
 20
-1666.067022283522
 30
0.0
 11
-435.0374741154167
 21
-1673.067022283526
 31
0.0
  0
LINE
  5
179
330
1F
100
AcDbEntity
  8
Graypants_Dome36
100
AcDbLine
 10
-437.5643996998865
 20
-1673.067022283526
 30
0.0
 11
-437.5643996998865
 21
-1680.067022283529
 31
0.0
  0
LINE
  5
17A
330
1F
100
AcDbEntity
  8
Graypants_Dome36
100
AcDbLine
 10
-439.9654576040293
 20
-1680.067022283519
 30
0.0
 11
-439.9654576040293
 21
-1687.067022283522
 31
0.0
  0
LINE
  5
17B
330
1F
100
AcDbEntity
  8
Graypants_Dome36
100
AcDbLine
 10
-442.2426979439263
 20
-1687.067022283522
 30
0.0
 11
-442.2426979439263
 21
-1694.067022283526
 31
0.0
  0
LINE
  5
17C
330
1F
100
AcDbEntity
  8
Graypants_Dome36
100
AcDbLine
 10
-444.3980241683382
 20
-1694.067022283511
 30
0.0
 11
-444.3980241683382
 21
-1701.067022283515
 31
0.0
  0
LINE
  5
17D
330
1F
100
AcDbEntity
  8
Graypants_Dome36
100
AcDbLine
 10
-446.4332020411614
 20
-1701.067022283515
 30
0.0
 11
-446.4332020411614
 21
-1708.067022283519
 31
0.0
  0
LINE
  5
17E
330
1F
100
AcDbEntity
  8
Graypants_Dome36
100
AcDbLine
 10
-448.3498677202042
 20
-1708.067022283522
 30
0.0
 11
-448.3498677202042
 21
-1715.067022283526
 31
0.0
  0
LINE
  5
17F
330
1F
100
AcDbEntity
  8
Graypants_Dome36
100
AcDbLine
 10
-450.1495350266671
 20
-1715.067022283511
 30
0.0
 11
-450.1495350266671
 21
-1722.067022283515
 31
0.0
  0
LINE
  5
180
330
1F
100
AcDbEntity
  8
Graypants_Dome36
100
AcDbLine
 10
-451.8336019871974
 20
-1722.067022283519
 30
0.0
 11
-451.8336019871974
 21
-1729.067022283522
 31
0.0
  0
LINE
  5
181
330
1F
100
AcDbEntity
  8
Graypants_Dome36
100
AcDbLine
 10
-453.4033567197387
 20
-1729.067022283515
 30
0.0
 11
-453.4033567197387
 21
-1736.067022283519
 31
0.0
  0
LINE
  5
182
330
1F
100
AcDbEntity
  8
Graypants_Dome36
100
AcDbLine
 10
-454.859982725153
 20
-1736.067022283519
 30
0.0
 11
-454.859982725153
 21
-1743.067022283522
 31
0.0
  0
LINE
  5
183
330
1F
100
AcDbEntity
  8
Graypants_Dome36
100
AcDbLine
 10
-456.2045636386458
 20
-1743.067022283519
 30
0.0
 11
-456.2045636386458
 21
-1750.067022283522
 31
0.0
  0
LINE
  5
184
330
1F
100
AcDbEntity
  8
Graypants_Dome36
100
AcDbLine
 10
-457.4380874880537
 20
-1750.067022283519
 30
0.0
 11
-457.4380874880537
 21
-1757.067022283522
 31
0.0
  0
LINE
  5
185
330
1F
100
AcDbEntity
  8
Graypants_Dome36
100
AcDbLine
 10
-458.5614505000694
 20
-1757.067022283519
 30
0.0
 11
-458.5614505000694
 21
-1764.067022283522
 31
0.0
  0
LINE
  5
186
330
1F
100
AcDbEntity
  8
Graypants_Dome36
100
AcDbLine
 10
-459.5754604901442
 20
-1764.067022283519
 30
0.0
 11
-459.5754604901442
 21
-1771.067022283522
 31
0.0
  0
LINE
  5
187
330
1F
100
AcDbEntity
  8
Graypants_Dome36
100
AcDbLine
 10
-460.4808398671203
 20
-1771.067022283519
 30
0.0
 11
-460.4808398671203
 21
-1778.067022283522
 31
0.0
  0
LINE
  5
188
330
1F
100
AcDbEntity
  8
Graypants_Dome36
100
AcDbLine
 10
-461.278228279559
 20
-1778.067022283519
 30
0.0
 11
-461.278228279559
 21
-1785.067022283522
 31
0.0
  0
LINE
  5
189
330
1F
100
AcDbEntity
  8
Graypants_Dome36
100
AcDbLine
 10
-461.9681849269803
 20
-1785.067022283519
 30
0.0
 11
-461.9681849269803
 21
-1792.067022283522
 31
0.0
  0
LINE
  5
18A
330
1F
100
AcDbEntity
  8
Graypants_Dome36
100
AcDbLine
 10
-462.551190555952
 20
-1792.067022283519
 30
0.0
 11
-462.551190555952
 21
-1799.067022283522
 31
0.0
  0
LINE
  5
18B
330
1F
100
AcDbEntity
  8
Graypants_Dome36
100
AcDbLine
 10
-463.0276491579405
 20
-1799.067022283515
 30
0.0
 11
-463.0276491579405
 21
-1806.067022283519
 31
0.0
  0
LINE
  5
18C
330
1F
100
AcDbEntity
  8
Graypants_Dome36
100
AcDbLine
 10
-463.3978893831184
 20
-1806.067022283519
 30
0.0
 11
-463.3978893831184
 21
-1813.067022283522
 31
0.0
  0
LINE
  5
18D
330
1F
100
AcDbEntity
  8
Graypants_Dome36
100
AcDbLine
 10
-463.6621656817913
 20
-1813.067022283519
 30
0.0
 11
-463.6621656817913
 21
-1820.067022283522
 31
0.0
  0
LINE
  5
18E
330
1F
100
AcDbEntity
  8
Graypants_Dome36
100
AcDbLine
 10
-0.0000000001509761
 20
-1813.067022283511
 30
0.0
 11
-463.6621656817913
 21
-1813.067022283515
 31
0.0
  0
LINE
  5
18F
330
1F
100
AcDbEntity
  8
Graypants_Dome36
100
AcDbLine
 10
-0.0000000001509761
 20
-1806.067022283511
 30
0.0
 11
-463.3978893831184
 21
-1806.067022283515
 31
0.0
  0
LINE
  5
190
330
1F
100
AcDbEntity
  8
Graypants_Dome36
100
AcDbLine
 10
-0.0000000001509761
 20
-1799.067022283511
 30
0.0
 11
-463.0276491579405
 21
-1799.067022283515
 31
0.0
  0
LINE
  5
191
330
1F
100
AcDbEntity
  8
Graypants_Dome36
100
AcDbLine
 10
-0.0000000001509761
 20
-1792.067022283511
 30
0.0
 11
-462.551190555952
 21
-1792.067022283515
 31
0.0
  0
LINE
  5
192
330
1F
100
AcDbEntity
  8
Graypants_Dome36
100
AcDbLine
 10
-0.0000000001509761
 20
-1785.067022283511
 30
0.0
 11
-461.9681849269803
 21
-1785.067022283515
 31
0.0
  0
LINE
  5
193
330
1F
100
AcDbEntity
  8
Graypants_Dome36
100
AcDbLine
 10
-0.0000000001509761
 20
-1757.067022283511
 30
0.0
 11
-458.5614505000699
 21
-1757.067022283515
 31
0.0
  0
LINE
  5
194
330
1F
100
AcDbEntity
  8
Graypants_Dome36
100
AcDbLine
 10
-0.0000000001509761
 20
-1764.067022283511
 30
0.0
 11
-459.575460490144
 21
-1764.067022283515
 31
0.0
  0
LINE
  5
195
330
1F
100
AcDbEntity
  8
Graypants_Dome36
100
AcDbLine
 10
-0.0000000001509761
 20
-1771.067022283511
 30
0.0
 11
-460.4808398671203
 21
-1771.067022283515
 31
0.0
  0
LINE
  5
196
330
1F
100
AcDbEntity
  8
Graypants_Dome36
100
AcDbLine
 10
-0.0000000001509761
 20
-1778.067022283511
 30
0.0
 11
-461.278228279559
 21
-1778.067022283515
 31
0.0
  0
LINE
  5
197
330
1F
100
AcDbEntity
  8
Graypants_Dome36
100
AcDbLine
 10
-0.0000000001509761
 20
-1715.067022283511
 30
0.0
 11
-450.1495350266684
 21
-1715.067022283515
 31
0.0
  0
LINE
  5
198
330
1F
100
AcDbEntity
  8
Graypants_Dome36
100
AcDbLine
 10
-0.0000000001509761
 20
-1722.067022283511
 30
0.0
 11
-451.8336019871974
 21
-1722.067022283515
 31
0.0
  0
LINE
  5
199
330
1F
100
AcDbEntity
  8
Graypants_Dome36
100
AcDbLine
 10
-0.0000000001509761
 20
-1729.067022283511
 30
0.0
 11
-453.4033567197389
 21
-1729.067022283515
 31
0.0
  0
LINE
  5
19A
330
1F
100
AcDbEntity
  8
Graypants_Dome36
100
AcDbLine
 10
-0.0000000001509761
 20
-1736.067022283511
 30
0.0
 11
-454.859982725153
 21
-1736.067022283515
 31
0.0
  0
LINE
  5
19B
330
1F
100
AcDbEntity
  8
Graypants_Dome36
100
AcDbLine
 10
-0.0000000001509761
 20
-1743.067022283511
 30
0.0
 11
-456.2045636386458
 21
-1743.067022283515
 31
0.0
  0
LINE
  5
19C
330
1F
100
AcDbEntity
  8
Graypants_Dome36
100
AcDbLine
 10
-0.0000000001509761
 20
-1750.067022283511
 30
0.0
 11
-457.4380874880537
 21
-1750.067022283515
 31
0.0
  0
LINE
  5
19D
330
1F
100
AcDbEntity
  8
Graypants_Dome36
100
AcDbLine
 10
-0.0000000001509761
 20
-1652.067022283511
 30
0.0
 11
-429.5970249951922
 21
-1652.067022283515
 31
0.0
  0
LINE
  5
19E
330
1F
100
AcDbEntity
  8
Graypants_Dome36
100
AcDbLine
 10
-0.0000000001509761
 20
-1659.067022283511
 30
0.0
 11
-432.3824740721104
 21
-1659.067022283515
 31
0.0
  0
LINE
  5
19F
330
1F
100
AcDbEntity
  8
Graypants_Dome36
100
AcDbLine
 10
-0.0000000001509761
 20
-1666.067022283511
 30
0.0
 11
-435.0374741154133
 21
-1666.067022283515
 31
0.0
  0
LINE
  5
1A0
330
1F
100
AcDbEntity
  8
Graypants_Dome36
100
AcDbLine
 10
-0.0000000001509761
 20
-1673.067022283511
 30
0.0
 11
-437.5643996998865
 21
-1673.067022283515
 31
0.0
  0
LINE
  5
1A1
330
1F
100
AcDbEntity
  8
Graypants_Dome36
100
AcDbLine
 10
-0.0000000001509761
 20
-1680.067022283511
 30
0.0
 11
-439.9654576040286
 21
-1680.067022283515
 31
0.0
  0
LINE
  5
1A2
330
1F
100
AcDbEntity
  8
Graypants_Dome36
100
AcDbLine
 10
-0.0000000001509761
 20
-1687.067022283511
 30
0.0
 11
-442.2426979439267
 21
-1687.067022283515
 31
0.0
  0
LINE
  5
1A3
330
1F
100
AcDbEntity
  8
Graypants_Dome36
100
AcDbLine
 10
-0.0000000001509761
 20
-1694.067022283511
 30
0.0
 11
-444.3980241683396
 21
-1694.067022283515
 31
0.0
  0
LINE
  5
1A4
330
1F
100
AcDbEntity
  8
Graypants_Dome36
100
AcDbLine
 10
-0.0000000001509761
 20
-1701.067022283511
 30
0.0
 11
-446.4332020411614
 21
-1701.067022283515
 31
0.0
  0
LINE
  5
1A5
330
1F
100
AcDbEntity
  8
Graypants_Dome36
100
AcDbLine
 10
-0.0000000001509761
 20
-1708.067022283511
 30
0.0
 11
-448.3498677202042
 21
-1708.067022283515
 31
0.0
  0
LINE
  5
1A6
330
1F
100
AcDbEntity
  8
Graypants_Dome36
100
AcDbLine
 10
-0.0000000001509761
 20
-1603.067022283511
 30
0.0
 11
-406.2051253796701
 21
-1603.067022283515
 31
0.0
  0
LINE
  5
1A7
330
1F
100
AcDbEntity
  8
Graypants_Dome36
100
AcDbLine
 10
-0.0000000001509761
 20
-1610.067022283511
 30
0.0
 11
-409.9873216146027
 21
-1610.067022283515
 31
0.0
  0
LINE
  5
1A8
330
1F
100
AcDbEntity
  8
Graypants_Dome36
100
AcDbLine
 10
-0.0000000001509761
 20
-1617.067022283511
 30
0.0
 11
-413.6164937290534
 21
-1617.067022283515
 31
0.0
  0
LINE
  5
1A9
330
1F
100
AcDbEntity
  8
Graypants_Dome36
100
AcDbLine
 10
-0.0000000001509761
 20
-1624.067022283511
 30
0.0
 11
-417.0966361464884
 21
-1624.067022283511
 31
0.0
  0
LINE
  5
1AA
330
1F
100
AcDbEntity
  8
Graypants_Dome36
100
AcDbLine
 10
-0.0000000001509761
 20
-1631.067022283511
 30
0.0
 11
-420.4314496855798
 21
-1631.067022283515
 31
0.0
  0
LINE
  5
1AB
330
1F
100
AcDbEntity
  8
Graypants_Dome36
100
AcDbLine
 10
-0.0000000001509761
 20
-1638.067022283511
 30
0.0
 11
-423.6243664907845
 21
-1638.067022283515
 31
0.0
  0
LINE
  5
1AC
330
1F
100
AcDbEntity
  8
Graypants_Dome36
100
AcDbLine
 10
-0.0000000001509761
 20
-1645.067022283511
 30
0.0
 11
-426.6785720946391
 21
-1645.067022283515
 31
0.0
  0
LINE
  5
1AD
330
1F
100
AcDbEntity
  8
Graypants_Dome36
100
AcDbLine
 10
-0.0000000001509761
 20
-1449.067022283511
 30
0.0
 11
-268.8765588233186
 21
-1449.067022283511
 31
0.0
  0
LINE
  5
1AE
330
1F
100
AcDbEntity
  8
Graypants_Dome36
100
AcDbLine
 10
-0.0000000001509761
 20
-1456.067022283511
 30
0.0
 11
-278.4557485215064
 21
-1456.067022283511
 31
0.0
  0
LINE
  5
1AF
330
1F
100
AcDbEntity
  8
Graypants_Dome36
100
AcDbLine
 10
-0.0000000001509761
 20
-1463.067022283511
 30
0.0
 11
-287.5458291901905
 21
-1463.067022283511
 31
0.0
  0
LINE
  5
1B0
330
1F
100
AcDbEntity
  8
Graypants_Dome36
100
AcDbLine
 10
-0.0000000001509761
 20
-1470.067022283511
 30
0.0
 11
-296.1918362897238
 21
-1470.067022283511
 31
0.0
  0
LINE
  5
1B1
330
1F
100
AcDbEntity
  8
Graypants_Dome36
100
AcDbLine
 10
-0.0000000001509761
 20
-1477.067022283511
 30
0.0
 11
-304.431607893591
 21
-1477.067022283511
 31
0.0
  0
LINE
  5
1B2
330
1F
100
AcDbEntity
  8
Graypants_Dome36
100
AcDbLine
 10
-0.0000000001509761
 20
-1484.067022283511
 30
0.0
 11
-312.2973004761429
 21
-1484.067022283515
 31
0.0
  0
LINE
  5
1B3
330
1F
100
AcDbEntity
  8
Graypants_Dome36
100
AcDbLine
 10
-0.0000000001509761
 20
-1491.067022283511
 30
0.0
 11
-319.8165159660907
 21
-1491.067022283515
 31
0.0
  0
LINE
  5
1B4
330
1F
100
AcDbEntity
  8
Graypants_Dome36
100
AcDbLine
 10
-0.0000000001509761
 20
-1498.067022283511
 30
0.0
 11
-327.0131555223627
 21
-1498.067022283515
 31
0.0
  0
LINE
  5
1B5
330
1F
100
AcDbEntity
  8
Graypants_Dome36
100
AcDbLine
 10
-0.0000000001509761
 20
-1505.067022283511
 30
0.0
 11
-333.9080769982836
 21
-1505.067022283515
 31
0.0
  0
LINE
  5
1B6
330
1F
100
AcDbEntity
  8
Graypants_Dome36
100
AcDbLine
 10
-0.0000000001509761
 20
-1512.067022283511
 30
0.0
 11
-340.5196086640153
 21
-1512.067022283515
 31
0.0
  0
LINE
  5
1B7
330
1F
100
AcDbEntity
  8
Graypants_Dome36
100
AcDbLine
 10
-0.0000000001509761
 20
-1519.067022283511
 30
0.0
 11
-346.8639558741954
 21
-1519.067022283515
 31
0.0
  0
LINE
  5
1B8
330
1F
100
AcDbEntity
  8
Graypants_Dome36
100
AcDbLine
 10
-0.0000000001509761
 20
-1526.067022283511
 30
0.0
 11
-352.9555267802125
 21
-1526.067022283515
 31
0.0
  0
LINE
  5
1B9
330
1F
100
AcDbEntity
  8
Graypants_Dome36
100
AcDbLine
 10
-0.0000000001509761
 20
-1533.067022283511
 30
0.0
 11
-358.8071959767524
 21
-1533.067022283515
 31
0.0
  0
LINE
  5
1BA
330
1F
100
AcDbEntity
  8
Graypants_Dome36
100
AcDbLine
 10
-0.0000000001509761
 20
-1540.067022283511
 30
0.0
 11
-364.4305199687578
 21
-1540.067022283511
 31
0.0
  0
LINE
  5
1BB
330
1F
100
AcDbEntity
  8
Graypants_Dome36
100
AcDbLine
 10
-0.0000000001509761
 20
-1547.067022283511
 30
0.0
 11
-369.8359148118254
 21
-1547.067022283515
 31
0.0
  0
LINE
  5
1BC
330
1F
100
AcDbEntity
  8
Graypants_Dome36
100
AcDbLine
 10
-0.0000000001509761
 20
-1561.067022283511
 30
0.0
 11
-380.0297407897258
 21
-1561.067022283515
 31
0.0
  0
LINE
  5
1BD
330
1F
100
AcDbEntity
  8
Graypants_Dome36
100
AcDbLine
 10
-0.0000000001509761
 20
-1568.067022283511
 30
0.0
 11
-384.8345149342845
 21
-1568.067022283515
 31
0.0
  0
LINE
  5
1BE
330
1F
100
AcDbEntity
  8
Graypants_Dome36
100
AcDbLine
 10
-0.0000000001509761
 20
-1575.067022283511
 30
0.0
 11
-389.4542384988374
 21
-1575.067022283515
 31
0.0
  0
LINE
  5
1BF
330
1F
100
AcDbEntity
  8
Graypants_Dome36
100
AcDbLine
 10
-0.0000000001509761
 20
-1582.067022283511
 30
0.0
 11
-393.8954225231714
 21
-1582.067022283515
 31
0.0
  0
LINE
  5
1C0
330
1F
100
AcDbEntity
  8
Graypants_Dome36
100
AcDbLine
 10
-0.0000000001509761
 20
-1589.067022283511
 30
0.0
 11
-398.1640414260323
 21
-1589.067022283515
 31
0.0
  0
LINE
  5
1C1
330
1F
100
AcDbEntity
  8
Graypants_Dome36
100
AcDbLine
 10
-0.0000000001509761
 20
-1596.067022283511
 30
0.0
 11
-402.2655887404628
 21
-1596.067022283515
 31
0.0
  0
LINE
  5
1C2
330
1F
100
AcDbEntity
  8
Graypants_Dome36
100
AcDbLine
 10
-0.0000000001509761
 20
-1372.067022283511
 30
0.0
 11
-90.29730829111963
 21
-1372.067022283511
 31
0.0
  0
LINE
  5
1C3
330
1F
100
AcDbEntity
  8
Graypants_Dome36
100
AcDbLine
 10
-0.0000000001509761
 20
-1379.067022283511
 30
0.0
 11
-120.3104479445697
 21
-1379.067022283511
 31
0.0
  0
LINE
  5
1C4
330
1F
100
AcDbEntity
  8
Graypants_Dome36
100
AcDbLine
 10
-0.0000000001509761
 20
-1386.067022283511
 30
0.0
 11
-143.8666183818571
 21
-1386.067022283511
 31
0.0
  0
LINE
  5
1C5
330
1F
100
AcDbEntity
  8
Graypants_Dome36
100
AcDbLine
 10
-0.0000000001509761
 20
-1393.067022283511
 30
0.0
 11
-163.7760784871789
 21
-1393.067022283511
 31
0.0
  0
LINE
  5
1C6
330
1F
100
AcDbEntity
  8
Graypants_Dome36
100
AcDbLine
 10
-0.0000000001509761
 20
-1400.067022283511
 30
0.0
 11
-181.2445968426073
 21
-1400.067022283511
 31
0.0
  0
LINE
  5
1C7
330
1F
100
AcDbEntity
  8
Graypants_Dome36
100
AcDbLine
 10
-0.0000000001509761
 20
-1407.067022283511
 30
0.0
 11
-196.922837387252
 21
-1407.067022283511
 31
0.0
  0
LINE
  5
1C8
330
1F
100
AcDbEntity
  8
Graypants_Dome36
100
AcDbLine
 10
-0.0000000001509761
 20
-1414.067022283511
 30
0.0
 11
-211.2098574514205
 21
-1414.067022283511
 31
0.0
  0
LINE
  5
1C9
330
1F
100
AcDbEntity
  8
Graypants_Dome36
100
AcDbLine
 10
-0.0000000001509761
 20
-1421.067022283511
 30
0.0
 11
-224.3715754828538
 21
-1421.067022283511
 31
0.0
  0
LINE
  5
1CA
330
1F
100
AcDbEntity
  8
Graypants_Dome36
100
AcDbLine
 10
-0.0000000001509761
 20
-1428.067022283511
 30
0.0
 11
-236.5958661613886
 21
-1428.067022283511
 31
0.0
  0
LINE
  5
1CB
330
1F
100
AcDbEntity
  8
Graypants_Dome36
100
AcDbLine
 10
-0.0000000001509761
 20
-1435.067022283511
 30
0.0
 11
-248.0213778783266
 21
-1435.067022283511
 31
0.0
  0
LINE
  5
1CC
330
1F
100
AcDbEntity
  8
Graypants_Dome36
100
AcDbLine
 10
-0.0000000001509761
 20
-1442.067022283511
 30
0.0
 11
-258.7539446745875
 21
-1442.067022283511
 31
0.0
  0
LINE
  5
1CD
330
1F
100
AcDbEntity
  8
Graypants_Dome36
 62
    36
420
  8866048
370
    -3
100
AcDbLine
 10
12.44599999999878
 20
-811.7020812696594
 30
0.0
 11
12.44599999999923
 21
-1372.067394826749
 31
0.0
  0
LINE
  5
1CE
330
1F
100
AcDbEntity
  8
Graypants_Dome36
 62
    36
420
  8866048
370
    -3
100
AcDbLine
 10
-0.0000000000020464
 20
-802.1770812696598
 30
0.0
 11
57.1499999999985
 21
-802.1770812696598
 31
0.0
  0
LINE
  5
1CF
330
1F
100
AcDbEntity
  8
Graypants_Dome36
 62
    36
420
  8866048
370
    -3
100
AcDbLine
 10
-57.15000000000123
 20
-810.1145812696593
 30
0.0
 11
-57.15000000000123
 21
-802.1770812696598
 31
0.0
  0
LINE
  5
1D0
330
1F
100
AcDbEntity
  8
Graypants_Dome36
 62
    36
420
  8866048
370
    -3
100
AcDbLine
 10
57.1499999999985
 20
-802.1770812696598
 30
0.0
 11
57.1499999999985
 21
-810.1145812696593
 31
0.0
  0
LINE
  5
1D1
330
1F
100
AcDbEntity
  8
Graypants_Dome36
 62
    36
420
  8866048
370
    -3
100
AcDbLine
 10
-57.15000000000123
 20
-802.1770812696598
 30
0.0
 11
-0.0000000000020464
 21
-802.1770812696598
 31
0.0
  0
ARC
  5
1D2
330
1F
100
AcDbEntity
  8
Graypants_Dome36
 62
    36
420
  8866048
370
    -3
100
AcDbCircle
 10
-55.56249999999827
 20
-810.1145812696594
 30
0.0
 40
1.587500000000233
210
0.0
220
0.0
230
-1.0
100
AcDbArc
 50
180.0000000000123
 51
269.9999999999785
  0
ARC
  5
1D3
330
1F
100
AcDbEntity
  8
Graypants_Dome36
 62
    36
420
  8866048
370
    -3
100
AcDbCircle
 10
-55.56250000000183
 20
-810.1145812696602
 30
0.0
 40
1.587499999999395
100
AcDbArc
 50
179.9999999999836
 51
270.0000000000087
  0
LINE
  5
1D4
330
1F
100
AcDbEntity
  8
Graypants_Dome36
 62
    36
420
  8866048
370
    -3
100
AcDbLine
 10
0.0002499999984593
 20
-811.7020812696596
 30
0.0
 11
0.0001436933735022
 21
-1372.06739482675
 31
0.0
  0
LINE
  5
1D5
330
1F
100
AcDbEntity
  8
Graypants_Dome36
 62
    36
420
  8866048
370
    -3
100
AcDbLine
 10
6.603999999999132
 20
-1372.067394826749
 30
0.0
 11
6.603999999999132
 21
-811.7020812696594
 31
0.0
  0
LINE
  5
1D6
330
1F
100
AcDbEntity
  8
Graypants_Dome36
 62
    36
420
  8866048
370
    -3
100
AcDbLine
 10
-1.587643693994551
 20
-1372.064133828392
 30
0.0
 11
-1.587750000001279
 21
-811.7020812696596
 31
0.0
  0
POLYLINE
  5
1D7
330
1F
100
AcDbEntity
  8
Graypants_Dome36
 62
    36
420
  8866048
370
    -3
100
AcDb2dPolyline
 66
     1
 10
0.0
 20
0.0
 30
0.0
  0
VERTEX
  5
1D8
330
1D7
100
AcDbEntity
  8
Graypants_Dome36
 62
    36
420
  8866048
370
    -3
100
AcDbVertex
100
AcDb2dVertex
 10
373.5737518615006
 20
-1871.360928869287
 30
0.0
  0
VERTEX
  5
1D9
330
1D7
100
AcDbEntity
  8
Graypants_Dome36
 62
    36
420
  8866048
370
    -3
100
AcDbVertex
100
AcDb2dVertex
 10
373.6121407258605
 20
-1871.451920913524
 30
0.0
  0
VERTEX
  5
1DA
330
1D7
100
AcDbEntity
  8
Graypants_Dome36
 62
    36
420
  8866048
370
    -3
100
AcDbVertex
100
AcDb2dVertex
 10
373.653559906051
 20
-1871.542190407134
 30
0.0
  0
VERTEX
  5
1DB
330
1D7
100
AcDbEntity
  8
Graypants_Dome36
 62
    36
420
  8866048
370
    -3
100
AcDbVertex
100
AcDb2dVertex
 10
373.6980141531017
 20
-1871.631547439942
 30
0.0
  0
VERTEX
  5
1DC
330
1D7
100
AcDbEntity
  8
Graypants_Dome36
 62
    36
420
  8866048
370
    -3
100
AcDbVertex
100
AcDb2dVertex
 10
373.7454968535707
 20
-1871.71979883372
 30
0.0
  0
VERTEX
  5
1DD
330
1D7
100
AcDbEntity
  8
Graypants_Dome36
 62
    36
420
  8866048
370
    -3
100
AcDbVertex
100
AcDb2dVertex
 10
373.7959895823535
 20
-1871.806749233869
 30
0.0
  0
VERTEX
  5
1DE
330
1D7
100
AcDbEntity
  8
Graypants_Dome36
 62
    36
420
  8866048
370
    -3
100
AcDbVertex
100
AcDb2dVertex
 10
373.8494617468806
 20
-1871.892202276753
 30
0.0
  0
VERTEX
  5
1DF
330
1D7
100
AcDbEntity
  8
Graypants_Dome36
 62
    36
420
  8866048
370
    -3
100
AcDbVertex
100
AcDb2dVertex
 10
373.905870332703
 20
-1871.975961821123
 30
0.0
  0
VERTEX
  5
1E0
330
1D7
100
AcDbEntity
  8
Graypants_Dome36
 62
    36
420
  8866048
370
    -3
100
AcDbVertex
100
AcDb2dVertex
 10
373.9651597592389
 20
-1872.05783323019
 30
0.0
  0
VERTEX
  5
1E1
330
1D7
100
AcDbEntity
  8
Graypants_Dome36
 62
    36
420
  8866048
370
    -3
100
AcDbVertex
100
AcDb2dVertex
 10
374.0272618529465
 20
-1872.137624689185
 30
0.0
  0
VERTEX
  5
1E2
330
1D7
100
AcDbEntity
  8
Graypants_Dome36
 62
    36
420
  8866048
370
    -3
100
AcDbVertex
100
AcDb2dVertex
 10
374.0593429234337
 20
-1872.176681595727
 30
0.0
  0
VERTEX
  5
1E3
330
1D7
100
AcDbEntity
  8
Graypants_Dome36
 62
    36
420
  8866048
370
    -3
100
AcDbVertex
100
AcDb2dVertex
 10
374.0920959434123
 20
-1872.215148541822
 30
0.0
  0
VERTEX
  5
1E4
330
1D7
100
AcDbEntity
  8
Graypants_Dome36
 62
    36
420
  8866048
370
    -3
100
AcDbVertex
100
AcDb2dVertex
 10
374.1255089129458
 20
-1872.253002939706
 30
0.0
  0
VERTEX
  5
1E5
330
1D7
100
AcDbEntity
  8
Graypants_Dome36
 62
    36
420
  8866048
370
    -3
100
AcDbVertex
100
AcDb2dVertex
 10
374.1595690858429
 20
-1872.290222627924
 30
0.0
  0
VERTEX
  5
1E6
330
1D7
100
AcDbEntity
  8
Graypants_Dome36
 62
    36
420
  8866048
370
    -3
100
AcDbVertex
100
AcDb2dVertex
 10
374.1942629835908
 20
-1872.326785911886
 30
0.0
  0
VERTEX
  5
1E7
330
1D7
100
AcDbEntity
  8
Graypants_Dome36
 62
    36
420
  8866048
370
    -3
100
AcDbVertex
100
AcDb2dVertex
 10
374.2295764112528
 20
-1872.362671603716
 30
0.0
  0
VERTEX
  5
1E8
330
1D7
100
AcDbEntity
  8
Graypants_Dome36
 62
    36
420
  8866048
370
    -3
100
AcDbVertex
100
AcDb2dVertex
 10
374.2654944752989
 20
-1872.39785906123
 30
0.0
  0
VERTEX
  5
1E9
330
1D7
100
AcDbEntity
  8
Graypants_Dome36
 62
    36
420
  8866048
370
    -3
100
AcDbVertex
100
AcDb2dVertex
 10
374.3020016033291
 20
-1872.432328225918
 30
0.0
  0
VERTEX
  5
1EA
330
1D7
100
AcDbEntity
  8
Graypants_Dome36
 62
    36
420
  8866048
370
    -3
100
AcDbVertex
100
AcDb2dVertex
 10
374.339081565639
 20
-1872.466059659775
 30
0.0
  0
VERTEX
  5
1EB
330
1D7
100
AcDbEntity
  8
Graypants_Dome36
 62
    36
420
  8866048
370
    -3
100
AcDbVertex
100
AcDb2dVertex
 10
374.3767174985688
 20
-1872.499034580843
 30
0.0
  0
VERTEX
  5
1EC
330
1D7
100
AcDbEntity
  8
Graypants_Dome36
 62
    36
420
  8866048
370
    -3
100
AcDbVertex
100
AcDb2dVertex
 10
374.4148919295687
 20
-1872.53123489734
 30
0.0
  0
VERTEX
  5
1ED
330
1D7
100
AcDbEntity
  8
Graypants_Dome36
 62
    36
420
  8866048
370
    -3
100
AcDbVertex
100
AcDb2dVertex
 10
374.4535868039029
 20
-1872.562643240236
 30
0.0
  0
VERTEX
  5
1EE
330
1D7
100
AcDbEntity
  8
Graypants_Dome36
 62
    36
420
  8866048
370
    -3
100
AcDbVertex
100
AcDb2dVertex
 10
374.4927835129084
 20
-1872.593242994159
 30
0.0
  0
VERTEX
  5
1EF
330
1D7
100
AcDbEntity
  8
Graypants_Dome36
 62
    36
420
  8866048
370
    -3
100
AcDbVertex
100
AcDb2dVertex
 10
374.5324629237184
 20
-1872.623018326536
 30
0.0
  0
VERTEX
  5
1F0
330
1D7
100
AcDbEntity
  8
Graypants_Dome36
 62
    36
420
  8866048
370
    -3
100
AcDbVertex
100
AcDb2dVertex
 10
374.5726054103461
 20
-1872.651954214811
 30
0.0
  0
VERTEX
  5
1F1
330
1D7
100
AcDbEntity
  8
Graypants_Dome36
 62
    36
420
  8866048
370
    -3
100
AcDbVertex
100
AcDb2dVertex
 10
374.6131908860287
 20
-1872.680036471708
 30
0.0
  0
VERTEX
  5
1F2
330
1D7
100
AcDbEntity
  8
Graypants_Dome36
 62
    36
420
  8866048
370
    -3
100
AcDbVertex
100
AcDb2dVertex
 10
374.6541988367162
 20
-1872.707251768398
 30
0.0
  0
VERTEX
  5
1F3
330
1D7
100
AcDbEntity
  8
Graypants_Dome36
 62
    36
420
  8866048
370
    -3
100
AcDbVertex
100
AcDb2dVertex
 10
374.6956083555885
 20
-1872.733587655514
 30
0.0
  0
VERTEX
  5
1F4
330
1D7
100
AcDbEntity
  8
Graypants_Dome36
 62
    36
420
  8866048
370
    -3
100
AcDbVertex
100
AcDb2dVertex
 10
374.7373981784801
 20
-1872.759032581945
 30
0.0
  0
VERTEX
  5
1F5
330
1D7
100
AcDbEntity
  8
Graypants_Dome36
 62
    36
420
  8866048
370
    -3
100
AcDbVertex
100
AcDb2dVertex
 10
374.7795467200846
 20
-1872.783575911335
 30
0.0
  0
VERTEX
  5
1F6
330
1D7
100
AcDbEntity
  8
Graypants_Dome36
 62
    36
420
  8866048
370
    -3
100
AcDbVertex
100
AcDb2dVertex
 10
374.8220321108129
 20
-1872.807207936264
 30
0.0
  0
VERTEX
  5
1F7
330
1D7
100
AcDbEntity
  8
Graypants_Dome36
 62
    36
420
  8866048
370
    -3
100
AcDbVertex
100
AcDb2dVertex
 10
374.8648322341721
 20
-1872.829919890044
 30
0.0
  0
VERTEX
  5
1F8
330
1D7
100
AcDbEntity
  8
Graypants_Dome36
 62
    36
420
  8866048
370
    -3
100
AcDbVertex
100
AcDb2dVertex
 10
374.9079247645328
 20
-1872.851703956133
 30
0.0
  0
VERTEX
  5
1F9
330
1D7
100
AcDbEntity
  8
Graypants_Dome36
 62
    36
420
  8866048
370
    -3
100
AcDbVertex
100
AcDb2dVertex
 10
374.951287205151
 20
-1872.87255327513
 30
0.0
  0
VERTEX
  5
1FA
330
1D7
100
AcDbEntity
  8
Graypants_Dome36
 62
    36
420
  8866048
370
    -3
100
AcDbVertex
100
AcDb2dVertex
 10
374.9948969263135
 20
-1872.892461949359
 30
0.0
  0
VERTEX
  5
1FB
330
1D7
100
AcDbEntity
  8
Graypants_Dome36
 62
    36
420
  8866048
370
    -3
100
AcDbVertex
100
AcDb2dVertex
 10
375.0387312034708
 20
-1872.911425045054
 30
0.0
  0
VERTEX
  5
1FC
330
1D7
100
AcDbEntity
  8
Graypants_Dome36
 62
    36
420
  8866048
370
    -3
100
AcDbVertex
100
AcDb2dVertex
 10
375.0827672552294
 20
-1872.929438592146
 30
0.0
  0
VERTEX
  5
1FD
330
1D7
100
AcDbEntity
  8
Graypants_Dome36
 62
    36
420
  8866048
370
    -3
100
AcDbVertex
100
AcDb2dVertex
 10
375.1269822810739
 20
-1872.946499581699
 30
0.0
  0
VERTEX
  5
1FE
330
1D7
100
AcDbEntity
  8
Graypants_Dome36
 62
    36
420
  8866048
370
    -3
100
AcDbVertex
100
AcDb2dVertex
 10
375.171353498693
 20
-1872.96260596103
 30
0.0
  0
VERTEX
  5
1FF
330
1D7
100
AcDbEntity
  8
Graypants_Dome36
 62
    36
420
  8866048
370
    -3
100
AcDbVertex
100
AcDb2dVertex
 10
375.2158581807886
 20
-1872.977756626558
 30
0.0
  0
VERTEX
  5
200
330
1D7
100
AcDbEntity
  8
Graypants_Dome36
 62
    36
420
  8866048
370
    -3
100
AcDbVertex
100
AcDb2dVertex
 10
375.2604736912508
 20
-1872.99195141444
 30
0.0
  0
VERTEX
  5
201
330
1D7
100
AcDbEntity
  8
Graypants_Dome36
 62
    36
420
  8866048
370
    -3
100
AcDbVertex
100
AcDb2dVertex
 10
375.3051775205842
 20
-1873.005191089074
 30
0.0
  0
VERTEX
  5
202
330
1D7
100
AcDbEntity
  8
Graypants_Dome36
 62
    36
420
  8866048
370
    -3
100
AcDbVertex
100
AcDb2dVertex
 10
375.3499473204827
 20
-1873.017477329531
 30
0.0
  0
VERTEX
  5
203
330
1D7
100
AcDbEntity
  8
Graypants_Dome36
 62
    36
420
  8866048
370
    -3
100
AcDbVertex
100
AcDb2dVertex
 10
375.3947609374484
 20
-1873.028812714009
 30
0.0
  0
VERTEX
  5
204
330
1D7
100
AcDbEntity
  8
Graypants_Dome36
 62
    36
420
  8866048
370
    -3
100
AcDbVertex
100
AcDb2dVertex
 10
375.4395964453618
 20
-1873.039200702396
 30
0.0
  0
VERTEX
  5
205
330
1D7
100
AcDbEntity
  8
Graypants_Dome36
 62
    36
420
  8866048
370
    -3
100
AcDbVertex
100
AcDb2dVertex
 10
375.4844321769168
 20
-1873.048645617043
 30
0.0
  0
VERTEX
  5
206
330
1D7
100
AcDbEntity
  8
Graypants_Dome36
 62
    36
420
  8866048
370
    -3
100
AcDbVertex
100
AcDb2dVertex
 10
375.5292467538382
 20
-1873.057152621841
 30
0.0
  0
VERTEX
  5
207
330
1D7
100
AcDbEntity
  8
Graypants_Dome36
 62
    36
420
  8866048
370
    -3
100
AcDbVertex
100
AcDb2dVertex
 10
375.5740191158106
 20
-1873.064727699729
 30
0.0
  0
VERTEX
  5
208
330
1D7
100
AcDbEntity
  8
Graypants_Dome36
 62
    36
420
  8866048
370
    -3
100
AcDbVertex
100
AcDb2dVertex
 10
375.6187285480526
 20
-1873.071377628718
 30
0.0
  0
VERTEX
  5
209
330
1D7
100
AcDbEntity
  8
Graypants_Dome36
 62
    36
420
  8866048
370
    -3
100
AcDbVertex
100
AcDb2dVertex
 10
375.6633547074787
 20
-1873.077109956574
 30
0.0
  0
VERTEX
  5
20A
330
1D7
100
AcDbEntity
  8
Graypants_Dome36
 62
    36
420
  8866048
370
    -3
100
AcDbVertex
100
AcDb2dVertex
 10
375.7078776474003
 20
-1873.081932974255
 30
0.0
  0
VERTEX
  5
20B
330
1D7
100
AcDbEntity
  8
Graypants_Dome36
 62
    36
420
  8866048
370
    -3
100
AcDbVertex
100
AcDb2dVertex
 10
375.7522778407235
 20
-1873.085855688242
 30
0.0
  0
VERTEX
  5
20C
330
1D7
100
AcDbEntity
  8
Graypants_Dome36
 62
    36
420
  8866048
370
    -3
100
AcDbVertex
100
AcDb2dVertex
 10
375.7965362016088
 20
-1873.088887791867
 30
0.0
  0
VERTEX
  5
20D
330
1D7
100
AcDbEntity
  8
Graypants_Dome36
 62
    36
420
  8866048
370
    -3
100
AcDbVertex
100
AcDb2dVertex
 10
375.8406341055678
 20
-1873.091039635769
 30
0.0
  0
VERTEX
  5
20E
330
1D7
100
AcDbEntity
  8
Graypants_Dome36
 62
    36
420
  8866048
370
    -3
100
AcDbVertex
100
AcDb2dVertex
 10
375.8845534079785
 20
-1873.092322197601
 30
0.0
  0
VERTEX
  5
20F
330
1D7
100
AcDbEntity
  8
Graypants_Dome36
 62
    36
420
  8866048
370
    -3
100
AcDbVertex
100
AcDb2dVertex
 10
375.9282764610066
 20
-1873.092747051104
 30
0.0
  0
SEQEND
  5
210
330
1D7
100
AcDbEntity
  8
Graypants_Dome36
 62
    36
420
  8866048
370
    -3
  0
POLYLINE
  5
211
330
1F
100
AcDbEntity
  8
Graypants_Dome36
 62
    36
420
  8866048
370
    -3
100
AcDb2dPolyline
 66
     1
 10
0.0
 20
0.0
 30
0.0
  0
VERTEX
  5
212
330
211
100
AcDbEntity
  8
Graypants_Dome36
 62
    36
420
  8866048
370
    -3
100
AcDbVertex
100
AcDb2dVertex
 10
395.2245690414766
 20
-1873.092747051104
 30
0.0
  0
VERTEX
  5
213
330
211
100
AcDbEntity
  8
Graypants_Dome36
 62
    36
420
  8866048
370
    -3
100
AcDbVertex
100
AcDb2dVertex
 10
395.2630135435601
 20
-1873.092254330491
 30
0.0
  0
VERTEX
  5
214
330
211
100
AcDbEntity
  8
Graypants_Dome36
 62
    36
420
  8866048
370
    -3
100
AcDbVertex
100
AcDb2dVertex
 10
395.3017842888868
 20
-1873.090758664515
 30
0.0
  0
VERTEX
  5
215
330
211
100
AcDbEntity
  8
Graypants_Dome36
 62
    36
420
  8866048
370
    -3
100
AcDbVertex
100
AcDb2dVertex
 10
395.3408558825234
 20
-1873.088234416949
 30
0.0
  0
VERTEX
  5
216
330
211
100
AcDbEntity
  8
Graypants_Dome36
 62
    36
420
  8866048
370
    -3
100
AcDbVertex
100
AcDb2dVertex
 10
395.3802014922556
 20
-1873.084656868329
 30
0.0
  0
VERTEX
  5
217
330
211
100
AcDbEntity
  8
Graypants_Dome36
 62
    36
420
  8866048
370
    -3
100
AcDbVertex
100
AcDb2dVertex
 10
395.4197928654084
 20
-1873.080002330161
 30
0.0
  0
VERTEX
  5
218
330
211
100
AcDbEntity
  8
Graypants_Dome36
 62
    36
420
  8866048
370
    -3
100
AcDbVertex
100
AcDb2dVertex
 10
395.4596003529597
 20
-1873.07424826044
 30
0.0
  0
VERTEX
  5
219
330
211
100
AcDbEntity
  8
Graypants_Dome36
 62
    36
420
  8866048
370
    -3
100
AcDbVertex
100
AcDb2dVertex
 10
395.4995929412373
 20
-1873.067373379852
 30
0.0
  0
VERTEX
  5
21A
330
211
100
AcDbEntity
  8
Graypants_Dome36
 62
    36
420
  8866048
370
    -3
100
AcDbVertex
100
AcDb2dVertex
 10
395.5397382914404
 20
-1873.059357787937
 30
0.0
  0
VERTEX
  5
21B
330
211
100
AcDbEntity
  8
Graypants_Dome36
 62
    36
420
  8866048
370
    -3
100
AcDbVertex
100
AcDb2dVertex
 10
395.5800027871768
 20
-1873.050183078456
 30
0.0
  0
VERTEX
  5
21C
330
211
100
AcDbEntity
  8
Graypants_Dome36
 62
    36
420
  8866048
370
    -3
100
AcDbVertex
100
AcDb2dVertex
 10
395.6203515901523
 20
-1873.039832453189
 30
0.0
  0
VERTEX
  5
21D
330
211
100
AcDbEntity
  8
Graypants_Dome36
 62
    36
420
  8866048
370
    -3
100
AcDbVertex
100
AcDb2dVertex
 10
395.6607487040797
 20
-1873.028290833307
 30
0.0
  0
VERTEX
  5
21E
330
211
100
AcDbEntity
  8
Graypants_Dome36
 62
    36
420
  8866048
370
    -3
100
AcDbVertex
100
AcDb2dVertex
 10
395.7011570468139
 20
-1873.015544967478
 30
0.0
  0
VERTEX
  5
21F
330
211
100
AcDbEntity
  8
Graypants_Dome36
 62
    36
420
  8866048
370
    -3
100
AcDbVertex
100
AcDb2dVertex
 10
395.7415385306431
 20
-1873.001583535815
 30
0.0
  0
VERTEX
  5
220
330
211
100
AcDbEntity
  8
Graypants_Dome36
 62
    36
420
  8866048
370
    -3
100
AcDbVertex
100
AcDb2dVertex
 10
395.7818541505881
 20
-1872.986397248787
 30
0.0
  0
VERTEX
  5
221
330
211
100
AcDbEntity
  8
Graypants_Dome36
 62
    36
420
  8866048
370
    -3
100
AcDbVertex
100
AcDb2dVertex
 10
395.8220640804882
 20
-1872.969978940179
 30
0.0
  0
VERTEX
  5
222
330
211
100
AcDbEntity
  8
Graypants_Dome36
 62
    36
420
  8866048
370
    -3
100
AcDbVertex
100
AcDb2dVertex
 10
395.8621277765625
 20
-1872.952323653229
 30
0.0
  0
VERTEX
  5
223
330
211
100
AcDbEntity
  8
Graypants_Dome36
 62
    36
420
  8866048
370
    -3
100
AcDbVertex
100
AcDb2dVertex
 10
395.902004088061
 20
-1872.933428719068
 30
0.0
  0
VERTEX
  5
224
330
211
100
AcDbEntity
  8
Graypants_Dome36
 62
    36
420
  8866048
370
    -3
100
AcDbVertex
100
AcDb2dVertex
 10
395.941651374531
 20
-1872.913293826617
 30
0.0
  0
VERTEX
  5
225
330
211
100
AcDbEntity
  8
Graypants_Dome36
 62
    36
420
  8866048
370
    -3
100
AcDbVertex
100
AcDb2dVertex
 10
395.9810276291448
 20
-1872.89192108315
 30
0.0
  0
VERTEX
  5
226
330
211
100
AcDbEntity
  8
Graypants_Dome36
 62
    36
420
  8866048
370
    -3
100
AcDbVertex
100
AcDb2dVertex
 10
396.0200906074591
 20
-1872.869315064763
 30
0.0
  0
VERTEX
  5
227
330
211
100
AcDbEntity
  8
Graypants_Dome36
 62
    36
420
  8866048
370
    -3
100
AcDbVertex
100
AcDb2dVertex
 10
396.058797960896
 20
-1872.845482856086
 30
0.0
  0
VERTEX
  5
228
330
211
100
AcDbEntity
  8
Graypants_Dome36
 62
    36
420
  8866048
370
    -3
100
AcDbVertex
100
AcDb2dVertex
 10
396.0971073741707
 20
-1872.820434078599
 30
0.0
  0
VERTEX
  5
229
330
211
100
AcDbEntity
  8
Graypants_Dome36
 62
    36
420
  8866048
370
    -3
100
AcDbVertex
100
AcDb2dVertex
 10
396.1349767058269
 20
-1872.794180907051
 30
0.0
  0
VERTEX
  5
22A
330
211
100
AcDbEntity
  8
Graypants_Dome36
 62
    36
420
  8866048
370
    -3
100
AcDbVertex
100
AcDb2dVertex
 10
396.1723641309798
 20
-1872.766738073541
 30
0.0
  0
VERTEX
  5
22B
330
211
100
AcDbEntity
  8
Graypants_Dome36
 62
    36
420
  8866048
370
    -3
100
AcDbVertex
100
AcDb2dVertex
 10
396.2092282853309
 20
-1872.738122858921
 30
0.0
  0
VERTEX
  5
22C
330
211
100
AcDbEntity
  8
Graypants_Dome36
 62
    36
420
  8866048
370
    -3
100
AcDbVertex
100
AcDb2dVertex
 10
396.2455284094694
 20
-1872.708355071321
 30
0.0
  0
VERTEX
  5
22D
330
211
100
AcDbEntity
  8
Graypants_Dome36
 62
    36
420
  8866048
370
    -3
100
AcDbVertex
100
AcDb2dVertex
 10
396.2812244924585
 20
-1872.677457011673
 30
0.0
  0
VERTEX
  5
22E
330
211
100
AcDbEntity
  8
Graypants_Dome36
 62
    36
420
  8866048
370
    -3
100
AcDbVertex
100
AcDb2dVertex
 10
396.3162774136844
 20
-1872.645453426253
 30
0.0
  0
VERTEX
  5
22F
330
211
100
AcDbEntity
  8
Graypants_Dome36
 62
    36
420
  8866048
370
    -3
100
AcDbVertex
100
AcDb2dVertex
 10
396.3506490819455
 20
-1872.612371446386
 30
0.0
  0
VERTEX
  5
230
330
211
100
AcDbEntity
  8
Graypants_Dome36
 62
    36
420
  8866048
370
    -3
100
AcDbVertex
100
AcDb2dVertex
 10
396.3843025707689
 20
-1872.578240515555
 30
0.0
  0
VERTEX
  5
231
330
211
100
AcDbEntity
  8
Graypants_Dome36
 62
    36
420
  8866048
370
    -3
100
AcDbVertex
100
AcDb2dVertex
 10
396.4172022489597
 20
-1872.543092304312
 30
0.0
  0
VERTEX
  5
232
330
211
100
AcDbEntity
  8
Graypants_Dome36
 62
    36
420
  8866048
370
    -3
100
AcDbVertex
100
AcDb2dVertex
 10
396.4493139054289
 20
-1872.506960613476
 30
0.0
  0
VERTEX
  5
233
330
211
100
AcDbEntity
  8
Graypants_Dome36
 62
    36
420
  8866048
370
    -3
100
AcDbVertex
100
AcDb2dVertex
 10
396.4806048673842
 20
-1872.469881266238
 30
0.0
  0
VERTEX
  5
234
330
211
100
AcDbEntity
  8
Graypants_Dome36
 62
    36
420
  8866048
370
    -3
100
AcDbVertex
100
AcDb2dVertex
 10
396.5110441110331
 20
-1872.431891989888
 30
0.0
  0
VERTEX
  5
235
330
211
100
AcDbEntity
  8
Graypants_Dome36
 62
    36
420
  8866048
370
    -3
100
AcDbVertex
100
AcDb2dVertex
 10
396.5406023640078
 20
-1872.393032287989
 30
0.0
  0
VERTEX
  5
236
330
211
100
AcDbEntity
  8
Graypants_Dome36
 62
    36
420
  8866048
370
    -3
100
AcDbVertex
100
AcDb2dVertex
 10
396.5692521988065
 20
-1872.353343303902
 30
0.0
  0
VERTEX
  5
237
330
211
100
AcDbEntity
  8
Graypants_Dome36
 62
    36
420
  8866048
370
    -3
100
AcDbVertex
100
AcDb2dVertex
 10
396.5969681166239
 20
-1872.312867676644
 30
0.0
  0
VERTEX
  5
238
330
211
100
AcDbEntity
  8
Graypants_Dome36
 62
    36
420
  8866048
370
    -3
100
AcDbVertex
100
AcDb2dVertex
 10
396.6237266210445
 20
-1872.271649390148
 30
0.0
  0
VERTEX
  5
239
330
211
100
AcDbEntity
  8
Graypants_Dome36
 62
    36
420
  8866048
370
    -3
100
AcDbVertex
100
AcDb2dVertex
 10
396.6495062811636
 20
-1872.229733617008
 30
0.0
  0
VERTEX
  5
23A
330
211
100
AcDbEntity
  8
Graypants_Dome36
 62
    36
420
  8866048
370
    -3
100
AcDbVertex
100
AcDb2dVertex
 10
396.6742877838084
 20
-1872.187166557873
 30
0.0
  0
VERTEX
  5
23B
330
211
100
AcDbEntity
  8
Graypants_Dome36
 62
    36
420
  8866048
370
    -3
100
AcDbVertex
100
AcDb2dVertex
 10
396.6980539746359
 20
-1872.143995277658
 30
0.0
  0
VERTEX
  5
23C
330
211
100
AcDbEntity
  8
Graypants_Dome36
 62
    36
420
  8866048
370
    -3
100
AcDbVertex
100
AcDb2dVertex
 10
396.7207898879876
 20
-1872.100267539741
 30
0.0
  0
VERTEX
  5
23D
330
211
100
AcDbEntity
  8
Graypants_Dome36
 62
    36
420
  8866048
370
    -3
100
AcDbVertex
100
AcDb2dVertex
 10
396.7424827654938
 20
-1872.05603163934
 30
0.0
  0
VERTEX
  5
23E
330
211
100
AcDbEntity
  8
Graypants_Dome36
 62
    36
420
  8866048
370
    -3
100
AcDbVertex
100
AcDb2dVertex
 10
396.7631220635112
 20
-1872.011336237215
 30
0.0
  0
VERTEX
  5
23F
330
211
100
AcDbEntity
  8
Graypants_Dome36
 62
    36
420
  8866048
370
    -3
100
AcDbVertex
100
AcDb2dVertex
 10
396.7826994495934
 20
-1871.966230194851
 30
0.0
  0
VERTEX
  5
240
330
211
100
AcDbEntity
  8
Graypants_Dome36
 62
    36
420
  8866048
370
    -3
100
AcDbVertex
100
AcDb2dVertex
 10
396.8012087882724
 20
-1871.920762412173
 30
0.0
  0
VERTEX
  5
241
330
211
100
AcDbEntity
  8
Graypants_Dome36
 62
    36
420
  8866048
370
    -3
100
AcDbVertex
100
AcDb2dVertex
 10
396.818646116531
 20
-1871.874981668863
 30
0.0
  0
VERTEX
  5
242
330
211
100
AcDbEntity
  8
Graypants_Dome36
 62
    36
420
  8866048
370
    -3
100
AcDbVertex
100
AcDb2dVertex
 10
396.8350096094178
 20
-1871.828936470227
 30
0.0
  0
VERTEX
  5
243
330
211
100
AcDbEntity
  8
Graypants_Dome36
 62
    36
420
  8866048
370
    -3
100
AcDbVertex
100
AcDb2dVertex
 10
396.8502995363346
 20
-1871.78267489852
 30
0.0
  0
VERTEX
  5
244
330
211
100
AcDbEntity
  8
Graypants_Dome36
 62
    36
420
  8866048
370
    -3
100
AcDbVertex
100
AcDb2dVertex
 10
396.8645182085904
 20
-1871.736244470534
 30
0.0
  0
VERTEX
  5
245
330
211
100
AcDbEntity
  8
Graypants_Dome36
 62
    36
420
  8866048
370
    -3
100
AcDbVertex
100
AcDb2dVertex
 10
396.877669918866
 20
-1871.689692002195
 30
0.0
  0
VERTEX
  5
246
330
211
100
AcDbEntity
  8
Graypants_Dome36
 62
    36
420
  8866048
370
    -3
100
AcDbVertex
100
AcDb2dVertex
 10
396.8897608732856
 20
-1871.643063480794
 30
0.0
  0
VERTEX
  5
247
330
211
100
AcDbEntity
  8
Graypants_Dome36
 62
    36
420
  8866048
370
    -3
100
AcDbVertex
100
AcDb2dVertex
 10
396.9007991168203
 20
-1871.5964039454
 30
0.0
  0
VERTEX
  5
248
330
211
100
AcDbEntity
  8
Graypants_Dome36
 62
    36
420
  8866048
370
    -3
100
AcDbVertex
100
AcDb2dVertex
 10
396.910794452778
 20
-1871.549757375916
 30
0.0
  0
VERTEX
  5
249
330
211
100
AcDbEntity
  8
Graypants_Dome36
 62
    36
420
  8866048
370
    -3
100
AcDbVertex
100
AcDb2dVertex
 10
396.9197583571497
 20
-1871.503166591114
 30
0.0
  0
VERTEX
  5
24A
330
211
100
AcDbEntity
  8
Graypants_Dome36
 62
    36
420
  8866048
370
    -3
100
AcDbVertex
100
AcDb2dVertex
 10
396.9277038885842
 20
-1871.456673155927
 30
0.0
  0
VERTEX
  5
24B
330
211
100
AcDbEntity
  8
Graypants_Dome36
 62
    36
420
  8866048
370
    -3
100
AcDbVertex
100
AcDb2dVertex
 10
396.9346455947674
 20
-1871.410317298152
 30
0.0
  0
VERTEX
  5
24C
330
211
100
AcDbEntity
  8
Graypants_Dome36
 62
    36
420
  8866048
370
    -3
100
AcDbVertex
100
AcDb2dVertex
 10
396.9405994159681
 20
-1871.364137834657
 30
0.0
  0
VERTEX
  5
24D
330
211
100
AcDbEntity
  8
Graypants_Dome36
 62
    36
420
  8866048
370
    -3
100
AcDbVertex
100
AcDb2dVertex
 10
396.9455825864912
 20
-1871.31817210707
 30
0.0
  0
VERTEX
  5
24E
330
211
100
AcDbEntity
  8
Graypants_Dome36
 62
    36
420
  8866048
370
    -3
100
AcDbVertex
100
AcDb2dVertex
 10
396.9496135347634
 20
-1871.272455926898
 30
0.0
  0
VERTEX
  5
24F
330
211
100
AcDbEntity
  8
Graypants_Dome36
 62
    36
420
  8866048
370
    -3
100
AcDbVertex
100
AcDb2dVertex
 10
396.9527117827321
 20
-1871.227023529882
 30
0.0
  0
VERTEX
  5
250
330
211
100
AcDbEntity
  8
Graypants_Dome36
 62
    36
420
  8866048
370
    -3
100
AcDbVertex
100
AcDb2dVertex
 10
396.9548978452367
 20
-1871.1819075394
 30
0.0
  0
VERTEX
  5
251
330
211
100
AcDbEntity
  8
Graypants_Dome36
 62
    36
420
  8866048
370
    -3
100
AcDbVertex
100
AcDb2dVertex
 10
396.9561931299596
 20
-1871.137138938626
 30
0.0
  0
VERTEX
  5
252
330
211
100
AcDbEntity
  8
Graypants_Dome36
 62
    36
420
  8866048
370
    -3
100
AcDbVertex
100
AcDb2dVertex
 10
396.9566198385246
 20
-1871.092747051103
 30
0.0
  0
SEQEND
  5
253
330
211
100
AcDbEntity
  8
Graypants_Dome36
 62
    36
420
  8866048
370
    -3
  0
POLYLINE
  5
254
330
1F
100
AcDbEntity
  8
Graypants_Dome36
 62
    36
420
  8866048
370
    -3
100
AcDb2dPolyline
 66
     1
 10
0.0
 20
0.0
 30
0.0
  0
VERTEX
  5
255
330
254
100
AcDbEntity
  8
Graypants_Dome36
 62
    36
420
  8866048
370
    -3
100
AcDbVertex
100
AcDb2dVertex
 10
393.7245690141435
 20
-1873.092747051104
 30
0.0
  0
VERTEX
  5
256
330
254
100
AcDbEntity
  8
Graypants_Dome36
 62
    36
420
  8866048
370
    -3
100
AcDbVertex
100
AcDb2dVertex
 10
393.763013516227
 20
-1873.092254330491
 30
0.0
  0
VERTEX
  5
257
330
254
100
AcDbEntity
  8
Graypants_Dome36
 62
    36
420
  8866048
370
    -3
100
AcDbVertex
100
AcDb2dVertex
 10
393.8017842615538
 20
-1873.090758664515
 30
0.0
  0
VERTEX
  5
258
330
254
100
AcDbEntity
  8
Graypants_Dome36
 62
    36
420
  8866048
370
    -3
100
AcDbVertex
100
AcDb2dVertex
 10
393.8408558551903
 20
-1873.088234416949
 30
0.0
  0
VERTEX
  5
259
330
254
100
AcDbEntity
  8
Graypants_Dome36
 62
    36
420
  8866048
370
    -3
100
AcDbVertex
100
AcDb2dVertex
 10
393.8802014649226
 20
-1873.084656868329
 30
0.0
  0
VERTEX
  5
25A
330
254
100
AcDbEntity
  8
Graypants_Dome36
 62
    36
420
  8866048
370
    -3
100
AcDbVertex
100
AcDb2dVertex
 10
393.9197928380753
 20
-1873.080002330161
 30
0.0
  0
VERTEX
  5
25B
330
254
100
AcDbEntity
  8
Graypants_Dome36
 62
    36
420
  8866048
370
    -3
100
AcDbVertex
100
AcDb2dVertex
 10
393.9596003256267
 20
-1873.07424826044
 30
0.0
  0
VERTEX
  5
25C
330
254
100
AcDbEntity
  8
Graypants_Dome36
 62
    36
420
  8866048
370
    -3
100
AcDbVertex
100
AcDb2dVertex
 10
393.9995929139043
 20
-1873.067373379852
 30
0.0
  0
VERTEX
  5
25D
330
254
100
AcDbEntity
  8
Graypants_Dome36
 62
    36
420
  8866048
370
    -3
100
AcDbVertex
100
AcDb2dVertex
 10
394.0397382641074
 20
-1873.059357787937
 30
0.0
  0
VERTEX
  5
25E
330
254
100
AcDbEntity
  8
Graypants_Dome36
 62
    36
420
  8866048
370
    -3
100
AcDbVertex
100
AcDb2dVertex
 10
394.0800027598439
 20
-1873.050183078456
 30
0.0
  0
VERTEX
  5
25F
330
254
100
AcDbEntity
  8
Graypants_Dome36
 62
    36
420
  8866048
370
    -3
100
AcDbVertex
100
AcDb2dVertex
 10
394.1203515628195
 20
-1873.039832453189
 30
0.0
  0
VERTEX
  5
260
330
254
100
AcDbEntity
  8
Graypants_Dome36
 62
    36
420
  8866048
370
    -3
100
AcDbVertex
100
AcDb2dVertex
 10
394.1607486767468
 20
-1873.028290833307
 30
0.0
  0
VERTEX
  5
261
330
254
100
AcDbEntity
  8
Graypants_Dome36
 62
    36
420
  8866048
370
    -3
100
AcDbVertex
100
AcDb2dVertex
 10
394.201157019481
 20
-1873.015544967478
 30
0.0
  0
VERTEX
  5
262
330
254
100
AcDbEntity
  8
Graypants_Dome36
 62
    36
420
  8866048
370
    -3
100
AcDbVertex
100
AcDb2dVertex
 10
394.2415385033102
 20
-1873.001583535815
 30
0.0
  0
VERTEX
  5
263
330
254
100
AcDbEntity
  8
Graypants_Dome36
 62
    36
420
  8866048
370
    -3
100
AcDbVertex
100
AcDb2dVertex
 10
394.2818541232554
 20
-1872.986397248787
 30
0.0
  0
VERTEX
  5
264
330
254
100
AcDbEntity
  8
Graypants_Dome36
 62
    36
420
  8866048
370
    -3
100
AcDbVertex
100
AcDb2dVertex
 10
394.3220640531554
 20
-1872.969978940179
 30
0.0
  0
VERTEX
  5
265
330
254
100
AcDbEntity
  8
Graypants_Dome36
 62
    36
420
  8866048
370
    -3
100
AcDbVertex
100
AcDb2dVertex
 10
394.3621277492297
 20
-1872.952323653229
 30
0.0
  0
VERTEX
  5
266
330
254
100
AcDbEntity
  8
Graypants_Dome36
 62
    36
420
  8866048
370
    -3
100
AcDbVertex
100
AcDb2dVertex
 10
394.4020040607282
 20
-1872.933428719068
 30
0.0
  0
VERTEX
  5
267
330
254
100
AcDbEntity
  8
Graypants_Dome36
 62
    36
420
  8866048
370
    -3
100
AcDbVertex
100
AcDb2dVertex
 10
394.4416513471983
 20
-1872.913293826617
 30
0.0
  0
VERTEX
  5
268
330
254
100
AcDbEntity
  8
Graypants_Dome36
 62
    36
420
  8866048
370
    -3
100
AcDbVertex
100
AcDb2dVertex
 10
394.4810276018122
 20
-1872.89192108315
 30
0.0
  0
VERTEX
  5
269
330
254
100
AcDbEntity
  8
Graypants_Dome36
 62
    36
420
  8866048
370
    -3
100
AcDbVertex
100
AcDb2dVertex
 10
394.5200905801265
 20
-1872.869315064763
 30
0.0
  0
VERTEX
  5
26A
330
254
100
AcDbEntity
  8
Graypants_Dome36
 62
    36
420
  8866048
370
    -3
100
AcDbVertex
100
AcDb2dVertex
 10
394.5587979335633
 20
-1872.845482856086
 30
0.0
  0
VERTEX
  5
26B
330
254
100
AcDbEntity
  8
Graypants_Dome36
 62
    36
420
  8866048
370
    -3
100
AcDbVertex
100
AcDb2dVertex
 10
394.5971073468381
 20
-1872.820434078599
 30
0.0
  0
VERTEX
  5
26C
330
254
100
AcDbEntity
  8
Graypants_Dome36
 62
    36
420
  8866048
370
    -3
100
AcDbVertex
100
AcDb2dVertex
 10
394.6349766784942
 20
-1872.794180907051
 30
0.0
  0
VERTEX
  5
26D
330
254
100
AcDbEntity
  8
Graypants_Dome36
 62
    36
420
  8866048
370
    -3
100
AcDbVertex
100
AcDb2dVertex
 10
394.6723641036471
 20
-1872.766738073541
 30
0.0
  0
VERTEX
  5
26E
330
254
100
AcDbEntity
  8
Graypants_Dome36
 62
    36
420
  8866048
370
    -3
100
AcDbVertex
100
AcDb2dVertex
 10
394.7092282579982
 20
-1872.738122858921
 30
0.0
  0
VERTEX
  5
26F
330
254
100
AcDbEntity
  8
Graypants_Dome36
 62
    36
420
  8866048
370
    -3
100
AcDbVertex
100
AcDb2dVertex
 10
394.7455283821369
 20
-1872.708355071321
 30
0.0
  0
VERTEX
  5
270
330
254
100
AcDbEntity
  8
Graypants_Dome36
 62
    36
420
  8866048
370
    -3
100
AcDbVertex
100
AcDb2dVertex
 10
394.7812244651259
 20
-1872.677457011673
 30
0.0
  0
VERTEX
  5
271
330
254
100
AcDbEntity
  8
Graypants_Dome36
 62
    36
420
  8866048
370
    -3
100
AcDbVertex
100
AcDb2dVertex
 10
394.8162773863518
 20
-1872.645453426253
 30
0.0
  0
VERTEX
  5
272
330
254
100
AcDbEntity
  8
Graypants_Dome36
 62
    36
420
  8866048
370
    -3
100
AcDbVertex
100
AcDb2dVertex
 10
394.8506490546129
 20
-1872.612371446386
 30
0.0
  0
VERTEX
  5
273
330
254
100
AcDbEntity
  8
Graypants_Dome36
 62
    36
420
  8866048
370
    -3
100
AcDbVertex
100
AcDb2dVertex
 10
394.8843025434363
 20
-1872.578240515555
 30
0.0
  0
VERTEX
  5
274
330
254
100
AcDbEntity
  8
Graypants_Dome36
 62
    36
420
  8866048
370
    -3
100
AcDbVertex
100
AcDb2dVertex
 10
394.9172022216271
 20
-1872.543092304312
 30
0.0
  0
VERTEX
  5
275
330
254
100
AcDbEntity
  8
Graypants_Dome36
 62
    36
420
  8866048
370
    -3
100
AcDbVertex
100
AcDb2dVertex
 10
394.9493138780963
 20
-1872.506960613476
 30
0.0
  0
VERTEX
  5
276
330
254
100
AcDbEntity
  8
Graypants_Dome36
 62
    36
420
  8866048
370
    -3
100
AcDbVertex
100
AcDb2dVertex
 10
394.9806048400517
 20
-1872.469881266238
 30
0.0
  0
VERTEX
  5
277
330
254
100
AcDbEntity
  8
Graypants_Dome36
 62
    36
420
  8866048
370
    -3
100
AcDbVertex
100
AcDb2dVertex
 10
395.0110440837007
 20
-1872.431891989888
 30
0.0
  0
VERTEX
  5
278
330
254
100
AcDbEntity
  8
Graypants_Dome36
 62
    36
420
  8866048
370
    -3
100
AcDbVertex
100
AcDb2dVertex
 10
395.0406023366754
 20
-1872.393032287989
 30
0.0
  0
VERTEX
  5
279
330
254
100
AcDbEntity
  8
Graypants_Dome36
 62
    36
420
  8866048
370
    -3
100
AcDbVertex
100
AcDb2dVertex
 10
395.069252171474
 20
-1872.353343303902
 30
0.0
  0
VERTEX
  5
27A
330
254
100
AcDbEntity
  8
Graypants_Dome36
 62
    36
420
  8866048
370
    -3
100
AcDbVertex
100
AcDb2dVertex
 10
395.0969680892914
 20
-1872.312867676644
 30
0.0
  0
VERTEX
  5
27B
330
254
100
AcDbEntity
  8
Graypants_Dome36
 62
    36
420
  8866048
370
    -3
100
AcDbVertex
100
AcDb2dVertex
 10
395.1237265937121
 20
-1872.271649390148
 30
0.0
  0
VERTEX
  5
27C
330
254
100
AcDbEntity
  8
Graypants_Dome36
 62
    36
420
  8866048
370
    -3
100
AcDbVertex
100
AcDb2dVertex
 10
395.1495062538312
 20
-1872.229733617008
 30
0.0
  0
VERTEX
  5
27D
330
254
100
AcDbEntity
  8
Graypants_Dome36
 62
    36
420
  8866048
370
    -3
100
AcDbVertex
100
AcDb2dVertex
 10
395.1742877564761
 20
-1872.187166557873
 30
0.0
  0
VERTEX
  5
27E
330
254
100
AcDbEntity
  8
Graypants_Dome36
 62
    36
420
  8866048
370
    -3
100
AcDbVertex
100
AcDb2dVertex
 10
395.1980539473035
 20
-1872.143995277658
 30
0.0
  0
VERTEX
  5
27F
330
254
100
AcDbEntity
  8
Graypants_Dome36
 62
    36
420
  8866048
370
    -3
100
AcDbVertex
100
AcDb2dVertex
 10
395.2207898606553
 20
-1872.100267539741
 30
0.0
  0
VERTEX
  5
280
330
254
100
AcDbEntity
  8
Graypants_Dome36
 62
    36
420
  8866048
370
    -3
100
AcDbVertex
100
AcDb2dVertex
 10
395.2424827381614
 20
-1872.05603163934
 30
0.0
  0
VERTEX
  5
281
330
254
100
AcDbEntity
  8
Graypants_Dome36
 62
    36
420
  8866048
370
    -3
100
AcDbVertex
100
AcDb2dVertex
 10
395.2631220361789
 20
-1872.011336237215
 30
0.0
  0
VERTEX
  5
282
330
254
100
AcDbEntity
  8
Graypants_Dome36
 62
    36
420
  8866048
370
    -3
100
AcDbVertex
100
AcDb2dVertex
 10
395.282699422261
 20
-1871.966230194851
 30
0.0
  0
VERTEX
  5
283
330
254
100
AcDbEntity
  8
Graypants_Dome36
 62
    36
420
  8866048
370
    -3
100
AcDbVertex
100
AcDb2dVertex
 10
395.3012087609401
 20
-1871.920762412173
 30
0.0
  0
VERTEX
  5
284
330
254
100
AcDbEntity
  8
Graypants_Dome36
 62
    36
420
  8866048
370
    -3
100
AcDbVertex
100
AcDb2dVertex
 10
395.3186460891988
 20
-1871.874981668863
 30
0.0
  0
VERTEX
  5
285
330
254
100
AcDbEntity
  8
Graypants_Dome36
 62
    36
420
  8866048
370
    -3
100
AcDbVertex
100
AcDb2dVertex
 10
395.3350095820855
 20
-1871.828936470227
 30
0.0
  0
VERTEX
  5
286
330
254
100
AcDbEntity
  8
Graypants_Dome36
 62
    36
420
  8866048
370
    -3
100
AcDbVertex
100
AcDb2dVertex
 10
395.3502995090024
 20
-1871.78267489852
 30
0.0
  0
VERTEX
  5
287
330
254
100
AcDbEntity
  8
Graypants_Dome36
 62
    36
420
  8866048
370
    -3
100
AcDbVertex
100
AcDb2dVertex
 10
395.3645181812582
 20
-1871.736244470534
 30
0.0
  0
VERTEX
  5
288
330
254
100
AcDbEntity
  8
Graypants_Dome36
 62
    36
420
  8866048
370
    -3
100
AcDbVertex
100
AcDb2dVertex
 10
395.3776698915338
 20
-1871.689692002195
 30
0.0
  0
VERTEX
  5
289
330
254
100
AcDbEntity
  8
Graypants_Dome36
 62
    36
420
  8866048
370
    -3
100
AcDbVertex
100
AcDb2dVertex
 10
395.3897608459534
 20
-1871.643063480794
 30
0.0
  0
VERTEX
  5
28A
330
254
100
AcDbEntity
  8
Graypants_Dome36
 62
    36
420
  8866048
370
    -3
100
AcDbVertex
100
AcDb2dVertex
 10
395.400799089488
 20
-1871.5964039454
 30
0.0
  0
VERTEX
  5
28B
330
254
100
AcDbEntity
  8
Graypants_Dome36
 62
    36
420
  8866048
370
    -3
100
AcDbVertex
100
AcDb2dVertex
 10
395.4107944254458
 20
-1871.549757375916
 30
0.0
  0
VERTEX
  5
28C
330
254
100
AcDbEntity
  8
Graypants_Dome36
 62
    36
420
  8866048
370
    -3
100
AcDbVertex
100
AcDb2dVertex
 10
395.4197583298175
 20
-1871.503166591114
 30
0.0
  0
VERTEX
  5
28D
330
254
100
AcDbEntity
  8
Graypants_Dome36
 62
    36
420
  8866048
370
    -3
100
AcDbVertex
100
AcDb2dVertex
 10
395.4277038612519
 20
-1871.456673155927
 30
0.0
  0
VERTEX
  5
28E
330
254
100
AcDbEntity
  8
Graypants_Dome36
 62
    36
420
  8866048
370
    -3
100
AcDbVertex
100
AcDb2dVertex
 10
395.4346455674352
 20
-1871.410317298152
 30
0.0
  0
VERTEX
  5
28F
330
254
100
AcDbEntity
  8
Graypants_Dome36
 62
    36
420
  8866048
370
    -3
100
AcDbVertex
100
AcDb2dVertex
 10
395.4405993886359
 20
-1871.364137834657
 30
0.0
  0
VERTEX
  5
290
330
254
100
AcDbEntity
  8
Graypants_Dome36
 62
    36
420
  8866048
370
    -3
100
AcDbVertex
100
AcDb2dVertex
 10
395.4455825591591
 20
-1871.31817210707
 30
0.0
  0
VERTEX
  5
291
330
254
100
AcDbEntity
  8
Graypants_Dome36
 62
    36
420
  8866048
370
    -3
100
AcDbVertex
100
AcDb2dVertex
 10
395.4496135074313
 20
-1871.272455926898
 30
0.0
  0
VERTEX
  5
292
330
254
100
AcDbEntity
  8
Graypants_Dome36
 62
    36
420
  8866048
370
    -3
100
AcDbVertex
100
AcDb2dVertex
 10
395.4527117553999
 20
-1871.227023529882
 30
0.0
  0
VERTEX
  5
293
330
254
100
AcDbEntity
  8
Graypants_Dome36
 62
    36
420
  8866048
370
    -3
100
AcDbVertex
100
AcDb2dVertex
 10
395.4548978179046
 20
-1871.1819075394
 30
0.0
  0
VERTEX
  5
294
330
254
100
AcDbEntity
  8
Graypants_Dome36
 62
    36
420
  8866048
370
    -3
100
AcDbVertex
100
AcDb2dVertex
 10
395.4561931026274
 20
-1871.137138938626
 30
0.0
  0
VERTEX
  5
295
330
254
100
AcDbEntity
  8
Graypants_Dome36
 62
    36
420
  8866048
370
    -3
100
AcDbVertex
100
AcDb2dVertex
 10
395.4566198111925
 20
-1871.092747051103
 30
0.0
  0
SEQEND
  5
296
330
254
100
AcDbEntity
  8
Graypants_Dome36
 62
    36
420
  8866048
370
    -3
  0
LINE
  5
297
330
1F
100
AcDbEntity
  8
Graypants_Dome36
 62
    36
420
  8866048
370
    -3
100
AcDbLine
 10
396.9566198385246
 20
-1871.092747051103
 30
0.0
 11
396.9566198385246
 21
-1869.063838980021
 31
0.0
  0
LINE
  5
298
330
1F
100
AcDbEntity
  8
Graypants_Dome36
 62
    36
420
  8866048
370
    -3
100
AcDbLine
 10
395.4566198111925
 20
-1871.092747051103
 30
0.0
 11
395.4566198111925
 21
-1869.067394826768
 31
0.0
  0
LINE
  5
299
330
1F
100
AcDbEntity
  8
Graypants_Dome36
 62
    36
420
  8866048
370
    -3
100
AcDbLine
 10
395.2245690414766
 20
-1873.092747051104
 30
0.0
 11
393.7245690141435
 21
-1873.092747051104
 31
0.0
  0
ARC
  5
29A
330
1F
100
AcDbEntity
  8
Graypants_Dome36
 62
    36
420
  8866048
370
    -3
100
AcDbCircle
 10
-288.9863445893351
 20
-1905.528898487328
 30
0.0
 40
91.22762529435144
210
0.0
220
0.0
230
-1.0
100
AcDbArc
 50
156.4420670240751
 51
158.0044030977128
  0
POLYLINE
  5
29B
330
1F
100
AcDbEntity
  8
Graypants_Dome36
 62
    36
420
  8866048
370
    -3
100
AcDb2dPolyline
 66
     1
 10
0.0
 20
0.0
 30
0.0
  0
VERTEX
  5
29C
330
29B
100
AcDbEntity
  8
Graypants_Dome36
 62
    36
420
  8866048
370
    -3
100
AcDbVertex
100
AcDb2dVertex
 10
-373.5737552318139
 20
-1871.360928869288
 30
0.0
  0
VERTEX
  5
29D
330
29B
100
AcDbEntity
  8
Graypants_Dome36
 62
    36
420
  8866048
370
    -3
100
AcDbVertex
100
AcDb2dVertex
 10
-373.6121440965175
 20
-1871.451920913525
 30
0.0
  0
VERTEX
  5
29E
330
29B
100
AcDbEntity
  8
Graypants_Dome36
 62
    36
420
  8866048
370
    -3
100
AcDbVertex
100
AcDb2dVertex
 10
-373.6535632770787
 20
-1871.542190407135
 30
0.0
  0
VERTEX
  5
29F
330
29B
100
AcDbEntity
  8
Graypants_Dome36
 62
    36
420
  8866048
370
    -3
100
AcDbVertex
100
AcDb2dVertex
 10
-373.6980175245272
 20
-1871.631547439943
 30
0.0
  0
VERTEX
  5
2A0
330
29B
100
AcDbEntity
  8
Graypants_Dome36
 62
    36
420
  8866048
370
    -3
100
AcDbVertex
100
AcDb2dVertex
 10
-373.7455002254213
 20
-1871.719798833721
 30
0.0
  0
VERTEX
  5
2A1
330
29B
100
AcDbEntity
  8
Graypants_Dome36
 62
    36
420
  8866048
370
    -3
100
AcDbVertex
100
AcDb2dVertex
 10
-373.795992954656
 20
-1871.806749233871
 30
0.0
  0
VERTEX
  5
2A2
330
29B
100
AcDbEntity
  8
Graypants_Dome36
 62
    36
420
  8866048
370
    -3
100
AcDbVertex
100
AcDb2dVertex
 10
-373.8494651196617
 20
-1871.892202276755
 30
0.0
  0
VERTEX
  5
2A3
330
29B
100
AcDbEntity
  8
Graypants_Dome36
 62
    36
420
  8866048
370
    -3
100
AcDbVertex
100
AcDb2dVertex
 10
-373.9058737059889
 20
-1871.975961821125
 30
0.0
  0
VERTEX
  5
2A4
330
29B
100
AcDbEntity
  8
Graypants_Dome36
 62
    36
420
  8866048
370
    -3
100
AcDbVertex
100
AcDb2dVertex
 10
-373.9651631330555
 20
-1872.057833230191
 30
0.0
  0
VERTEX
  5
2A5
330
29B
100
AcDbEntity
  8
Graypants_Dome36
 62
    36
420
  8866048
370
    -3
100
AcDbVertex
100
AcDb2dVertex
 10
-374.0272652273189
 20
-1872.137624689186
 30
0.0
  0
VERTEX
  5
2A6
330
29B
100
AcDbEntity
  8
Graypants_Dome36
 62
    36
420
  8866048
370
    -3
100
AcDbVertex
100
AcDb2dVertex
 10
-374.0593462980932
 20
-1872.176681595728
 30
0.0
  0
VERTEX
  5
2A7
330
29B
100
AcDbEntity
  8
Graypants_Dome36
 62
    36
420
  8866048
370
    -3
100
AcDbVertex
100
AcDb2dVertex
 10
-374.092099318365
 20
-1872.215148541823
 30
0.0
  0
VERTEX
  5
2A8
330
29B
100
AcDbEntity
  8
Graypants_Dome36
 62
    36
420
  8866048
370
    -3
100
AcDbVertex
100
AcDb2dVertex
 10
-374.1255122881975
 20
-1872.253002939707
 30
0.0
  0
VERTEX
  5
2A9
330
29B
100
AcDbEntity
  8
Graypants_Dome36
 62
    36
420
  8866048
370
    -3
100
AcDbVertex
100
AcDb2dVertex
 10
-374.1595724613995
 20
-1872.290222627925
 30
0.0
  0
VERTEX
  5
2AA
330
29B
100
AcDbEntity
  8
Graypants_Dome36
 62
    36
420
  8866048
370
    -3
100
AcDbVertex
100
AcDb2dVertex
 10
-374.1942663594579
 20
-1872.326785911887
 30
0.0
  0
VERTEX
  5
2AB
330
29B
100
AcDbEntity
  8
Graypants_Dome36
 62
    36
420
  8866048
370
    -3
100
AcDbVertex
100
AcDb2dVertex
 10
-374.229579787436
 20
-1872.362671603717
 30
0.0
  0
VERTEX
  5
2AC
330
29B
100
AcDbEntity
  8
Graypants_Dome36
 62
    36
420
  8866048
370
    -3
100
AcDbVertex
100
AcDb2dVertex
 10
-374.2654978518036
 20
-1872.397859061231
 30
0.0
  0
VERTEX
  5
2AD
330
29B
100
AcDbEntity
  8
Graypants_Dome36
 62
    36
420
  8866048
370
    -3
100
AcDbVertex
100
AcDb2dVertex
 10
-374.3020049801606
 20
-1872.432328225919
 30
0.0
  0
VERTEX
  5
2AE
330
29B
100
AcDbEntity
  8
Graypants_Dome36
 62
    36
420
  8866048
370
    -3
100
AcDbVertex
100
AcDb2dVertex
 10
-374.3390849428023
 20
-1872.466059659776
 30
0.0
  0
VERTEX
  5
2AF
330
29B
100
AcDbEntity
  8
Graypants_Dome36
 62
    36
420
  8866048
370
    -3
100
AcDbVertex
100
AcDb2dVertex
 10
-374.3767208760689
 20
-1872.499034580844
 30
0.0
  0
VERTEX
  5
2B0
330
29B
100
AcDbEntity
  8
Graypants_Dome36
 62
    36
420
  8866048
370
    -3
100
AcDbVertex
100
AcDb2dVertex
 10
-374.4148953074104
 20
-1872.531234897341
 30
0.0
  0
VERTEX
  5
2B1
330
29B
100
AcDbEntity
  8
Graypants_Dome36
 62
    36
420
  8866048
370
    -3
100
AcDbVertex
100
AcDb2dVertex
 10
-374.4535901820909
 20
-1872.562643240237
 30
0.0
  0
VERTEX
  5
2B2
330
29B
100
AcDbEntity
  8
Graypants_Dome36
 62
    36
420
  8866048
370
    -3
100
AcDbVertex
100
AcDb2dVertex
 10
-374.4927868914473
 20
-1872.593242994161
 30
0.0
  0
VERTEX
  5
2B3
330
29B
100
AcDbEntity
  8
Graypants_Dome36
 62
    36
420
  8866048
370
    -3
100
AcDbVertex
100
AcDb2dVertex
 10
-374.5324663026124
 20
-1872.623018326537
 30
0.0
  0
VERTEX
  5
2B4
330
29B
100
AcDbEntity
  8
Graypants_Dome36
 62
    36
420
  8866048
370
    -3
100
AcDbVertex
100
AcDb2dVertex
 10
-374.5726087895993
 20
-1872.651954214811
 30
0.0
  0
VERTEX
  5
2B5
330
29B
100
AcDbEntity
  8
Graypants_Dome36
 62
    36
420
  8866048
370
    -3
100
AcDbVertex
100
AcDb2dVertex
 10
-374.6131942656452
 20
-1872.680036471709
 30
0.0
  0
VERTEX
  5
2B6
330
29B
100
AcDbEntity
  8
Graypants_Dome36
 62
    36
420
  8866048
370
    -3
100
AcDbVertex
100
AcDb2dVertex
 10
-374.6542022166997
 20
-1872.707251768399
 30
0.0
  0
VERTEX
  5
2B7
330
29B
100
AcDbEntity
  8
Graypants_Dome36
 62
    36
420
  8866048
370
    -3
100
AcDbVertex
100
AcDb2dVertex
 10
-374.6956117359426
 20
-1872.733587655516
 30
0.0
  0
VERTEX
  5
2B8
330
29B
100
AcDbEntity
  8
Graypants_Dome36
 62
    36
420
  8866048
370
    -3
100
AcDbVertex
100
AcDb2dVertex
 10
-374.7374015592081
 20
-1872.759032581946
 30
0.0
  0
VERTEX
  5
2B9
330
29B
100
AcDbEntity
  8
Graypants_Dome36
 62
    36
420
  8866048
370
    -3
100
AcDbVertex
100
AcDb2dVertex
 10
-374.7795501011898
 20
-1872.783575911337
 30
0.0
  0
VERTEX
  5
2BA
330
29B
100
AcDbEntity
  8
Graypants_Dome36
 62
    36
420
  8866048
370
    -3
100
AcDbVertex
100
AcDb2dVertex
 10
-374.8220354922984
 20
-1872.807207936266
 30
0.0
  0
VERTEX
  5
2BB
330
29B
100
AcDbEntity
  8
Graypants_Dome36
 62
    36
420
  8866048
370
    -3
100
AcDbVertex
100
AcDb2dVertex
 10
-374.8648356160408
 20
-1872.829919890046
 30
0.0
  0
VERTEX
  5
2BC
330
29B
100
AcDbEntity
  8
Graypants_Dome36
 62
    36
420
  8866048
370
    -3
100
AcDbVertex
100
AcDb2dVertex
 10
-374.907928146787
 20
-1872.851703956134
 30
0.0
  0
VERTEX
  5
2BD
330
29B
100
AcDbEntity
  8
Graypants_Dome36
 62
    36
420
  8866048
370
    -3
100
AcDbVertex
100
AcDb2dVertex
 10
-374.9512905877933
 20
-1872.872553275131
 30
0.0
  0
VERTEX
  5
2BE
330
29B
100
AcDbEntity
  8
Graypants_Dome36
 62
    36
420
  8866048
370
    -3
100
AcDbVertex
100
AcDb2dVertex
 10
-374.9949003093461
 20
-1872.89246194936
 30
0.0
  0
VERTEX
  5
2BF
330
29B
100
AcDbEntity
  8
Graypants_Dome36
 62
    36
420
  8866048
370
    -3
100
AcDbVertex
100
AcDb2dVertex
 10
-375.0387345868957
 20
-1872.911425045056
 30
0.0
  0
VERTEX
  5
2C0
330
29B
100
AcDbEntity
  8
Graypants_Dome36
 62
    36
420
  8866048
370
    -3
100
AcDbVertex
100
AcDb2dVertex
 10
-375.0827706390484
 20
-1872.929438592147
 30
0.0
  0
VERTEX
  5
2C1
330
29B
100
AcDbEntity
  8
Graypants_Dome36
 62
    36
420
  8866048
370
    -3
100
AcDbVertex
100
AcDb2dVertex
 10
-375.1269856652885
 20
-1872.9464995817
 30
0.0
  0
VERTEX
  5
2C2
330
29B
100
AcDbEntity
  8
Graypants_Dome36
 62
    36
420
  8866048
370
    -3
100
AcDbVertex
100
AcDb2dVertex
 10
-375.1713568833047
 20
-1872.962605961032
 30
0.0
  0
VERTEX
  5
2C3
330
29B
100
AcDbEntity
  8
Graypants_Dome36
 62
    36
420
  8866048
370
    -3
100
AcDbVertex
100
AcDb2dVertex
 10
-375.2158615657987
 20
-1872.977756626559
 30
0.0
  0
VERTEX
  5
2C4
330
29B
100
AcDbEntity
  8
Graypants_Dome36
 62
    36
420
  8866048
370
    -3
100
AcDbVertex
100
AcDb2dVertex
 10
-375.2604770766602
 20
-1872.991951414441
 30
0.0
  0
VERTEX
  5
2C5
330
29B
100
AcDbEntity
  8
Graypants_Dome36
 62
    36
420
  8866048
370
    -3
100
AcDbVertex
100
AcDb2dVertex
 10
-375.3051809063937
 20
-1873.005191089075
 30
0.0
  0
VERTEX
  5
2C6
330
29B
100
AcDbEntity
  8
Graypants_Dome36
 62
    36
420
  8866048
370
    -3
100
AcDbVertex
100
AcDb2dVertex
 10
-375.3499507066929
 20
-1873.017477329532
 30
0.0
  0
VERTEX
  5
2C7
330
29B
100
AcDbEntity
  8
Graypants_Dome36
 62
    36
420
  8866048
370
    -3
100
AcDbVertex
100
AcDb2dVertex
 10
-375.3947643240596
 20
-1873.02881271401
 30
0.0
  0
VERTEX
  5
2C8
330
29B
100
AcDbEntity
  8
Graypants_Dome36
 62
    36
420
  8866048
370
    -3
100
AcDbVertex
100
AcDb2dVertex
 10
-375.4395998323743
 20
-1873.039200702397
 30
0.0
  0
VERTEX
  5
2C9
330
29B
100
AcDbEntity
  8
Graypants_Dome36
 62
    36
420
  8866048
370
    -3
100
AcDbVertex
100
AcDb2dVertex
 10
-375.4844355643304
 20
-1873.048645617044
 30
0.0
  0
VERTEX
  5
2CA
330
29B
100
AcDbEntity
  8
Graypants_Dome36
 62
    36
420
  8866048
370
    -3
100
AcDbVertex
100
AcDb2dVertex
 10
-375.529250141653
 20
-1873.057152621842
 30
0.0
  0
VERTEX
  5
2CB
330
29B
100
AcDbEntity
  8
Graypants_Dome36
 62
    36
420
  8866048
370
    -3
100
AcDbVertex
100
AcDb2dVertex
 10
-375.5740225040262
 20
-1873.06472769973
 30
0.0
  0
VERTEX
  5
2CC
330
29B
100
AcDbEntity
  8
Graypants_Dome36
 62
    36
420
  8866048
370
    -3
100
AcDbVertex
100
AcDb2dVertex
 10
-375.6187319366682
 20
-1873.071377628719
 30
0.0
  0
VERTEX
  5
2CD
330
29B
100
AcDbEntity
  8
Graypants_Dome36
 62
    36
420
  8866048
370
    -3
100
AcDbVertex
100
AcDb2dVertex
 10
-375.6633580964937
 20
-1873.077109956575
 30
0.0
  0
VERTEX
  5
2CE
330
29B
100
AcDbEntity
  8
Graypants_Dome36
 62
    36
420
  8866048
370
    -3
100
AcDbVertex
100
AcDb2dVertex
 10
-375.7078810368138
 20
-1873.081932974256
 30
0.0
  0
VERTEX
  5
2CF
330
29B
100
AcDbEntity
  8
Graypants_Dome36
 62
    36
420
  8866048
370
    -3
100
AcDbVertex
100
AcDb2dVertex
 10
-375.7522812305343
 20
-1873.085855688243
 30
0.0
  0
VERTEX
  5
2D0
330
29B
100
AcDbEntity
  8
Graypants_Dome36
 62
    36
420
  8866048
370
    -3
100
AcDbVertex
100
AcDb2dVertex
 10
-375.7965395918157
 20
-1873.088887791868
 30
0.0
  0
VERTEX
  5
2D1
330
29B
100
AcDbEntity
  8
Graypants_Dome36
 62
    36
420
  8866048
370
    -3
100
AcDbVertex
100
AcDb2dVertex
 10
-375.8406374961693
 20
-1873.09103963577
 30
0.0
  0
VERTEX
  5
2D2
330
29B
100
AcDbEntity
  8
Graypants_Dome36
 62
    36
420
  8866048
370
    -3
100
AcDbVertex
100
AcDb2dVertex
 10
-375.8845567989731
 20
-1873.092322197602
 30
0.0
  0
VERTEX
  5
2D3
330
29B
100
AcDbEntity
  8
Graypants_Dome36
 62
    36
420
  8866048
370
    -3
100
AcDbVertex
100
AcDb2dVertex
 10
-375.9282798523925
 20
-1873.092747051106
 30
0.0
  0
SEQEND
  5
2D4
330
29B
100
AcDbEntity
  8
Graypants_Dome36
 62
    36
420
  8866048
370
    -3
  0
POLYLINE
  5
2D5
330
1F
100
AcDbEntity
  8
Graypants_Dome36
 62
    36
420
  8866048
370
    -3
100
AcDb2dPolyline
 66
     1
 10
0.0
 20
0.0
 30
0.0
  0
VERTEX
  5
2D6
330
2D5
100
AcDbEntity
  8
Graypants_Dome36
 62
    36
420
  8866048
370
    -3
100
AcDbVertex
100
AcDb2dVertex
 10
-393.7245725648033
 20
-1873.092747051106
 30
0.0
  0
VERTEX
  5
2D7
330
2D5
100
AcDbEntity
  8
Graypants_Dome36
 62
    36
420
  8866048
370
    -3
100
AcDbVertex
100
AcDb2dVertex
 10
-393.763017067231
 20
-1873.092254330493
 30
0.0
  0
VERTEX
  5
2D8
330
2D5
100
AcDbEntity
  8
Graypants_Dome36
 62
    36
420
  8866048
370
    -3
100
AcDbVertex
100
AcDb2dVertex
 10
-393.8017878129046
 20
-1873.090758664517
 30
0.0
  0
VERTEX
  5
2D9
330
2D5
100
AcDbEntity
  8
Graypants_Dome36
 62
    36
420
  8866048
370
    -3
100
AcDbVertex
100
AcDb2dVertex
 10
-393.840859406891
 20
-1873.08823441695
 30
0.0
  0
VERTEX
  5
2DA
330
2D5
100
AcDbEntity
  8
Graypants_Dome36
 62
    36
420
  8866048
370
    -3
100
AcDbVertex
100
AcDb2dVertex
 10
-393.8802050169753
 20
-1873.084656868331
 30
0.0
  0
VERTEX
  5
2DB
330
2D5
100
AcDbEntity
  8
Graypants_Dome36
 62
    36
420
  8866048
370
    -3
100
AcDbVertex
100
AcDb2dVertex
 10
-393.9197963904823
 20
-1873.080002330163
 30
0.0
  0
VERTEX
  5
2DC
330
2D5
100
AcDbEntity
  8
Graypants_Dome36
 62
    36
420
  8866048
370
    -3
100
AcDbVertex
100
AcDb2dVertex
 10
-393.9596038783899
 20
-1873.074248260442
 30
0.0
  0
VERTEX
  5
2DD
330
2D5
100
AcDbEntity
  8
Graypants_Dome36
 62
    36
420
  8866048
370
    -3
100
AcDbVertex
100
AcDb2dVertex
 10
-393.9995964670255
 20
-1873.067373379854
 30
0.0
  0
VERTEX
  5
2DE
330
2D5
100
AcDbEntity
  8
Graypants_Dome36
 62
    36
420
  8866048
370
    -3
100
AcDbVertex
100
AcDb2dVertex
 10
-394.0397418175879
 20
-1873.059357787939
 30
0.0
  0
VERTEX
  5
2DF
330
2D5
100
AcDbEntity
  8
Graypants_Dome36
 62
    36
420
  8866048
370
    -3
100
AcDbVertex
100
AcDb2dVertex
 10
-394.0800063136846
 20
-1873.050183078458
 30
0.0
  0
VERTEX
  5
2E0
330
2D5
100
AcDbEntity
  8
Graypants_Dome36
 62
    36
420
  8866048
370
    -3
100
AcDbVertex
100
AcDb2dVertex
 10
-394.1203551170213
 20
-1873.039832453191
 30
0.0
  0
VERTEX
  5
2E1
330
2D5
100
AcDbEntity
  8
Graypants_Dome36
 62
    36
420
  8866048
370
    -3
100
AcDbVertex
100
AcDb2dVertex
 10
-394.1607522313101
 20
-1873.028290833309
 30
0.0
  0
VERTEX
  5
2E2
330
2D5
100
AcDbEntity
  8
Graypants_Dome36
 62
    36
420
  8866048
370
    -3
100
AcDbVertex
100
AcDb2dVertex
 10
-394.2011605744061
 20
-1873.015544967479
 30
0.0
  0
VERTEX
  5
2E3
330
2D5
100
AcDbEntity
  8
Graypants_Dome36
 62
    36
420
  8866048
370
    -3
100
AcDbVertex
100
AcDb2dVertex
 10
-394.2415420585967
 20
-1873.001583535817
 30
0.0
  0
VERTEX
  5
2E4
330
2D5
100
AcDbEntity
  8
Graypants_Dome36
 62
    36
420
  8866048
370
    -3
100
AcDbVertex
100
AcDb2dVertex
 10
-394.2818576789026
 20
-1872.986397248789
 30
0.0
  0
VERTEX
  5
2E5
330
2D5
100
AcDbEntity
  8
Graypants_Dome36
 62
    36
420
  8866048
370
    -3
100
AcDbVertex
100
AcDb2dVertex
 10
-394.3220676091626
 20
-1872.96997894018
 30
0.0
  0
VERTEX
  5
2E6
330
2D5
100
AcDbEntity
  8
Graypants_Dome36
 62
    36
420
  8866048
370
    -3
100
AcDbVertex
100
AcDb2dVertex
 10
-394.3621313055954
 20
-1872.95232365323
 30
0.0
  0
VERTEX
  5
2E7
330
2D5
100
AcDbEntity
  8
Graypants_Dome36
 62
    36
420
  8866048
370
    -3
100
AcDbVertex
100
AcDb2dVertex
 10
-394.4020076174508
 20
-1872.933428719069
 30
0.0
  0
VERTEX
  5
2E8
330
2D5
100
AcDbEntity
  8
Graypants_Dome36
 62
    36
420
  8866048
370
    -3
100
AcDbVertex
100
AcDb2dVertex
 10
-394.4416549042757
 20
-1872.913293826619
 30
0.0
  0
VERTEX
  5
2E9
330
2D5
100
AcDbEntity
  8
Graypants_Dome36
 62
    36
420
  8866048
370
    -3
100
AcDbVertex
100
AcDb2dVertex
 10
-394.481031159242
 20
-1872.891921083152
 30
0.0
  0
VERTEX
  5
2EA
330
2D5
100
AcDbEntity
  8
Graypants_Dome36
 62
    36
420
  8866048
370
    -3
100
AcDbVertex
100
AcDb2dVertex
 10
-394.5200941379059
 20
-1872.869315064765
 30
0.0
  0
VERTEX
  5
2EB
330
2D5
100
AcDbEntity
  8
Graypants_Dome36
 62
    36
420
  8866048
370
    -3
100
AcDbVertex
100
AcDb2dVertex
 10
-394.5588014916892
 20
-1872.845482856088
 30
0.0
  0
VERTEX
  5
2EC
330
2D5
100
AcDbEntity
  8
Graypants_Dome36
 62
    36
420
  8866048
370
    -3
100
AcDbVertex
100
AcDb2dVertex
 10
-394.5971109053068
 20
-1872.8204340786
 30
0.0
  0
VERTEX
  5
2ED
330
2D5
100
AcDbEntity
  8
Graypants_Dome36
 62
    36
420
  8866048
370
    -3
100
AcDbVertex
100
AcDb2dVertex
 10
-394.6349802373019
 20
-1872.794180907053
 30
0.0
  0
VERTEX
  5
2EE
330
2D5
100
AcDbEntity
  8
Graypants_Dome36
 62
    36
420
  8866048
370
    -3
100
AcDbVertex
100
AcDb2dVertex
 10
-394.6723676627893
 20
-1872.766738073542
 30
0.0
  0
VERTEX
  5
2EF
330
2D5
100
AcDbEntity
  8
Graypants_Dome36
 62
    36
420
  8866048
370
    -3
100
AcDbVertex
100
AcDb2dVertex
 10
-394.7092318174704
 20
-1872.738122858923
 30
0.0
  0
VERTEX
  5
2F0
330
2D5
100
AcDbEntity
  8
Graypants_Dome36
 62
    36
420
  8866048
370
    -3
100
AcDbVertex
100
AcDb2dVertex
 10
-394.7455319419338
 20
-1872.708355071323
 30
0.0
  0
VERTEX
  5
2F1
330
2D5
100
AcDbEntity
  8
Graypants_Dome36
 62
    36
420
  8866048
370
    -3
100
AcDbVertex
100
AcDb2dVertex
 10
-394.7812280252425
 20
-1872.677457011675
 30
0.0
  0
VERTEX
  5
2F2
330
2D5
100
AcDbEntity
  8
Graypants_Dome36
 62
    36
420
  8866048
370
    -3
100
AcDbVertex
100
AcDb2dVertex
 10
-394.816280946782
 20
-1872.645453426255
 30
0.0
  0
VERTEX
  5
2F3
330
2D5
100
AcDbEntity
  8
Graypants_Dome36
 62
    36
420
  8866048
370
    -3
100
AcDbVertex
100
AcDb2dVertex
 10
-394.8506526153507
 20
-1872.612371446388
 30
0.0
  0
VERTEX
  5
2F4
330
2D5
100
AcDbEntity
  8
Graypants_Dome36
 62
    36
420
  8866048
370
    -3
100
AcDbVertex
100
AcDb2dVertex
 10
-394.8843061044752
 20
-1872.578240515557
 30
0.0
  0
VERTEX
  5
2F5
330
2D5
100
AcDbEntity
  8
Graypants_Dome36
 62
    36
420
  8866048
370
    -3
100
AcDbVertex
100
AcDb2dVertex
 10
-394.9172057829605
 20
-1872.543092304314
 30
0.0
  0
VERTEX
  5
2F6
330
2D5
100
AcDbEntity
  8
Graypants_Dome36
 62
    36
420
  8866048
370
    -3
100
AcDbVertex
100
AcDb2dVertex
 10
-394.9493174397172
 20
-1872.506960613478
 30
0.0
  0
VERTEX
  5
2F7
330
2D5
100
AcDbEntity
  8
Graypants_Dome36
 62
    36
420
  8866048
370
    -3
100
AcDbVertex
100
AcDb2dVertex
 10
-394.9806084019526
 20
-1872.469881266239
 30
0.0
  0
VERTEX
  5
2F8
330
2D5
100
AcDbEntity
  8
Graypants_Dome36
 62
    36
420
  8866048
370
    -3
100
AcDbVertex
100
AcDb2dVertex
 10
-395.0110476458739
 20
-1872.431891989889
 30
0.0
  0
VERTEX
  5
2F9
330
2D5
100
AcDbEntity
  8
Graypants_Dome36
 62
    36
420
  8866048
370
    -3
100
AcDbVertex
100
AcDb2dVertex
 10
-395.0406058991132
 20
-1872.393032287991
 30
0.0
  0
VERTEX
  5
2FA
330
2D5
100
AcDbEntity
  8
Graypants_Dome36
 62
    36
420
  8866048
370
    -3
100
AcDbVertex
100
AcDb2dVertex
 10
-395.0692557341682
 20
-1872.353343303903
 30
0.0
  0
VERTEX
  5
2FB
330
2D5
100
AcDbEntity
  8
Graypants_Dome36
 62
    36
420
  8866048
370
    -3
100
AcDbVertex
100
AcDb2dVertex
 10
-395.0969716522336
 20
-1872.312867676646
 30
0.0
  0
VERTEX
  5
2FC
330
2D5
100
AcDbEntity
  8
Graypants_Dome36
 62
    36
420
  8866048
370
    -3
100
AcDbVertex
100
AcDb2dVertex
 10
-395.1237301568938
 20
-1872.27164939015
 30
0.0
  0
VERTEX
  5
2FD
330
2D5
100
AcDbEntity
  8
Graypants_Dome36
 62
    36
420
  8866048
370
    -3
100
AcDbVertex
100
AcDb2dVertex
 10
-395.1495098172437
 20
-1872.22973361701
 30
0.0
  0
VERTEX
  5
2FE
330
2D5
100
AcDbEntity
  8
Graypants_Dome36
 62
    36
420
  8866048
370
    -3
100
AcDbVertex
100
AcDb2dVertex
 10
-395.1742913201102
 20
-1872.187166557875
 30
0.0
  0
VERTEX
  5
2FF
330
2D5
100
AcDbEntity
  8
Graypants_Dome36
 62
    36
420
  8866048
370
    -3
100
AcDbVertex
100
AcDb2dVertex
 10
-395.1980575111504
 20
-1872.14399527766
 30
0.0
  0
VERTEX
  5
300
330
2D5
100
AcDbEntity
  8
Graypants_Dome36
 62
    36
420
  8866048
370
    -3
100
AcDbVertex
100
AcDb2dVertex
 10
-395.2207934247056
 20
-1872.100267539743
 30
0.0
  0
VERTEX
  5
301
330
2D5
100
AcDbEntity
  8
Graypants_Dome36
 62
    36
420
  8866048
370
    -3
100
AcDbVertex
100
AcDb2dVertex
 10
-395.242486302406
 20
-1872.056031639341
 30
0.0
  0
VERTEX
  5
302
330
2D5
100
AcDbEntity
  8
Graypants_Dome36
 62
    36
420
  8866048
370
    -3
100
AcDbVertex
100
AcDb2dVertex
 10
-395.263125600608
 20
-1872.011336237217
 30
0.0
  0
VERTEX
  5
303
330
2D5
100
AcDbEntity
  8
Graypants_Dome36
 62
    36
420
  8866048
370
    -3
100
AcDbVertex
100
AcDb2dVertex
 10
-395.2827029868653
 20
-1871.966230194853
 30
0.0
  0
VERTEX
  5
304
330
2D5
100
AcDbEntity
  8
Graypants_Dome36
 62
    36
420
  8866048
370
    -3
100
AcDbVertex
100
AcDb2dVertex
 10
-395.3012123257101
 20
-1871.920762412175
 30
0.0
  0
VERTEX
  5
305
330
2D5
100
AcDbEntity
  8
Graypants_Dome36
 62
    36
420
  8866048
370
    -3
100
AcDbVertex
100
AcDb2dVertex
 10
-395.3186496541248
 20
-1871.874981668864
 30
0.0
  0
VERTEX
  5
306
330
2D5
100
AcDbEntity
  8
Graypants_Dome36
 62
    36
420
  8866048
370
    -3
100
AcDbVertex
100
AcDb2dVertex
 10
-395.335013147158
 20
-1871.828936470229
 30
0.0
  0
VERTEX
  5
307
330
2D5
100
AcDbEntity
  8
Graypants_Dome36
 62
    36
420
  8866048
370
    -3
100
AcDbVertex
100
AcDb2dVertex
 10
-395.3503030742117
 20
-1871.782674898521
 30
0.0
  0
VERTEX
  5
308
330
2D5
100
AcDbEntity
  8
Graypants_Dome36
 62
    36
420
  8866048
370
    -3
100
AcDbVertex
100
AcDb2dVertex
 10
-395.3645217465947
 20
-1871.736244470535
 30
0.0
  0
VERTEX
  5
309
330
2D5
100
AcDbEntity
  8
Graypants_Dome36
 62
    36
420
  8866048
370
    -3
100
AcDbVertex
100
AcDb2dVertex
 10
-395.3776734569881
 20
-1871.689692002197
 30
0.0
  0
VERTEX
  5
30A
330
2D5
100
AcDbEntity
  8
Graypants_Dome36
 62
    36
420
  8866048
370
    -3
100
AcDbVertex
100
AcDb2dVertex
 10
-395.3897644115158
 20
-1871.643063480795
 30
0.0
  0
VERTEX
  5
30B
330
2D5
100
AcDbEntity
  8
Graypants_Dome36
 62
    36
420
  8866048
370
    -3
100
AcDbVertex
100
AcDb2dVertex
 10
-395.4008026551492
 20
-1871.596403945402
 30
0.0
  0
VERTEX
  5
30C
330
2D5
100
AcDbEntity
  8
Graypants_Dome36
 62
    36
420
  8866048
370
    -3
100
AcDbVertex
100
AcDb2dVertex
 10
-395.4107979911965
 20
-1871.549757375917
 30
0.0
  0
VERTEX
  5
30D
330
2D5
100
AcDbEntity
  8
Graypants_Dome36
 62
    36
420
  8866048
370
    -3
100
AcDbVertex
100
AcDb2dVertex
 10
-395.4197618956484
 20
-1871.503166591116
 30
0.0
  0
VERTEX
  5
30E
330
2D5
100
AcDbEntity
  8
Graypants_Dome36
 62
    36
420
  8866048
370
    -3
100
AcDbVertex
100
AcDb2dVertex
 10
-395.427707427154
 20
-1871.456673155929
 30
0.0
  0
VERTEX
  5
30F
330
2D5
100
AcDbEntity
  8
Graypants_Dome36
 62
    36
420
  8866048
370
    -3
100
AcDbVertex
100
AcDb2dVertex
 10
-395.4346491333994
 20
-1871.410317298154
 30
0.0
  0
VERTEX
  5
310
330
2D5
100
AcDbEntity
  8
Graypants_Dome36
 62
    36
420
  8866048
370
    -3
100
AcDbVertex
100
AcDb2dVertex
 10
-395.4406029546533
 20
-1871.364137834659
 30
0.0
  0
VERTEX
  5
311
330
2D5
100
AcDbEntity
  8
Graypants_Dome36
 62
    36
420
  8866048
370
    -3
100
AcDbVertex
100
AcDb2dVertex
 10
-395.4455861252211
 20
-1871.318172107072
 30
0.0
  0
VERTEX
  5
312
330
2D5
100
AcDbEntity
  8
Graypants_Dome36
 62
    36
420
  8866048
370
    -3
100
AcDbVertex
100
AcDb2dVertex
 10
-395.4496170735293
 20
-1871.2724559269
 30
0.0
  0
VERTEX
  5
313
330
2D5
100
AcDbEntity
  8
Graypants_Dome36
 62
    36
420
  8866048
370
    -3
100
AcDbVertex
100
AcDb2dVertex
 10
-395.4527153215258
 20
-1871.227023529883
 30
0.0
  0
VERTEX
  5
314
330
2D5
100
AcDbEntity
  8
Graypants_Dome36
 62
    36
420
  8866048
370
    -3
100
AcDbVertex
100
AcDb2dVertex
 10
-395.4549013840499
 20
-1871.181907539402
 30
0.0
  0
VERTEX
  5
315
330
2D5
100
AcDbEntity
  8
Graypants_Dome36
 62
    36
420
  8866048
370
    -3
100
AcDbVertex
100
AcDb2dVertex
 10
-395.4561966687843
 20
-1871.137138938628
 30
0.0
  0
VERTEX
  5
316
330
2D5
100
AcDbEntity
  8
Graypants_Dome36
 62
    36
420
  8866048
370
    -3
100
AcDbVertex
100
AcDb2dVertex
 10
-395.4566233773533
 20
-1871.092747051105
 30
0.0
  0
SEQEND
  5
317
330
2D5
100
AcDbEntity
  8
Graypants_Dome36
 62
    36
420
  8866048
370
    -3
  0
POLYLINE
  5
318
330
1F
100
AcDbEntity
  8
Graypants_Dome36
 62
    36
420
  8866048
370
    -3
100
AcDb2dPolyline
 66
     1
 10
0.0
 20
0.0
 30
0.0
  0
VERTEX
  5
319
330
318
100
AcDbEntity
  8
Graypants_Dome36
 62
    36
420
  8866048
370
    -3
100
AcDbVertex
100
AcDb2dVertex
 10
-395.2245725518617
 20
-1873.092747051106
 30
0.0
  0
VERTEX
  5
31A
330
318
100
AcDbEntity
  8
Graypants_Dome36
 62
    36
420
  8866048
370
    -3
100
AcDbVertex
100
AcDb2dVertex
 10
-395.2630170542893
 20
-1873.092254330493
 30
0.0
  0
VERTEX
  5
31B
330
318
100
AcDbEntity
  8
Graypants_Dome36
 62
    36
420
  8866048
370
    -3
100
AcDbVertex
100
AcDb2dVertex
 10
-395.3017877999629
 20
-1873.090758664517
 30
0.0
  0
VERTEX
  5
31C
330
318
100
AcDbEntity
  8
Graypants_Dome36
 62
    36
420
  8866048
370
    -3
100
AcDbVertex
100
AcDb2dVertex
 10
-395.3408593939492
 20
-1873.08823441695
 30
0.0
  0
VERTEX
  5
31D
330
318
100
AcDbEntity
  8
Graypants_Dome36
 62
    36
420
  8866048
370
    -3
100
AcDbVertex
100
AcDb2dVertex
 10
-395.3802050040335
 20
-1873.084656868331
 30
0.0
  0
VERTEX
  5
31E
330
318
100
AcDbEntity
  8
Graypants_Dome36
 62
    36
420
  8866048
370
    -3
100
AcDbVertex
100
AcDb2dVertex
 10
-395.4197963775406
 20
-1873.080002330163
 30
0.0
  0
VERTEX
  5
31F
330
318
100
AcDbEntity
  8
Graypants_Dome36
 62
    36
420
  8866048
370
    -3
100
AcDbVertex
100
AcDb2dVertex
 10
-395.4596038654483
 20
-1873.074248260442
 30
0.0
  0
VERTEX
  5
320
330
318
100
AcDbEntity
  8
Graypants_Dome36
 62
    36
420
  8866048
370
    -3
100
AcDbVertex
100
AcDb2dVertex
 10
-395.4995964540839
 20
-1873.067373379854
 30
0.0
  0
VERTEX
  5
321
330
318
100
AcDbEntity
  8
Graypants_Dome36
 62
    36
420
  8866048
370
    -3
100
AcDbVertex
100
AcDb2dVertex
 10
-395.5397418046463
 20
-1873.059357787939
 30
0.0
  0
VERTEX
  5
322
330
318
100
AcDbEntity
  8
Graypants_Dome36
 62
    36
420
  8866048
370
    -3
100
AcDbVertex
100
AcDb2dVertex
 10
-395.5800063007432
 20
-1873.050183078458
 30
0.0
  0
VERTEX
  5
323
330
318
100
AcDbEntity
  8
Graypants_Dome36
 62
    36
420
  8866048
370
    -3
100
AcDbVertex
100
AcDb2dVertex
 10
-395.6203551040797
 20
-1873.039832453191
 30
0.0
  0
VERTEX
  5
324
330
318
100
AcDbEntity
  8
Graypants_Dome36
 62
    36
420
  8866048
370
    -3
100
AcDbVertex
100
AcDb2dVertex
 10
-395.6607522183686
 20
-1873.028290833309
 30
0.0
  0
VERTEX
  5
325
330
318
100
AcDbEntity
  8
Graypants_Dome36
 62
    36
420
  8866048
370
    -3
100
AcDbVertex
100
AcDb2dVertex
 10
-395.7011605614644
 20
-1873.015544967479
 30
0.0
  0
VERTEX
  5
326
330
318
100
AcDbEntity
  8
Graypants_Dome36
 62
    36
420
  8866048
370
    -3
100
AcDbVertex
100
AcDb2dVertex
 10
-395.741542045655
 20
-1873.001583535817
 30
0.0
  0
VERTEX
  5
327
330
318
100
AcDbEntity
  8
Graypants_Dome36
 62
    36
420
  8866048
370
    -3
100
AcDbVertex
100
AcDb2dVertex
 10
-395.781857665961
 20
-1872.986397248789
 30
0.0
  0
VERTEX
  5
328
330
318
100
AcDbEntity
  8
Graypants_Dome36
 62
    36
420
  8866048
370
    -3
100
AcDbVertex
100
AcDb2dVertex
 10
-395.8220675962209
 20
-1872.96997894018
 30
0.0
  0
VERTEX
  5
329
330
318
100
AcDbEntity
  8
Graypants_Dome36
 62
    36
420
  8866048
370
    -3
100
AcDbVertex
100
AcDb2dVertex
 10
-395.8621312926538
 20
-1872.95232365323
 30
0.0
  0
VERTEX
  5
32A
330
318
100
AcDbEntity
  8
Graypants_Dome36
 62
    36
420
  8866048
370
    -3
100
AcDbVertex
100
AcDb2dVertex
 10
-395.9020076045092
 20
-1872.933428719069
 30
0.0
  0
VERTEX
  5
32B
330
318
100
AcDbEntity
  8
Graypants_Dome36
 62
    36
420
  8866048
370
    -3
100
AcDbVertex
100
AcDb2dVertex
 10
-395.941654891334
 20
-1872.913293826619
 30
0.0
  0
VERTEX
  5
32C
330
318
100
AcDbEntity
  8
Graypants_Dome36
 62
    36
420
  8866048
370
    -3
100
AcDbVertex
100
AcDb2dVertex
 10
-395.9810311463003
 20
-1872.891921083152
 30
0.0
  0
VERTEX
  5
32D
330
318
100
AcDbEntity
  8
Graypants_Dome36
 62
    36
420
  8866048
370
    -3
100
AcDbVertex
100
AcDb2dVertex
 10
-396.0200941249641
 20
-1872.869315064765
 30
0.0
  0
VERTEX
  5
32E
330
318
100
AcDbEntity
  8
Graypants_Dome36
 62
    36
420
  8866048
370
    -3
100
AcDbVertex
100
AcDb2dVertex
 10
-396.0588014787475
 20
-1872.845482856088
 30
0.0
  0
VERTEX
  5
32F
330
318
100
AcDbEntity
  8
Graypants_Dome36
 62
    36
420
  8866048
370
    -3
100
AcDbVertex
100
AcDb2dVertex
 10
-396.097110892365
 20
-1872.8204340786
 30
0.0
  0
VERTEX
  5
330
330
318
100
AcDbEntity
  8
Graypants_Dome36
 62
    36
420
  8866048
370
    -3
100
AcDbVertex
100
AcDb2dVertex
 10
-396.1349802243602
 20
-1872.794180907053
 30
0.0
  0
VERTEX
  5
331
330
318
100
AcDbEntity
  8
Graypants_Dome36
 62
    36
420
  8866048
370
    -3
100
AcDbVertex
100
AcDb2dVertex
 10
-396.1723676498477
 20
-1872.766738073542
 30
0.0
  0
VERTEX
  5
332
330
318
100
AcDbEntity
  8
Graypants_Dome36
 62
    36
420
  8866048
370
    -3
100
AcDbVertex
100
AcDb2dVertex
 10
-396.2092318045288
 20
-1872.738122858923
 30
0.0
  0
VERTEX
  5
333
330
318
100
AcDbEntity
  8
Graypants_Dome36
 62
    36
420
  8866048
370
    -3
100
AcDbVertex
100
AcDb2dVertex
 10
-396.2455319289922
 20
-1872.708355071323
 30
0.0
  0
VERTEX
  5
334
330
318
100
AcDbEntity
  8
Graypants_Dome36
 62
    36
420
  8866048
370
    -3
100
AcDbVertex
100
AcDb2dVertex
 10
-396.2812280123008
 20
-1872.677457011675
 30
0.0
  0
VERTEX
  5
335
330
318
100
AcDbEntity
  8
Graypants_Dome36
 62
    36
420
  8866048
370
    -3
100
AcDbVertex
100
AcDb2dVertex
 10
-396.3162809338403
 20
-1872.645453426255
 30
0.0
  0
VERTEX
  5
336
330
318
100
AcDbEntity
  8
Graypants_Dome36
 62
    36
420
  8866048
370
    -3
100
AcDbVertex
100
AcDb2dVertex
 10
-396.3506526024091
 20
-1872.612371446388
 30
0.0
  0
VERTEX
  5
337
330
318
100
AcDbEntity
  8
Graypants_Dome36
 62
    36
420
  8866048
370
    -3
100
AcDbVertex
100
AcDb2dVertex
 10
-396.3843060915336
 20
-1872.578240515557
 30
0.0
  0
VERTEX
  5
338
330
318
100
AcDbEntity
  8
Graypants_Dome36
 62
    36
420
  8866048
370
    -3
100
AcDbVertex
100
AcDb2dVertex
 10
-396.4172057700189
 20
-1872.543092304314
 30
0.0
  0
VERTEX
  5
339
330
318
100
AcDbEntity
  8
Graypants_Dome36
 62
    36
420
  8866048
370
    -3
100
AcDbVertex
100
AcDb2dVertex
 10
-396.4493174267755
 20
-1872.506960613478
 30
0.0
  0
VERTEX
  5
33A
330
318
100
AcDbEntity
  8
Graypants_Dome36
 62
    36
420
  8866048
370
    -3
100
AcDbVertex
100
AcDb2dVertex
 10
-396.4806083890109
 20
-1872.469881266239
 30
0.0
  0
VERTEX
  5
33B
330
318
100
AcDbEntity
  8
Graypants_Dome36
 62
    36
420
  8866048
370
    -3
100
AcDbVertex
100
AcDb2dVertex
 10
-396.5110476329322
 20
-1872.431891989889
 30
0.0
  0
VERTEX
  5
33C
330
318
100
AcDbEntity
  8
Graypants_Dome36
 62
    36
420
  8866048
370
    -3
100
AcDbVertex
100
AcDb2dVertex
 10
-396.5406058861715
 20
-1872.393032287991
 30
0.0
  0
VERTEX
  5
33D
330
318
100
AcDbEntity
  8
Graypants_Dome36
 62
    36
420
  8866048
370
    -3
100
AcDbVertex
100
AcDb2dVertex
 10
-396.5692557212266
 20
-1872.353343303903
 30
0.0
  0
VERTEX
  5
33E
330
318
100
AcDbEntity
  8
Graypants_Dome36
 62
    36
420
  8866048
370
    -3
100
AcDbVertex
100
AcDb2dVertex
 10
-396.596971639292
 20
-1872.312867676646
 30
0.0
  0
VERTEX
  5
33F
330
318
100
AcDbEntity
  8
Graypants_Dome36
 62
    36
420
  8866048
370
    -3
100
AcDbVertex
100
AcDb2dVertex
 10
-396.6237301439521
 20
-1872.27164939015
 30
0.0
  0
VERTEX
  5
340
330
318
100
AcDbEntity
  8
Graypants_Dome36
 62
    36
420
  8866048
370
    -3
100
AcDbVertex
100
AcDb2dVertex
 10
-396.649509804302
 20
-1872.22973361701
 30
0.0
  0
VERTEX
  5
341
330
318
100
AcDbEntity
  8
Graypants_Dome36
 62
    36
420
  8866048
370
    -3
100
AcDbVertex
100
AcDb2dVertex
 10
-396.6742913071686
 20
-1872.187166557875
 30
0.0
  0
VERTEX
  5
342
330
318
100
AcDbEntity
  8
Graypants_Dome36
 62
    36
420
  8866048
370
    -3
100
AcDbVertex
100
AcDb2dVertex
 10
-396.6980574982087
 20
-1872.14399527766
 30
0.0
  0
VERTEX
  5
343
330
318
100
AcDbEntity
  8
Graypants_Dome36
 62
    36
420
  8866048
370
    -3
100
AcDbVertex
100
AcDb2dVertex
 10
-396.720793411764
 20
-1872.100267539743
 30
0.0
  0
VERTEX
  5
344
330
318
100
AcDbEntity
  8
Graypants_Dome36
 62
    36
420
  8866048
370
    -3
100
AcDbVertex
100
AcDb2dVertex
 10
-396.7424862894642
 20
-1872.056031639341
 30
0.0
  0
VERTEX
  5
345
330
318
100
AcDbEntity
  8
Graypants_Dome36
 62
    36
420
  8866048
370
    -3
100
AcDbVertex
100
AcDb2dVertex
 10
-396.7631255876664
 20
-1872.011336237217
 30
0.0
  0
VERTEX
  5
346
330
318
100
AcDbEntity
  8
Graypants_Dome36
 62
    36
420
  8866048
370
    -3
100
AcDbVertex
100
AcDb2dVertex
 10
-396.7827029739238
 20
-1871.966230194853
 30
0.0
  0
VERTEX
  5
347
330
318
100
AcDbEntity
  8
Graypants_Dome36
 62
    36
420
  8866048
370
    -3
100
AcDbVertex
100
AcDb2dVertex
 10
-396.8012123127685
 20
-1871.920762412175
 30
0.0
  0
VERTEX
  5
348
330
318
100
AcDbEntity
  8
Graypants_Dome36
 62
    36
420
  8866048
370
    -3
100
AcDbVertex
100
AcDb2dVertex
 10
-396.8186496411831
 20
-1871.874981668864
 30
0.0
  0
VERTEX
  5
349
330
318
100
AcDbEntity
  8
Graypants_Dome36
 62
    36
420
  8866048
370
    -3
100
AcDbVertex
100
AcDb2dVertex
 10
-396.8350131342164
 20
-1871.828936470229
 30
0.0
  0
VERTEX
  5
34A
330
318
100
AcDbEntity
  8
Graypants_Dome36
 62
    36
420
  8866048
370
    -3
100
AcDbVertex
100
AcDb2dVertex
 10
-396.85030306127
 20
-1871.782674898521
 30
0.0
  0
VERTEX
  5
34B
330
318
100
AcDbEntity
  8
Graypants_Dome36
 62
    36
420
  8866048
370
    -3
100
AcDbVertex
100
AcDb2dVertex
 10
-396.864521733653
 20
-1871.736244470535
 30
0.0
  0
VERTEX
  5
34C
330
318
100
AcDbEntity
  8
Graypants_Dome36
 62
    36
420
  8866048
370
    -3
100
AcDbVertex
100
AcDb2dVertex
 10
-396.8776734440463
 20
-1871.689692002197
 30
0.0
  0
VERTEX
  5
34D
330
318
100
AcDbEntity
  8
Graypants_Dome36
 62
    36
420
  8866048
370
    -3
100
AcDbVertex
100
AcDb2dVertex
 10
-396.8897643985741
 20
-1871.643063480795
 30
0.0
  0
VERTEX
  5
34E
330
318
100
AcDbEntity
  8
Graypants_Dome36
 62
    36
420
  8866048
370
    -3
100
AcDbVertex
100
AcDb2dVertex
 10
-396.9008026422076
 20
-1871.596403945402
 30
0.0
  0
VERTEX
  5
34F
330
318
100
AcDbEntity
  8
Graypants_Dome36
 62
    36
420
  8866048
370
    -3
100
AcDbVertex
100
AcDb2dVertex
 10
-396.9107979782548
 20
-1871.549757375917
 30
0.0
  0
VERTEX
  5
350
330
318
100
AcDbEntity
  8
Graypants_Dome36
 62
    36
420
  8866048
370
    -3
100
AcDbVertex
100
AcDb2dVertex
 10
-396.9197618827068
 20
-1871.503166591116
 30
0.0
  0
VERTEX
  5
351
330
318
100
AcDbEntity
  8
Graypants_Dome36
 62
    36
420
  8866048
370
    -3
100
AcDbVertex
100
AcDb2dVertex
 10
-396.9277074142123
 20
-1871.456673155929
 30
0.0
  0
VERTEX
  5
352
330
318
100
AcDbEntity
  8
Graypants_Dome36
 62
    36
420
  8866048
370
    -3
100
AcDbVertex
100
AcDb2dVertex
 10
-396.9346491204577
 20
-1871.410317298154
 30
0.0
  0
VERTEX
  5
353
330
318
100
AcDbEntity
  8
Graypants_Dome36
 62
    36
420
  8866048
370
    -3
100
AcDbVertex
100
AcDb2dVertex
 10
-396.9406029417116
 20
-1871.364137834659
 30
0.0
  0
VERTEX
  5
354
330
318
100
AcDbEntity
  8
Graypants_Dome36
 62
    36
420
  8866048
370
    -3
100
AcDbVertex
100
AcDb2dVertex
 10
-396.9455861122794
 20
-1871.318172107072
 30
0.0
  0
VERTEX
  5
355
330
318
100
AcDbEntity
  8
Graypants_Dome36
 62
    36
420
  8866048
370
    -3
100
AcDbVertex
100
AcDb2dVertex
 10
-396.9496170605876
 20
-1871.2724559269
 30
0.0
  0
VERTEX
  5
356
330
318
100
AcDbEntity
  8
Graypants_Dome36
 62
    36
420
  8866048
370
    -3
100
AcDbVertex
100
AcDb2dVertex
 10
-396.9527153085841
 20
-1871.227023529883
 30
0.0
  0
VERTEX
  5
357
330
318
100
AcDbEntity
  8
Graypants_Dome36
 62
    36
420
  8866048
370
    -3
100
AcDbVertex
100
AcDb2dVertex
 10
-396.9549013711083
 20
-1871.181907539402
 30
0.0
  0
VERTEX
  5
358
330
318
100
AcDbEntity
  8
Graypants_Dome36
 62
    36
420
  8866048
370
    -3
100
AcDbVertex
100
AcDb2dVertex
 10
-396.9561966558427
 20
-1871.137138938628
 30
0.0
  0
VERTEX
  5
359
330
318
100
AcDbEntity
  8
Graypants_Dome36
 62
    36
420
  8866048
370
    -3
100
AcDbVertex
100
AcDb2dVertex
 10
-396.9566233644116
 20
-1871.092747051105
 30
0.0
  0
SEQEND
  5
35A
330
318
100
AcDbEntity
  8
Graypants_Dome36
 62
    36
420
  8866048
370
    -3
  0
LINE
  5
35B
330
1F
100
AcDbEntity
  8
Graypants_Dome36
 62
    36
420
  8866048
370
    -3
100
AcDbLine
 10
-395.4566233773533
 20
-1871.092747051105
 30
0.0
 11
-395.4566233773533
 21
-1869.067394826769
 31
0.0
  0
LINE
  5
35C
330
1F
100
AcDbEntity
  8
Graypants_Dome36
 62
    36
420
  8866048
370
    -3
100
AcDbLine
 10
-396.9566233644116
 20
-1871.092747051105
 30
0.0
 11
-396.9566233644116
 21
-1869.067394826769
 31
0.0
  0
LINE
  5
35D
330
1F
100
AcDbEntity
  8
Graypants_Dome36
 62
    36
420
  8866048
370
    -3
100
AcDbLine
 10
-393.7245725648033
 20
-1873.092747051106
 30
0.0
 11
-395.2245725518617
 21
-1873.092747051106
 31
0.0
  0
LINE
  5
35E
330
1F
100
AcDbEntity
  8
Graypants_Dome36
 62
    36
420
  8866048
370
    -3
100
AcDbLine
 10
-1.500000000151203
 20
-1871.36092886929
 30
0.0
 11
-1.500000000152113
 21
-1873.092747051107
 31
0.0
  0
LINE
  5
35F
330
1F
100
AcDbEntity
  8
Graypants_Dome36
 62
    36
420
  8866048
370
    -3
100
AcDbLine
 10
1.499999999848797
 20
-1871.36092886929
 30
0.0
 11
1.499999999847887
 21
-1873.092747051107
 31
0.0
  0
LINE
  5
360
330
1F
100
AcDbEntity
  8
Graypants_Dome36
 62
    36
420
  8866048
370
    -3
100
AcDbLine
 10
1.499999999847887
 20
-1873.092747051107
 30
0.0
 11
-1.500000000152113
 21
-1873.092747051107
 31
0.0
  0
ARC
  5
361
330
1F
100
AcDbEntity
  8
Graypants_Dome36
 62
    36
420
  8866048
370
    -3
100
AcDbCircle
 10
-288.9863484802677
 20
-1905.528898582982
 30
0.0
 40
91.22762484745188
100
AcDbArc
 50
156.4420668361587
 51
158.0044029195466
  0
LINE
  5
362
330
1F
100
AcDbEntity
  8
Graypants_Dome36
 62
    36
420
  8866048
370
    -3
100
AcDbLine
 10
-1.500000000151039
 20
-1869.066649740313
 30
0.0
 11
-1.500000000151203
 21
-1871.36092886929
 31
0.0
  0
LINE
  5
363
330
1F
100
AcDbEntity
  8
Graypants_Dome36
 62
    36
420
  8866048
370
    -3
100
AcDbLine
 10
1.499999999849037
 20
-1869.067394826768
 30
0.0
 11
1.499999999848797
 21
-1871.36092886929
 31
0.0
  0
LINE
  5
364
330
1F
100
AcDbEntity
  8
Graypants_Dome36
 62
    36
420
  8866048
370
    -3
100
AcDbLine
 10
-0.0000000000020464
 20
-811.7020812696596
 30
0.0
 11
55.56249999999886
 21
-811.7020812696596
 31
0.0
  0
LINE
  5
365
330
1F
100
AcDbEntity
  8
Graypants_Dome36
 62
    36
420
  8866048
370
    -3
100
AcDbLine
 10
-55.56250000000159
 20
-811.7020812696596
 30
0.0
 11
-0.0000000000020464
 21
-811.7020812696596
 31
0.0
  0
LINE
  5
366
330
1F
100
AcDbEntity
  8
Graypants_Dome36
 62
    36
420
  8866048
370
    -3
100
AcDbLine
 10
375.9282764610066
 20
-1873.092747051104
 30
0.0
 11
393.7245690141435
 21
-1873.092747051104
 31
0.0
  0
LINE
  5
367
330
1F
100
AcDbEntity
  8
Graypants_Dome36
 62
    36
420
  8866048
370
    -3
100
AcDbLine
 10
-375.9282798523925
 20
-1873.092747051106
 30
0.0
 11
-393.7245725648033
 21
-1873.092747051106
 31
0.0
  0
LINE
  5
368
330
1F
100
AcDbEntity
  8
Graypants_Dome36
  6
Continuous
 62
    36
420
  8866048
370
    -3
100
AcDbLine
 10
-39.57352256290392
 20
0.8507389886251063
 30
0.0
 11
-56.18777952438427
 21
10.44298482807308
 31
0.0
  0
ARC
  5
369
330
1F
100
AcDbEntity
  8
Graypants_Dome36
  6
Continuous
 62
    36
420
  8866048
370
    -3
100
AcDbCircle
 10
-33.22352250811467
 20
11.8492615850544
 30
0.0
 40
12.69999999999958
100
AcDbArc
 50
239.9999997145794
 51
329.9999997145826
  0
ARC
  5
36A
330
1F
100
AcDbEntity
  8
Graypants_Dome36
  6
Continuous
 62
    36
420
  8866048
370
    -3
100
AcDbCircle
 10
26.87352245332483
 20
22.84778418148541
 30
0.0
 40
12.69999999999911
210
0.0
220
0.0
230
-1.0
100
AcDbArc
 50
120.0000002854161
 51
210.0000002854232
  0
LINE
  5
36B
330
1F
100
AcDbEntity
  8
Graypants_Dome36
  6
Continuous
 62
    36
420
  8866048
370
    -3
100
AcDbLine
 10
-72.56909035219383
 20
19.90073915299258
 30
0.0
 11
-53.51909018782612
 21
52.89630694228203
 31
0.0
  0
LINE
  5
36C
330
1F
100
AcDbEntity
  8
Graypants_Dome36
  6
Continuous
 62
    36
420
  8866048
370
    -3
100
AcDbLine
 10
20.5235228575882
 20
33.8463063623994
 30
0.0
 11
37.13955893592924
 21
43.43957915473033
 31
0.0
  0
LINE
  5
36D
330
1F
100
AcDbEntity
  8
Graypants_Dome36
  6
Continuous
 62
    36
420
  8866048
370
    -3
100
AcDbLine
 10
72.56909067230549
 20
19.90073821894721
 30
0.0
 11
56.18782441776762
 21
10.44300984602723
 31
0.0
  0
ARC
  5
36E
330
1F
100
AcDbEntity
  8
Graypants_Dome36
  6
Continuous
 62
    36
420
  8866048
370
    -3
100
AcDbCircle
 10
26.87352280279973
 20
22.8477837027042
 30
0.0
 40
12.70000000000082
100
AcDbArc
 50
119.9999997145848
 51
209.9999997145778
  0
ARC
  5
36F
330
1F
100
AcDbEntity
  8
Graypants_Dome36
  6
Continuous
 62
    36
420
  8866048
370
    -3
100
AcDbCircle
 10
-33.2235227480094
 20
11.84926104300915
 30
0.0
 40
12.69999999999963
210
0.0
220
0.0
230
-1.0
100
AcDbArc
 50
240.0000002854171
 51
330.0000002854192
  0
LINE
  5
370
330
1F
100
AcDbEntity
  8
Graypants_Dome36
  6
Continuous
 62
    36
420
  8866048
370
    -3
100
AcDbLine
 10
53.51909083667283
 20
52.89630619803183
 30
0.0
 11
72.56909067230549
 21
19.90073821894721
 31
0.0
  0
LINE
  5
371
330
1F
100
AcDbEntity
  8
Graypants_Dome36
  6
Continuous
 62
    36
420
  8866048
370
    -3
100
AcDbLine
 10
19.04999970531139
 20
-34.69704535102124
 30
0.0
 11
19.04999960974396
 21
-53.88153686439005
 31
0.0
  0
LINE
  5
372
330
1F
100
AcDbEntity
  8
Graypants_Dome36
  6
Continuous
 62
    36
420
  8866048
370
    -3
100
AcDbLine
 10
-19.05000048448369
 20
-72.7970451612262
 30
0.0
 11
-19.05000039025504
 21
-53.88134127165363
 31
0.0
  0
ARC
  5
373
330
1F
100
AcDbEntity
  8
Graypants_Dome36
  6
Continuous
 62
    36
420
  8866048
370
    -3
100
AcDbCircle
 10
6.34999970531129
 20
-34.69704528775638
 30
0.0
 40
12.7000000000001
100
AcDbArc
 50
359.999999714582
 51
89.99999971458043
  0
ARC
  5
374
330
1F
100
AcDbEntity
  8
Graypants_Dome36
  6
Continuous
 62
    36
420
  8866048
370
    -3
100
AcDbCircle
 10
6.350000294689405
 20
-34.69704522449026
 30
0.0
 40
12.69999999999911
210
0.0
220
0.0
230
-1.0
100
AcDbArc
 50
0.0000002854150713
 51
90.00000028542146
  0
LINE
  5
375
330
1F
100
AcDbEntity
  8
Graypants_Dome36
  6
Continuous
 62
    36
420
  8866048
370
    -3
100
AcDbLine
 10
19.04999951551622
 20
-72.79704535102114
 30
0.0
 11
-19.05000048448369
 21
-72.7970451612262
 31
0.0
  0
LINE
  5
376
330
1F
100
AcDbEntity
  8
Graypants_Dome36
  6
Continuous
 62
    36
420
  8866048
370
    -3
100
AcDbLine
 10
19.04999960974396
 20
-53.88153686439005
 30
0.0
 11
19.04999951551622
 21
-72.79704535102114
 31
0.0
  0
LINE
  5
377
330
1F
100
AcDbEntity
  8
Graypants_Dome36
  6
Continuous
 62
    36
420
  8866048
370
    -3
100
AcDbLine
 10
-19.05000039025504
 20
-53.88134127165363
 30
0.0
 11
-19.05000029468852
 21
-34.69704516122606
 31
0.0
  0
LINE
  5
378
330
1F
100
AcDbEntity
  8
Graypants_Dome36
  6
Continuous
 62
    36
420
  8866048
370
    -3
100
AcDbLine
 10
-56.18777952438427
 20
10.44298482807308
 30
0.0
 11
-72.56909035219383
 21
19.90073915299258
 31
0.0
  0
LINE
  5
379
330
1F
100
AcDbEntity
  8
Graypants_Dome36
  6
Continuous
 62
    36
420
  8866048
370
    -3
100
AcDbLine
 10
-37.13451130425597
 20
43.43666580446774
 30
0.0
 11
-20.52352239853667
 21
33.84630677791478
 31
0.0
  0
LINE
  5
37A
330
1F
100
AcDbEntity
  8
Graypants_Dome36
  6
Continuous
 62
    36
420
  8866048
370
    -3
100
AcDbLine
 10
37.13955893592924
 20
43.43957915473033
 30
0.0
 11
53.51909083667283
 21
52.89630619803183
 31
0.0
  0
LINE
  5
37B
330
1F
100
AcDbEntity
  8
Graypants_Dome36
  6
Continuous
 62
    36
420
  8866048
370
    -3
100
AcDbLine
 10
56.18782441776762
 20
10.44300984602723
 30
0.0
 11
39.57352269322087
 21
0.8507383833145455
 31
0.0
  0
CIRCLE
  5
37C
330
1F
100
AcDbEntity
  8
Graypants_Dome36
 62
    36
420
  8866048
370
    -3
100
AcDbCircle
 10
0.0000000000001902
 20
0.0000000000001687
 30
0.0
 40
463.8734783155771
210
0.0
220
0.0
230
-1.0
  0
LINE
  5
37D
330
1F
100
AcDbEntity
  8
Graypants_Dome36
  6
Continuous
 62
    36
420
  8866048
370
    -3
100
AcDbLine
 10
-2.749630244277569
 20
39.23159054117827
 30
0.0
 11
-35.35036952430369
 21
-17.23454488421662
 31
0.0
  0
LINE
  5
37E
330
1F
100
AcDbEntity
  8
Graypants_Dome36
  6
Continuous
 62
    36
420
  8866048
370
    -3
100
AcDbLine
 10
-32.60073891739262
 20
-21.99704491314428
 30
0.0
 11
32.60073845454485
 21
-21.99704559910292
 31
0.0
  0
LINE
  5
37F
330
1F
100
AcDbEntity
  8
Graypants_Dome36
  6
Continuous
 62
    36
420
  8866048
370
    -3
100
AcDbLine
 10
35.35036916166496
 20
-17.23454562803049
 30
0.0
 11
2.749631069753605
 21
39.23159048332281
 31
0.0
  0
ARC
  5
380
330
1F
100
AcDbEntity
  8
Graypants_Dome36
  6
Continuous
 62
    36
420
  8866048
370
    -3
100
AcDbCircle
 10
-0.012338443684991
 20
-0.0000055224040199
 30
0.0
 40
7.937495657507733
100
AcDbArc
 50
89.91093651397452
 51
90.00127772839579
  0
ARC
  5
381
330
1F
100
AcDbEntity
  8
Graypants_Dome36
  6
Continuous
 62
    36
420
  8866048
370
    -3
100
AcDbCircle
 10
0.0123384519229302
 20
-0.000005783075545
 30
0.0
 40
7.937495918187039
100
AcDbArc
 50
89.99872240242044
 51
90.08906346579306
  0
LINE
  5
382
330
1F
100
AcDbEntity
  8
Graypants_Dome36
  6
Continuous
 62
    36
420
  8866048
370
    -3
100
AcDbLine
 10
-2.381250000001045
 20
7.571892411248037
 30
0.0
 11
-2.381250000000819
 21
11.11250000000122
 31
0.0
  0
LINE
  5
383
330
1F
100
AcDbEntity
  8
Graypants_Dome36
  6
Continuous
 62
    36
420
  8866048
370
    -3
100
AcDbLine
 10
2.381249999999227
 20
11.11250205826236
 30
0.0
 11
2.381249999998999
 21
7.571892411248093
 31
0.0
  0
LINE
  5
384
330
1F
100
AcDbEntity
  8
Graypants_Dome36
  6
Continuous
 62
    36
420
  8866048
370
    -3
100
AcDbLine
 10
2.375847880095749
 20
11.27445248485106
 30
0.0
 11
2.381249999999201
 21
11.1125000000008
 31
0.0
  0
LINE
  5
385
330
1F
100
AcDbEntity
  8
Graypants_Dome36
  6
Continuous
 62
    36
420
  8866048
370
    -3
100
AcDbLine
 10
2.363938912476937
 20
11.39910840981005
 30
0.0
 11
2.373502281433552
 21
11.30594108790886
 31
0.0
  0
ARC
  5
386
330
1F
100
AcDbEntity
  8
Graypants_Dome36
  6
Continuous
 62
    36
420
  8866048
370
    -3
100
AcDbCircle
 10
-0.0000480993531848
 20
11.11245581517404
 30
0.0
 40
2.381298099764154
210
0.0
220
0.0
230
-1.0
100
AcDbArc
 50
0.0010631193576569
 51
171.7416516692929
  0
LINE
  5
387
330
1F
100
AcDbEntity
  8
Graypants_Dome36
  6
Continuous
 62
    36
420
  8866048
370
    -3
100
AcDbLine
 10
2.362986154856366
 20
11.41679236066257
 30
0.0
 11
2.357778158750406
 21
11.45471389761365
 31
0.0
  0
LINE
  5
388
330
1F
100
AcDbEntity
  8
Graypants_Dome36
  6
Continuous
 62
    36
420
  8866048
370
    -3
100
AcDbLine
 10
2.376796190186889
 20
11.27494825864307
 30
0.0
 11
2.374455387828587
 21
11.3060586589875
 31
0.0
  0
ARC
  5
389
330
1F
100
AcDbEntity
  8
Graypants_Dome36
  6
Continuous
 62
    36
420
  8866048
370
    -3
100
AcDbCircle
 10
0.0000000000012505
 20
-11.11250000013573
 30
0.0
 40
2.381250000000023
210
0.0
220
0.0
230
-1.0
100
AcDbArc
 50
179.9999999994205
 51
0.0000000005890608
  0
CIRCLE
  5
38A
330
1F
100
AcDbEntity
  8
Graypants_Dome36
  6
Continuous
 62
    36
420
  8866048
370
    -3
100
AcDbCircle
 10
-9.524999999999181
 20
0.0000000000008636
 30
0.0
 40
2.921000000000049
210
0.0
220
0.0
230
-1.0
  0
LINE
  5
38B
330
1F
100
AcDbEntity
  8
Graypants_Dome36
  6
Continuous
 62
    36
420
  8866048
370
    -3
100
AcDbLine
 10
4.762499999998908
 20
2.921000000001025
 30
0.0
 11
9.524999999998952
 21
2.921000000001025
 31
0.0
  0
LINE
  5
38C
330
1F
100
AcDbEntity
  8
Graypants_Dome36
  6
Continuous
 62
    36
420
  8866048
370
    -3
100
AcDbLine
 10
9.525000872235296
 20
-2.920999999999186
 30
0.0
 11
4.762499999999136
 21
-2.920999999998959
 31
0.0
  0
LINE
  5
38D
330
1F
100
AcDbEntity
  8
Graypants_Dome36
  6
Continuous
 62
    36
420
  8866048
370
    -3
100
AcDbLine
 10
-0.7937500000018645
 20
-1.591095235036893
 30
0.0
 11
0.7937495763601419
 21
-1.591095235036893
 31
0.0
  0
ARC
  5
38E
330
1F
100
AcDbEntity
  8
Graypants_Dome36
  6
Continuous
 62
    36
420
  8866048
370
    -3
100
AcDbCircle
 10
0.7937499999987155
 20
-0.0035952350369437
 30
0.0
 40
1.587500000000005
100
AcDbArc
 50
269.9999847101088
 51
90.00000000001762
  0
LINE
  5
38F
330
1F
100
AcDbEntity
  8
Graypants_Dome36
  6
Continuous
 62
    36
420
  8866048
370
    -3
100
AcDbLine
 10
0.7937499999982265
 20
1.583904764963062
 30
0.0
 11
-0.7937495964840764
 21
1.583904764963062
 31
0.0
  0
ARC
  5
390
330
1F
100
AcDbEntity
  8
Graypants_Dome36
  6
Continuous
 62
    36
420
  8866048
370
    -3
100
AcDbCircle
 10
-0.7937500000019793
 20
-0.0035952350368899
 30
0.0
 40
1.587500000000003
100
AcDbArc
 50
89.9999854363006
 51
270.0000000000041
  0
LINE
  5
391
330
1F
100
AcDbEntity
  8
Graypants_Dome36
  6
Continuous
 62
    36
420
  8866048
370
    -3
100
AcDbLine
 10
-0.7937497309901573
 20
0.7901547649630162
 30
0.0
 11
0.7937499999982265
 21
0.7901547649630162
 31
0.0
  0
LINE
  5
392
330
1F
100
AcDbEntity
  8
Graypants_Dome36
  6
Continuous
 62
    36
420
  8866048
370
    -3
100
AcDbLine
 10
0.7937497175728367
 20
-0.7973452350368474
 30
0.0
 11
-0.7937500000018645
 21
-0.7973452350368474
 31
0.0
  0
ARC
  5
393
330
1F
100
AcDbEntity
  8
Graypants_Dome36
  6
Continuous
 62
    36
420
  8866048
370
    -3
100
AcDbCircle
 10
-0.793749999998734
 20
-0.0000000000114626
 30
0.0
 40
0.7937500000001498
210
0.0
220
0.0
230
-1.0
100
AcDbArc
 50
1.016929198904125
 51
359.6128883621776
  0
CIRCLE
  5
394
330
1F
100
AcDbEntity
  8
Graypants_Dome36
  6
Continuous
 62
    36
420
  8866048
370
    -3
100
AcDbCircle
 10
0.7937500000011823
 20
0.0000000000008627
 30
0.0
 40
0.7940000000000965
210
0.0
220
0.0
230
-1.0
  0
ARC
  5
395
330
1F
100
AcDbEntity
  8
Graypants_Dome36
  6
Continuous
 62
    36
420
  8866048
370
    -3
100
AcDbCircle
 10
0.7937500001802641
 20
-0.0000000892150834
 30
0.0
 40
0.7938681498358435
100
AcDbArc
 50
269.9999999868618
 51
270.1894900885819
  0
LINE
  5
396
330
1F
100
AcDbEntity
  8
Graypants_Dome36
  6
Continuous
 62
    36
420
  8866048
370
    -3
100
AcDbLine
 10
2.698749999998881
 20
0.793868399149868
 30
0.0
 11
3.174130253253907
 21
0.7938684138304767
 31
0.0
  0
LINE
  5
397
330
1F
100
AcDbEntity
  8
Graypants_Dome36
  6
Continuous
 62
    36
420
  8866048
370
    -3
100
AcDbLine
 10
-2.69875000000161
 20
-0.7938687408061936
 30
0.0
 11
-3.174130533246398
 21
-0.7938687261253575
 31
0.0
  0
ARC
  5
398
330
1F
100
AcDbEntity
  8
Graypants_Dome36
  6
Continuous
 62
    36
420
  8866048
370
    -3
100
AcDbCircle
 10
3.174927951154776
 20
-0.0000035200981655
 30
0.0
 40
0.7938722452078233
210
0.0
220
0.0
230
-1.0
100
AcDbArc
 50
269.9456030599309
 51
89.99874894359786
  0
LINE
  5
399
330
1F
100
AcDbEntity
  8
Graypants_Dome36
  6
Continuous
 62
    36
420
  8866048
370
    -3
100
AcDbLine
 10
3.174129677090832
 20
-0.7938684138285238
 30
0.0
 11
2.698749999998881
 21
-0.7938683991481424
 31
0.0
  0
LINE
  5
39A
330
1F
100
AcDbEntity
  8
Graypants_Dome36
  6
Continuous
 62
    36
420
  8866048
370
    -3
100
AcDbLine
 10
-3.174129956915976
 20
0.7938687261273104
 30
0.0
 11
-2.69875000000161
 21
0.7938687408079191
 31
0.0
  0
ARC
  5
39B
330
1F
100
AcDbEntity
  8
Graypants_Dome36
  6
Continuous
 62
    36
420
  8866048
370
    -3
100
AcDbCircle
 10
-3.174719217509958
 20
-0.0002246202259846
 30
0.0
 40
0.7940930676561369
210
0.0
220
0.0
230
-1.0
100
AcDbArc
 50
90.01636531953542
 51
270.1200792501164
  0
ARC
  5
39C
330
1F
100
AcDbEntity
  8
Graypants_Dome36
  6
Continuous
 62
    36
420
  8866048
370
    -3
100
AcDbCircle
 10
32.6007384879957
 20
-18.82204559908208
 30
0.0
 40
3.174999999948295
100
AcDbArc
 50
27.00000000006202
 51
29.99999939732258
  0
LINE
  5
39D
330
1F
100
AcDbEntity
  8
Graypants_Dome36
  6
Continuous
 62
    36
420
  8866048
370
    -3
100
AcDbLine
 10
2.362253925535108
 20
11.41310181774387
 30
0.0
 11
2.363938912476938
 21
11.39910840981039
 31
0.0
  0
ARC
  5
39E
330
1F
100
AcDbEntity
  8
Graypants_Dome36
  6
Continuous
 62
    36
420
  8866048
370
    -3
100
AcDbCircle
 10
-0.7937499999970494
 20
-0.003595235030623
 30
0.0
 40
0.7937500000062746
210
0.0
220
0.0
230
-1.0
100
AcDbArc
 50
243.0000000001379
 51
270.0000203864132
  0
LINE
  5
39F
330
1F
100
AcDbEntity
  8
Graypants_Dome36
  6
Continuous
 62
    36
420
  8866048
370
    -3
100
AcDbLine
 10
-0.887549984603538
 20
-0.7882061982553988
 30
0.0
 11
-0.7937500000016369
 21
-0.7938689171650605
 31
0.0
  0
LINE
  5
3A0
330
1F
100
AcDbEntity
  8
Graypants_Dome36
  6
Continuous
 62
    36
420
  8866048
370
    -3
100
AcDbLine
 10
-0.887549984603538
 20
-0.7882061982553988
 30
0.0
 11
-0.7937500000016369
 21
-0.7938689171650605
 31
0.0
  0
LINE
  5
3A1
330
1F
100
AcDbEntity
  8
Graypants_Dome36
  6
Continuous
 62
    36
420
  8866048
370
    -3
100
AcDbLine
 10
-0.887549984603538
 20
-0.7882061982553988
 30
0.0
 11
-0.7937500000016369
 21
-0.7938689171650605
 31
0.0
  0
LINE
  5
3A2
330
1F
100
AcDbEntity
  8
Graypants_Dome36
  6
Continuous
 62
    36
420
  8866048
370
    -3
100
AcDbLine
 10
-0.887549984603538
 20
-0.7882061982553988
 30
0.0
 11
-0.7937500000016369
 21
-0.7938689171650605
 31
0.0
  0
LINE
  5
3A3
330
1F
100
AcDbEntity
  8
Graypants_Dome36
  6
Continuous
 62
    36
420
  8866048
370
    -3
100
AcDbLine
 10
-0.887549984603538
 20
-0.7882061982553988
 30
0.0
 11
-0.7937500000016369
 21
-0.7938689171650605
 31
0.0
  0
ARC
  5
3A4
330
1F
100
AcDbEntity
  8
Graypants_Dome36
  6
Continuous
 62
    36
420
  8866048
370
    -3
100
AcDbCircle
 10
0.7937499999976664
 20
0.0000000000001006
 30
0.0
 40
0.7938682390528895
100
AcDbArc
 50
27.00000000005074
 51
74.1323349029367
  0
LINE
  5
3A5
330
1F
100
AcDbEntity
  8
Graypants_Dome36
  6
Continuous
 62
    36
420
  8866048
370
    -3
100
AcDbLine
 10
-0.887549984603538
 20
-0.7882061982553988
 30
0.0
 11
-0.7937500000016369
 21
-0.7938689171650605
 31
0.0
  0
LINE
  5
3A6
330
1F
100
AcDbEntity
  8
Graypants_Dome36
  6
Continuous
 62
    36
420
  8866048
370
    -3
100
AcDbLine
 10
-3.171994261444071
 20
0.7938687225014963
 30
0.0
 11
-3.174945285397599
 21
0.7938687249202975
 31
0.0
  0
LINE
  5
3A7
330
1F
100
AcDbEntity
  8
Graypants_Dome36
  6
Continuous
 62
    36
420
  8866048
370
    -3
100
AcDbLine
 10
-2.697047913887674
 20
-0.7938686830337265
 30
0.0
 11
-3.167944629227578
 21
-0.7938687211268886
 31
0.0
  0
LINE
  5
3A8
330
1F
100
AcDbEntity
  8
Graypants_Dome36
  6
Continuous
 62
    36
420
  8866048
370
    -3
100
AcDbLine
 10
0.7937500000032287
 20
-0.7938685396518862
 30
0.0
 11
-0.7937500000011826
 21
-0.7938686003023364
 31
0.0
  0
LINE
  5
3A9
330
1F
100
AcDbEntity
  8
Graypants_Dome36
  6
Continuous
 62
    36
420
  8866048
370
    -3
100
AcDbLine
 10
-0.887549984603538
 20
-0.7882061982553988
 30
0.0
 11
-0.7937500000016369
 21
-0.7938689171650605
 31
0.0
  0
LINE
  5
3AA
330
1F
100
AcDbEntity
  8
Graypants_Dome36
  6
Continuous
 62
    36
420
  8866048
370
    -3
100
AcDbLine
 10
-0.887549984603538
 20
-0.7882061982553988
 30
0.0
 11
-0.7937500000016369
 21
-0.7938689171650605
 31
0.0
  0
LINE
  5
3AB
330
1F
100
AcDbEntity
  8
Graypants_Dome36
  6
Continuous
 62
    36
420
  8866048
370
    -3
100
AcDbLine
 10
-0.887549984603538
 20
-0.7882061982553988
 30
0.0
 11
-0.7937500000016369
 21
-0.7938689171650605
 31
0.0
  0
LINE
  5
3AC
330
1F
100
AcDbEntity
  8
Graypants_Dome36
  6
Continuous
 62
    36
420
  8866048
370
    -3
100
AcDbLine
 10
-53.51909018782612
 20
52.89630694228203
 30
0.0
 11
-37.13451130425597
 21
43.43666580446774
 31
0.0
  0
CIRCLE
  5
3AE
330
1F
100
AcDbEntity
  8
Graypants_Dome36
  6
Hidden
 62
    36
420
  8866048
370
    -3
100
AcDbCircle
 10
-0.0000000000010224
 20
0.0000000000007461
 30
0.0
 40
57.14999999999998
  0
CIRCLE
  5
3AF
330
1F
100
AcDbEntity
  8
Graypants_Dome36
 62
    36
420
  8866048
370
    -3
100
AcDbCircle
 10
0.00000000000127
 20
0.0000000000016019
 30
0.0
 40
78.29730829097308
210
0.0
220
0.0
230
-1.0
  0
LINE
  5
3B0
330
1F
100
AcDbEntity
  8
Graypants_Dome36
  6
Continuous
 62
    36
420
  8866048
370
    -3
100
AcDbLine
 10
48.72958128646565
 20
-29.8660883748667
 30
0.0
 11
10.07531746788322
 21
-7.549038211675499
 31
0.0
  0
LINE
  5
3B1
330
1F
100
AcDbEntity
  8
Graypants_Dome36
  6
Continuous
 62
    36
420
  8866048
370
    -3
100
AcDbLine
 10
50.22630085824289
 20
-27.26611820734961
 30
0.0
 11
11.57531749521581
 21
-4.950962016102541
 31
0.0
  0
LINE
  5
3B2
330
1F
100
AcDbEntity
  8
Graypants_Dome36
  6
Continuous
 62
    36
420
  8866048
370
    -3
100
AcDbLine
 10
67.0478593238488
 20
-40.44215138779196
 30
0.0
 11
48.72958128646565
 21
-29.8660883748667
 31
0.0
  0
LINE
  5
3B3
330
1F
100
AcDbEntity
  8
Graypants_Dome36
  6
Continuous
 62
    36
420
  8866048
370
    -3
100
AcDbLine
 10
68.54501316636811
 20
-37.84243194661081
 30
0.0
 11
50.22630085824289
 21
-27.26611820734961
 31
0.0
  0
LINE
  5
3B4
330
1F
100
AcDbEntity
  8
Graypants_Dome36
 62
    36
420
  8866048
370
    -3
100
AcDbLine
 10
1.499999999956117
 20
78.28293866234249
 30
0.0
 11
1.499999999962483
 21
57.13031156925576
 31
0.0
  0
LINE
  5
3B5
330
1F
100
AcDbEntity
  8
Graypants_Dome36
 62
    36
420
  8866048
370
    -3
100
AcDbLine
 10
-1.500000000043883
 20
78.28293866234067
 30
0.0
 11
-1.500000000037517
 21
57.13031156925394
 31
0.0
  0
LINE
  5
3B6
330
1F
100
AcDbEntity
  8
Graypants_Dome36
  6
Continuous
 62
    36
420
  8866048
370
    -3
100
AcDbLine
 10
-68.5425525628932
 20
-37.84100991521182
 30
0.0
 11
-50.22399562263286
 21
-27.26478625625287
 31
0.0
  0
LINE
  5
3B7
330
1F
100
AcDbEntity
  8
Graypants_Dome36
  6
Continuous
 62
    36
420
  8866048
370
    -3
100
AcDbLine
 10
-67.04125516046201
 20
-40.43833707093091
 30
0.0
 11
-48.72269822020212
 21
-29.86211341197218
 31
0.0
  0
LINE
  5
3B8
330
1F
100
AcDbEntity
  8
Graypants_Dome36
  6
Continuous
 62
    36
420
  8866048
370
    -3
100
AcDbLine
 10
-50.22399562263286
 20
-27.26478625625287
 30
0.0
 11
-11.575317572009
 21
-4.950961836593298
 31
0.0
  0
LINE
  5
3B9
330
1F
100
AcDbEntity
  8
Graypants_Dome36
  6
Continuous
 62
    36
420
  8866048
370
    -3
100
AcDbLine
 10
-48.72269822020212
 20
-29.86211341197218
 30
0.0
 11
-10.07531758495065
 21
-7.549038055418625
 31
0.0
  0
ARC
  5
3BA
330
1F
100
AcDbEntity
  8
Graypants_Dome36
  6
Continuous
 62
    36
420
  8866048
370
    -3
100
AcDbCircle
 10
0.000000396037489
 20
37.64409051225175
 30
0.0
 40
3.174999999998608
100
AcDbArc
 50
29.99999939720405
 51
61.80714754778706
  0
ARC
  5
3BB
330
1F
100
AcDbEntity
  8
Graypants_Dome36
  6
Continuous
 62
    36
420
  8866048
370
    -3
100
AcDbCircle
 10
0.0000003960358335
 20
37.64409051225155
 30
0.0
 40
3.174999999998839
100
AcDbArc
 50
118.1928686712518
 51
149.9999993972236
  0
ARC
  5
3BC
330
1F
100
AcDbEntity
  8
Graypants_Dome36
  6
Continuous
 62
    36
420
  8866048
370
    -3
100
AcDbCircle
 10
-32.60073888398841
 20
-18.82204491314424
 30
0.0
 40
3.175000000000907
100
AcDbArc
 50
149.9999993972266
 51
181.8071434207574
  0
ARC
  5
3BD
330
1F
100
AcDbEntity
  8
Graypants_Dome36
  6
Continuous
 62
    36
420
  8866048
370
    -3
100
AcDbCircle
 10
-32.60073888398979
 20
-18.82204491314556
 30
0.0
 40
3.174999999998723
100
AcDbArc
 50
238.1928645442208
 51
269.9999993972154
  0
ARC
  5
3BE
330
1F
100
AcDbEntity
  8
Graypants_Dome36
  6
Continuous
 62
    36
420
  8866048
370
    -3
100
AcDbCircle
 10
32.60073848794755
 20
-18.82204559910172
 30
0.0
 40
3.175000000001205
100
AcDbArc
 50
269.9999993972177
 51
301.8071388356218
  0
ARC
  5
3BF
330
1F
100
AcDbEntity
  8
Graypants_Dome36
  6
Continuous
 62
    36
420
  8866048
370
    -3
100
AcDbCircle
 10
32.60073848794836
 20
-18.82204559910278
 30
0.0
 40
3.174999999999633
100
AcDbArc
 50
358.192859959089
 51
29.99999939721882
  0
ARC
  5
3C0
330
1F
100
AcDbEntity
  8
Graypants_Dome36
  6
Continuous
 62
    36
420
  8866048
370
    -3
100
AcDbCircle
 10
0.0000000000011143
 20
0.0000000000010606
 30
0.0
 40
7.937500000000022
210
0.0
220
0.0
230
-1.0
100
AcDbArc
 50
287.4576031237216
 51
72.54239687628028
  0
ARC
  5
3C1
330
1F
100
AcDbEntity
  8
Graypants_Dome36
  6
Continuous
 62
    36
420
  8866048
370
    -3
100
AcDbCircle
 10
-0.0000000000010558
 20
0.0000000000010354
 30
0.0
 40
12.50000000000012
100
AcDbArc
 50
279.4186376744776
 51
80.58135528815914
  0
ARC
  5
3C2
330
1F
100
AcDbEntity
  8
Graypants_Dome36
  6
Continuous
 62
    36
420
  8866048
370
    -3
100
AcDbCircle
 10
-0.0000000000007755
 20
0.0000000000009925
 30
0.0
 40
12.50000000000015
100
AcDbArc
 50
99.41864332408684
 51
260.5813623255225
  0
LINE
  5
3C3
330
1F
100
AcDbEntity
  8
Graypants_Dome36
  6
Continuous
 62
    36
420
  8866048
370
    -3
100
AcDbLine
 10
1.499999999962483
 20
57.13031156925576
 30
0.0
 11
1.499999999976126
 21
12.9619216577616
 31
0.0
  0
LINE
  5
3C4
330
1F
100
AcDbEntity
  8
Graypants_Dome36
  6
Continuous
 62
    36
420
  8866048
370
    -3
100
AcDbLine
 10
-1.500000000037517
 20
57.13031156925394
 30
0.0
 11
-1.500000000023874
 21
12.96192165772477
 31
0.0
  0
LINE
  5
3C5
330
1F
100
AcDbEntity
  8
Graypants_Dome36
  6
Continuous
 62
    36
420
  8866048
370
    -3
100
AcDbLine
 10
4.762499999999136
 20
-2.920999999998959
 30
0.0
 11
2.381249999998772
 21
-2.920999999998922
 31
0.0
  0
LINE
  5
3C6
330
1F
100
AcDbEntity
  8
Graypants_Dome36
  6
Continuous
 62
    36
420
  8866048
370
    -3
100
AcDbLine
 10
2.381249999998545
 20
2.921000000000948
 30
0.0
 11
4.762499999999136
 21
2.921000000000912
 31
0.0
  0
ARC
  5
3C7
330
1F
100
AcDbEntity
  8
Graypants_Dome36
  6
Continuous
 62
    36
420
  8866048
370
    -3
100
AcDbCircle
 10
0.0000000000011045
 20
0.0000000000011878
 30
0.0
 40
7.937499999999785
210
0.0
220
0.0
230
-1.0
100
AcDbArc
 50
107.4576031237218
 51
158.4076751284307
  0
ARC
  5
3C8
330
1F
100
AcDbEntity
  8
Graypants_Dome36
  6
Continuous
 62
    36
420
  8866048
370
    -3
100
AcDbCircle
 10
0.0000000000013513
 20
0.0000000000010279
 30
0.0
 40
7.937500000000139
210
0.0
220
0.0
230
-1.0
100
AcDbArc
 50
201.5923248715711
 51
252.5423968762812
  0
LINE
  5
3C9
330
1F
100
AcDbEntity
  8
Graypants_Dome36
  6
Continuous
 62
    36
420
  8866048
370
    -3
100
AcDbLine
 10
-2.69875000000161
 20
0.7938687408079191
 30
0.0
 11
-2.166414357817757
 21
0.7938687521013382
 31
0.0
  0
LINE
  5
3CA
330
1F
100
AcDbEntity
  8
Graypants_Dome36
  6
Continuous
 62
    36
420
  8866048
370
    -3
100
AcDbLine
 10
-2.17056662486948
 20
-0.7938687519205494
 30
0.0
 11
-2.69875000000161
 21
-0.7938687408061936
 31
0.0
  0
LINE
  5
3CB
330
1F
100
AcDbEntity
  8
Graypants_Dome36
  6
Continuous
 62
    36
420
  8866048
370
    -3
100
AcDbLine
 10
2.701371976512974
 20
-0.7938684566800488
 30
0.0
 11
2.170566779219598
 21
-0.7938684830055558
 31
0.0
  0
LINE
  5
3CC
330
1F
100
AcDbEntity
  8
Graypants_Dome36
  6
Continuous
 62
    36
420
  8866048
370
    -3
100
AcDbLine
 10
0.8679603163627689
 20
-0.7938685367781134
 30
0.0
 11
0.7972469846988588
 21
-0.7938685395165989
 31
0.0
  0
LINE
  5
3CD
330
1F
100
AcDbEntity
  8
Graypants_Dome36
  6
Continuous
 62
    36
420
  8866048
370
    -3
100
AcDbLine
 10
2.698749999998881
 20
-0.7938683991481424
 30
0.0
 11
2.170566833143766
 21
-0.7938683890587034
 31
0.0
  0
LINE
  5
3CE
330
1F
100
AcDbEntity
  8
Graypants_Dome36
  6
Continuous
 62
    36
420
  8866048
370
    -3
100
AcDbLine
 10
2.697472272395999
 20
0.7938684568984614
 30
0.0
 11
2.166414514038252
 21
0.7938684831961247
 31
0.0
  0
LINE
  5
3CF
330
1F
100
AcDbEntity
  8
Graypants_Dome36
  6
Continuous
 62
    36
420
  8866048
370
    -3
100
AcDbLine
 10
0.7937500001416993
 20
0.7938685396534849
 30
0.0
 11
-0.7793054028354618
 21
0.7938685997457456
 31
0.0
  0
LINE
  5
3D0
330
1F
100
AcDbEntity
  8
Graypants_Dome36
  6
Continuous
 62
    36
420
  8866048
370
    -3
100
AcDbLine
 10
2.381249999999227
 20
11.11250206415066
 30
0.0
 11
2.381249999999227
 21
0.7938684731489539
 31
0.0
  0
LINE
  5
3D1
330
1F
100
AcDbEntity
  8
Graypants_Dome36
  6
Continuous
 62
    36
420
  8866048
370
    -3
100
AcDbLine
 10
2.381249999999227
 20
-0.7938684731473206
 30
0.0
 11
2.381249999998772
 21
-11.11249999999909
 31
0.0
  0
ARC
  5
3D2
330
1F
100
AcDbEntity
  8
Graypants_Dome36
  6
Continuous
 62
    36
420
  8866048
370
    -3
100
AcDbCircle
 10
0.0000000000007
 20
0.000000000001283
 30
0.0
 40
2.921000000000382
210
0.0
220
0.0
230
-1.0
100
AcDbArc
 50
324.6088627204929
 51
344.2297983193114
  0
ARC
  5
3D3
330
1F
100
AcDbEntity
  8
Graypants_Dome36
  6
Continuous
 62
    36
420
  8866048
370
    -3
100
AcDbCircle
 10
0.0000000000070296
 20
0.0000000000045003
 30
0.0
 40
2.920999999992964
210
0.0
220
0.0
230
-1.0
100
AcDbArc
 50
15.77020168064332
 51
35.39113727951753
  0
LINE
  5
3D4
330
1F
100
AcDbEntity
  8
Graypants_Dome36
  6
Continuous
 62
    36
420
  8866048
370
    -3
100
AcDbLine
 10
-2.381250000001046
 20
11.11250206415088
 30
0.0
 11
-2.381250000001046
 21
0.7938687447598726
 31
0.0
  0
LINE
  5
3D5
330
1F
100
AcDbEntity
  8
Graypants_Dome36
  6
Continuous
 62
    36
420
  8866048
370
    -3
100
AcDbLine
 10
-2.381250000001046
 20
-0.7938687435299109
 30
0.0
 11
-2.381250000001046
 21
-11.11249999999909
 31
0.0
  0
ENDSEC
  0
SECTION
  2
OBJECTS
  0
DICTIONARY
  5
C
330
0
100
AcDbDictionary
281
     1
  3
ACAD_DETAILVIEWSTYLE
350
411
  3
ACAD_GROUP
350
D
  3
ACAD_LAYOUT
350
1A
  3
ACAD_MATERIAL
350
43
  3
ACAD_MLEADERSTYLE
350
6B
  3
ACAD_MLINESTYLE
350
17
  3
ACAD_PLOTSETTINGS
350
19
  3
ACAD_PLOTSTYLENAME
350
E
  3
ACAD_SCALELIST
350
47
  3
ACAD_SECTIONVIEWSTYLE
350
412
  3
ACAD_TABLESTYLE
350
69
  3
ACAD_VISUALSTYLE
350
2A
  3
AcDbVariableDictionary
350
3D6
  3
ACDB_RECOMPOSE_DATA
350
40E
  0
SUN
  5
6D
330
29
100
AcDbSun
 90
        1
290
     0
 63
     7
421
 16777215
 40
1.0
291
     1
 91
  2455826
 92
 54000000
292
     0
 70
     2
 71
   256
280
     1
  0
DICTIONARY
  5
411
102
{ACAD_REACTORS
330
C
102
}
330
C
100
AcDbDictionary
281
     1
  0
DICTIONARY
  5
D
102
{ACAD_REACTORS
330
C
102
}
330
C
100
AcDbDictionary
281
     1
  0
DICTIONARY
  5
1A
102
{ACAD_REACTORS
330
C
102
}
330
C
100
AcDbDictionary
281
     1
  3
Layout1
350
1E
  3
Layout2
350
26
  3
Model
350
22
  0
DICTIONARY
  5
43
102
{ACAD_REACTORS
330
C
102
}
330
C
100
AcDbDictionary
281
     1
  3
ByBlock
350
45
  3
ByLayer
350
44
  3
Global
350
46
  0
DICTIONARY
  5
6B
102
{ACAD_REACTORS
330
C
102
}
330
C
100
AcDbDictionary
281
     1
  3
Standard
350
6C
  0
DICTIONARY
  5
17
102
{ACAD_REACTORS
330
C
102
}
330
C
100
AcDbDictionary
281
     1
  3
Standard
350
18
  0
DICTIONARY
  5
19
102
{ACAD_REACTORS
330
C
102
}
330
C
100
AcDbDictionary
281
     1
  0
ACDBDICTIONARYWDFLT
  5
E
102
{ACAD_REACTORS
330
C
102
}
330
C
100
AcDbDictionary
281
     1
  3
Normal
350
F
100
AcDbDictionaryWithDefault
340
F
  0
DICTIONARY
  5
47
102
{ACAD_REACTORS
330
C
102
}
330
C
100
AcDbDictionary
281
     1
  3
A0
350
48
  3
A1
350
49
  3
A2
350
4A
  3
A3
350
4B
  3
A4
350
4C
  3
A5
350
4D
  3
A6
350
4E
  3
A7
350
4F
  3
A8
350
50
  3
A9
350
51
  3
B0
350
52
  3
B1
350
53
  3
B2
350
54
  3
B3
350
55
  3
B4
350
56
  3
B5
350
57
  3
B6
350
58
  3
B7
350
59
  3
B8
350
5A
  3
B9
350
5B
  3
C0
350
5C
  3
C1
350
5D
  3
C2
350
5E
  3
C3
350
5F
  3
C4
350
60
  3
C5
350
61
  3
C6
350
62
  3
C7
350
63
  3
C8
350
64
  3
C9
350
65
  3
D0
350
66
  3
D1
350
67
  3
D2
350
68
  0
DICTIONARY
  5
412
102
{ACAD_REACTORS
330
C
102
}
330
C
100
AcDbDictionary
281
     1
  0
DICTIONARY
  5
69
102
{ACAD_REACTORS
330
C
102
}
330
C
100
AcDbDictionary
281
     1
  3
Standard
350
6A
  0
DICTIONARY
  5
2A
102
{ACAD_REACTORS
330
C
102
}
330
C
100
AcDbDictionary
281
     1
  3
2dWireframe
350
2F
  3
Basic
350
32
  3
Brighten
350
36
  3
ColorChange
350
3A
  3
Conceptual
350
34
  3
Dim
350
35
  3
EdgeColorOff
350
3D
  3
Facepattern
350
39
  3
Flat
350
2B
  3
FlatWithEdges
350
2C
  3
Gouraud
350
2D
  3
GouraudWithEdges
350
2E
  3
Hidden
350
31
  3
JitterOff
350
3B
  3
Linepattern
350
38
  3
OverhangOff
350
3C
  3
Realistic
350
33
  3
Shaded
350
42
  3
Shaded with edges
350
41
  3
Shades of Gray
350
3E
  3
Sketchy
350
3F
  3
Thicken
350
37
  3
Wireframe
350
30
  3
X-Ray
350
40
  0
DICTIONARY
  5
3D6
102
{ACAD_REACTORS
330
C
102
}
330
C
100
AcDbDictionary
281
     1
  3
CANNOSCALE
350
3D7
  3
CMLEADERSTYLE
350
410
  3
CTABLESTYLE
350
40F
  3
XCLIPFRAME
350
3D8
  0
XRECORD
  5
40E
102
{ACAD_REACTORS
330
C
102
}
330
C
100
AcDbXrecord
280
     1
 90
        1
330
6A
  0
LAYOUT
  5
1E
102
{ACAD_REACTORS
330
1A
102
}
330
1A
100
AcDbPlotSettings
  1

  2
none_device
  4

  6

 40
0.0
 41
0.0
 42
0.0
 43
0.0
 44
0.0
 45
0.0
 46
0.0
 47
0.0
 48
0.0
 49
0.0
140
0.0
141
0.0
142
1.0
143
1.0
 70
   688
 72
     0
 73
     0
 74
     5
  7

 75
    16
 76
     0
 77
     2
 78
   300
147
1.0
148
0.0
149
0.0
100
AcDbLayout
  1
Layout1
 70
     1
 71
     1
 10
0.0
 20
0.0
 11
12.0
 21
9.0
 12
0.0
 22
0.0
 32
0.0
 14
1.000000000000000E+20
 24
1.000000000000000E+20
 34
1.000000000000000E+20
 15
-1.000000000000000E+20
 25
-1.000000000000000E+20
 35
-1.000000000000000E+20
146
0.0
 13
0.0
 23
0.0
 33
0.0
 16
1.0
 26
0.0
 36
0.0
 17
0.0
 27
1.0
 37
0.0
 76
     0
330
1B
  0
LAYOUT
  5
26
102
{ACAD_REACTORS
330
1A
102
}
330
1A
100
AcDbPlotSettings
  1

  2
none_device
  4

  6

 40
0.0
 41
0.0
 42
0.0
 43
0.0
 44
0.0
 45
0.0
 46
0.0
 47
0.0
 48
0.0
 49
0.0
140
0.0
141
0.0
142
1.0
143
1.0
 70
   688
 72
     0
 73
     0
 74
     5
  7

 75
    16
 76
     0
 77
     2
 78
   300
147
1.0
148
0.0
149
0.0
100
AcDbLayout
  1
Layout2
 70
     1
 71
     2
 10
0.0
 20
0.0
 11
0.0
 21
0.0
 12
0.0
 22
0.0
 32
0.0
 14
0.0
 24
0.0
 34
0.0
 15
0.0
 25
0.0
 35
0.0
146
0.0
 13
0.0
 23
0.0
 33
0.0
 16
1.0
 26
0.0
 36
0.0
 17
0.0
 27
1.0
 37
0.0
 76
     0
330
23
  0
LAYOUT
  5
22
102
{ACAD_REACTORS
330
1A
102
}
330
1A
100
AcDbPlotSettings
  1

  2
none_device
  4
Letter_(8.50_x_11.00_Inches)
  6

 40
6.35
 41
6.35
 42
6.35000508
 43
6.35000508
 44
215.9
 45
279.4
 46
0.0
 47
0.0
 48
0.0
 49
0.0
140
0.0
141
0.0
142
1.0
143
1.0
 70
  1712
 72
     0
 73
     0
 74
     0
  7

 75
     0
 76
     0
 77
     2
 78
   300
147
1.0
148
0.0
149
0.0
100
AcDbLayout
  1
Model
 70
     1
 71
     0
 10
0.0
 20
0.0
 11
12.0
 21
9.0
 12
3804.693056528511
 22
1444.863951419895
 32
0.0
 14
1.000000000000000E+20
 24
1.000000000000000E+20
 34
1.000000000000000E+20
 15
-1.000000000000000E+20
 25
-1.000000000000000E+20
 35
-1.000000000000000E+20
146
0.0
 13
0.0
 23
0.0
 33
0.0
 16
1.0
 26
0.0
 36
0.0
 17
0.0
 27
1.0
 37
0.0
 76
     0
330
1F
331
29
  0
MATERIAL
  5
45
102
{ACAD_REACTORS
330
43
102
}
330
43
100
AcDbMaterial
  1
ByBlock
 72
     1
 94
      127
  0
MATERIAL
  5
44
102
{ACAD_REACTORS
330
43
102
}
330
43
100
AcDbMaterial
  1
ByLayer
 72
     1
 94
      127
  0
MATERIAL
  5
46
102
{ACAD_REACTORS
330
43
102
}
330
43
100
AcDbMaterial
  1
Global
 72
     1
 94
      127
  0
MLEADERSTYLE
  5
6C
102
{ACAD_REACTORS
330
6B
102
}
102
{ACAD_XDICTIONARY
360
40C
102
}
330
6B
100
AcDbMLeaderStyle
170
     2
171
     1
172
     0
 90
        2
 40
0.0
 41
0.0
173
     1
 91
-1056964608
340
14
 92
       -2
290
     1
 42
0.09
291
     1
 43
0.36
  3
Standard
341
0
 44
0.18
300

342
11
174
     1
178
     6
175
     1
176
     0
 93
-1056964608
 45
0.18
292
     0
297
     0
 46
0.18
343
0
 94
-1056964608
 47
1.0
 49
1.0
140
1.0
293
     1
141
0.0
294
     1
177
     0
142
1.0
295
     0
296
     0
143
0.125
1001
ACAD_MLEADERVER
1070
     2
  0
MLINESTYLE
  5
18
102
{ACAD_REACTORS
330
17
102
}
330
17
100
AcDbMlineStyle
  2
Standard
 70
     0
  3

 62
   256
 51
90.0
 52
90.0
 71
     2
 49
0.5
 62
   256
  6
BYLAYER
 49
-0.5
 62
   256
  6
BYLAYER
  0
ACDBPLACEHOLDER
  5
F
102
{ACAD_REACTORS
330
E
102
}
330
E
  0
SCALE
  5
48
102
{ACAD_REACTORS
330
47
102
}
330
47
100
AcDbScale
 70
     0
300
1:1
140
1.0
141
1.0
290
     1
  0
SCALE
  5
49
102
{ACAD_REACTORS
330
47
102
}
330
47
100
AcDbScale
 70
     0
300
1:2
140
1.0
141
2.0
290
     0
  0
SCALE
  5
4A
102
{ACAD_REACTORS
330
47
102
}
330
47
100
AcDbScale
 70
     0
300
1:4
140
1.0
141
4.0
290
     0
  0
SCALE
  5
4B
102
{ACAD_REACTORS
330
47
102
}
330
47
100
AcDbScale
 70
     0
300
1:5
140
1.0
141
5.0
290
     0
  0
SCALE
  5
4C
102
{ACAD_REACTORS
330
47
102
}
330
47
100
AcDbScale
 70
     0
300
1:8
140
1.0
141
8.0
290
     0
  0
SCALE
  5
4D
102
{ACAD_REACTORS
330
47
102
}
330
47
100
AcDbScale
 70
     0
300
1:10
140
1.0
141
10.0
290
     0
  0
SCALE
  5
4E
102
{ACAD_REACTORS
330
47
102
}
330
47
100
AcDbScale
 70
     0
300
1:16
140
1.0
141
16.0
290
     0
  0
SCALE
  5
4F
102
{ACAD_REACTORS
330
47
102
}
330
47
100
AcDbScale
 70
     0
300
1:20
140
1.0
141
20.0
290
     0
  0
SCALE
  5
50
102
{ACAD_REACTORS
330
47
102
}
330
47
100
AcDbScale
 70
     0
300
1:30
140
1.0
141
30.0
290
     0
  0
SCALE
  5
51
102
{ACAD_REACTORS
330
47
102
}
330
47
100
AcDbScale
 70
     0
300
1:40
140
1.0
141
40.0
290
     0
  0
SCALE
  5
52
102
{ACAD_REACTORS
330
47
102
}
330
47
100
AcDbScale
 70
     0
300
1:50
140
1.0
141
50.0
290
     0
  0
SCALE
  5
53
102
{ACAD_REACTORS
330
47
102
}
330
47
100
AcDbScale
 70
     0
300
1:100
140
1.0
141
100.0
290
     0
  0
SCALE
  5
54
102
{ACAD_REACTORS
330
47
102
}
330
47
100
AcDbScale
 70
     0
300
2:1
140
2.0
141
1.0
290
     0
  0
SCALE
  5
55
102
{ACAD_REACTORS
330
47
102
}
330
47
100
AcDbScale
 70
     0
300
4:1
140
4.0
141
1.0
290
     0
  0
SCALE
  5
56
102
{ACAD_REACTORS
330
47
102
}
330
47
100
AcDbScale
 70
     0
300
8:1
140
8.0
141
1.0
290
     0
  0
SCALE
  5
57
102
{ACAD_REACTORS
330
47
102
}
330
47
100
AcDbScale
 70
     0
300
10:1
140
10.0
141
1.0
290
     0
  0
SCALE
  5
58
102
{ACAD_REACTORS
330
47
102
}
330
47
100
AcDbScale
 70
     0
300
100:1
140
100.0
141
1.0
290
     0
  0
SCALE
  5
59
102
{ACAD_REACTORS
330
47
102
}
330
47
100
AcDbScale
 70
     0
300
1/128" = 1'-0"
140
0.0078125
141
12.0
290
     0
  0
SCALE
  5
5A
102
{ACAD_REACTORS
330
47
102
}
330
47
100
AcDbScale
 70
     0
300
1/64" = 1'-0"
140
0.015625
141
12.0
290
     0
  0
SCALE
  5
5B
102
{ACAD_REACTORS
330
47
102
}
330
47
100
AcDbScale
 70
     0
300
1/32" = 1'-0"
140
0.03125
141
12.0
290
     0
  0
SCALE
  5
5C
102
{ACAD_REACTORS
330
47
102
}
330
47
100
AcDbScale
 70
     0
300
1/16" = 1'-0"
140
0.0625
141
12.0
290
     0
  0
SCALE
  5
5D
102
{ACAD_REACTORS
330
47
102
}
330
47
100
AcDbScale
 70
     0
300
3/32" = 1'-0"
140
0.09375
141
12.0
290
     0
  0
SCALE
  5
5E
102
{ACAD_REACTORS
330
47
102
}
330
47
100
AcDbScale
 70
     0
300
1/8" = 1'-0"
140
0.125
141
12.0
290
     0
  0
SCALE
  5
5F
102
{ACAD_REACTORS
330
47
102
}
330
47
100
AcDbScale
 70
     0
300
3/16" = 1'-0"
140
0.1875
141
12.0
290
     0
  0
SCALE
  5
60
102
{ACAD_REACTORS
330
47
102
}
330
47
100
AcDbScale
 70
     0
300
1/4" = 1'-0"
140
0.25
141
12.0
290
     0
  0
SCALE
  5
61
102
{ACAD_REACTORS
330
47
102
}
330
47
100
AcDbScale
 70
     0
300
3/8" = 1'-0"
140
0.375
141
12.0
290
     0
  0
SCALE
  5
62
102
{ACAD_REACTORS
330
47
102
}
330
47
100
AcDbScale
 70
     0
300
1/2" = 1'-0"
140
0.5
141
12.0
290
     0
  0
SCALE
  5
63
102
{ACAD_REACTORS
330
47
102
}
330
47
100
AcDbScale
 70
     0
300
3/4" = 1'-0"
140
0.75
141
12.0
290
     0
  0
SCALE
  5
64
102
{ACAD_REACTORS
330
47
102
}
330
47
100
AcDbScale
 70
     0
300
1" = 1'-0"
140
1.0
141
12.0
290
     0
  0
SCALE
  5
65
102
{ACAD_REACTORS
330
47
102
}
330
47
100
AcDbScale
 70
     0
300
1-1/2" = 1'-0"
140
1.5
141
12.0
290
     0
  0
SCALE
  5
66
102
{ACAD_REACTORS
330
47
102
}
330
47
100
AcDbScale
 70
     0
300
3" = 1'-0"
140
3.0
141
12.0
290
     0
  0
SCALE
  5
67
102
{ACAD_REACTORS
330
47
102
}
330
47
100
AcDbScale
 70
     0
300
6" = 1'-0"
140
6.0
141
12.0
290
     0
  0
SCALE
  5
68
102
{ACAD_REACTORS
330
47
102
}
330
47
100
AcDbScale
 70
     0
300
1'-0" = 1'-0"
140
12.0
141
12.0
290
     0
  0
TABLESTYLE
  5
6A
102
{ACAD_REACTORS
330
69
102
}
102
{ACAD_XDICTIONARY
360
409
102
}
330
69
100
AcDbTableStyle
  3
Standard
 70
     0
 71
     0
 40
0.06
 41
0.06
280
     0
281
     0
  7
Standard
140
0.18
170
     2
 62
     0
 63
   257
283
     0
 90
        4
 91
        0
  1

274
    -2
284
     1
 64
     0
275
    -2
285
     1
 65
     0
276
    -2
286
     1
 66
     0
277
    -2
287
     1
 67
     0
278
    -2
288
     1
 68
     0
279
    -2
289
     1
 69
     0
  7
Standard
140
0.25
170
     5
 62
     0
 63
   257
283
     0
 90
        4
 91
        0
  1

274
    -2
284
     1
 64
     0
275
    -2
285
     1
 65
     0
276
    -2
286
     1
 66
     0
277
    -2
287
     1
 67
     0
278
    -2
288
     1
 68
     0
279
    -2
289
     1
 69
     0
  7
Standard
140
0.18
170
     5
 62
     0
 63
   257
283
     0
 90
        4
 91
        0
  1

274
    -2
284
     1
 64
     0
275
    -2
285
     1
 65
     0
276
    -2
286
     1
 66
     0
277
    -2
287
     1
 67
     0
278
    -2
288
     1
 68
     0
279
    -2
289
     1
 69
     0
  0
VISUALSTYLE
  5
2F
102
{ACAD_REACTORS
330
2A
102
}
102
{ACAD_XDICTIONARY
360
3E1
102
}
330
2A
100
AcDbVisualStyle
  2
2dWireframe
 70
     4
 71
     0
 72
     2
 73
     0
 90
        0
 40
0.6
 41
30.0
 62
     5
 63
     7
421
 16777215
 74
     1
 91
        4
 64
     7
 65
   257
 75
     1
175
     1
 42
1.0
 92
        0
 66
   257
 43
1.0
 76
     1
 77
     6
 78
     2
 67
     7
 79
     5
170
     0
171
     0
290
     0
174
     0
 93
        1
 44
0.0
173
     0
291
     0
 45
0.0
  0
VISUALSTYLE
  5
32
102
{ACAD_REACTORS
330
2A
102
}
102
{ACAD_XDICTIONARY
360
3E7
102
}
330
2A
100
AcDbVisualStyle
  2
Basic
 70
     7
 71
     1
 72
     0
 73
     1
 90
        0
 40
0.6
 41
30.0
 62
     5
 63
     7
421
 16777215
 74
     0
 91
        4
 64
     7
 65
   257
 75
     1
175
     1
 42
1.0
 92
        8
 66
     7
 43
1.0
 76
     1
 77
     6
 78
     2
 67
     7
 79
     5
170
     0
171
     0
290
     0
174
     0
 93
        1
 44
0.0
173
     0
291
     1
 45
0.0
  0
VISUALSTYLE
  5
36
102
{ACAD_REACTORS
330
2A
102
}
102
{ACAD_XDICTIONARY
360
3EF
102
}
330
2A
100
AcDbVisualStyle
  2
Brighten
 70
    12
 71
     2
 72
     2
 73
     0
 90
        0
 40
0.6
 41
30.0
 62
     5
 63
     7
421
 16777215
 74
     1
 91
        4
 64
     7
 65
   257
 75
     1
175
     1
 42
1.0
 92
        8
 66
     7
 43
1.0
 76
     1
 77
     6
 78
     2
 67
     7
 79
     5
170
     0
171
     0
290
     0
174
     0
 93
        1
 44
50.0
173
     0
291
     1
 45
0.0
  0
VISUALSTYLE
  5
3A
102
{ACAD_REACTORS
330
2A
102
}
102
{ACAD_XDICTIONARY
360
3F7
102
}
330
2A
100
AcDbVisualStyle
  2
ColorChange
 70
    16
 71
     2
 72
     2
 73
     3
 90
        0
 40
0.6
 41
30.0
 62
     5
 63
     8
421
  8421504
 74
     1
 91
        4
 64
     7
 65
   257
 75
     1
175
     1
 42
1.0
 92
        8
 66
     8
424
  8421504
 43
1.0
 76
     1
 77
     6
 78
     2
 67
     7
 79
     5
170
     0
171
     0
290
     0
174
     0
 93
        1
 44
0.0
173
     0
291
     1
 45
0.0
  0
VISUALSTYLE
  5
34
102
{ACAD_REACTORS
330
2A
102
}
102
{ACAD_XDICTIONARY
360
3EB
102
}
330
2A
100
AcDbVisualStyle
  2
Conceptual
 70
     9
 71
     3
 72
     2
 73
     0
 90
        0
 40
0.6
 41
30.0
 62
     5
 63
     7
421
 16777215
 74
     2
 91
        2
 64
     7
 65
   257
 75
     1
175
     1
 42
179.0
 92
        8
 66
     7
 43
1.0
 76
     1
 77
     6
 78
     2
 67
     7
 79
     3
170
     0
171
     0
290
     0
174
     0
 93
        1
 44
0.0
173
     0
291
     0
 45
0.0
  0
VISUALSTYLE
  5
35
102
{ACAD_REACTORS
330
2A
102
}
102
{ACAD_XDICTIONARY
360
3ED
102
}
330
2A
100
AcDbVisualStyle
  2
Dim
 70
    11
 71
     2
 72
     2
 73
     0
 90
        0
 40
0.6
 41
30.0
 62
     5
 63
     7
421
 16777215
 74
     1
 91
        4
 64
     7
 65
   257
 75
     1
175
     1
 42
1.0
 92
        8
 66
     7
 43
1.0
 76
     1
 77
     6
 78
     2
 67
     7
 79
     5
170
     0
171
     0
290
     0
174
     0
 93
        1
 44
-50.0
173
     0
291
     1
 45
0.0
  0
VISUALSTYLE
  5
3D
102
{ACAD_REACTORS
330
2A
102
}
102
{ACAD_XDICTIONARY
360
3FD
102
}
330
2A
100
AcDbVisualStyle
  2
EdgeColorOff
 70
    22
 71
     2
 72
     2
 73
     0
 90
        0
 40
0.6
 41
30.0
 62
     5
 63
     7
421
 16777215
 74
     1
 91
        4
 64
     7
 65
   257
 75
     1
175
     1
 42
1.0
 92
        8
 66
     7
 43
1.0
 76
     1
 77
     6
 78
     2
 67
     7
 79
     5
170
     0
171
     0
290
     0
174
     0
 93
        1
 44
0.0
173
     0
291
     1
 45
0.0
  0
VISUALSTYLE
  5
39
102
{ACAD_REACTORS
330
2A
102
}
102
{ACAD_XDICTIONARY
360
3F5
102
}
330
2A
100
AcDbVisualStyle
  2
Facepattern
 70
    15
 71
     2
 72
     2
 73
     0
 90
        0
 40
0.6
 41
30.0
 62
     5
 63
     7
421
 16777215
 74
     1
 91
        4
 64
     7
 65
   257
 75
     1
175
     1
 42
1.0
 92
        8
 66
     7
 43
1.0
 76
     1
 77
     6
 78
     2
 67
     7
 79
     5
170
     0
171
     0
290
     0
174
     0
 93
        1
 44
0.0
173
     0
291
     1
 45
0.0
  0
VISUALSTYLE
  5
2B
102
{ACAD_REACTORS
330
2A
102
}
102
{ACAD_XDICTIONARY
360
3D9
102
}
330
2A
100
AcDbVisualStyle
  2
Flat
 70
     0
 71
     2
 72
     1
 73
     1
 90
        2
 40
0.6
 41
30.0
 62
     5
 63
     7
421
 16777215
 74
     0
 91
        0
 64
     7
 65
   257
 75
     1
175
     1
 42
1.0
 92
        8
 66
     7
 43
1.0
 76
     1
 77
     6
 78
     2
 67
     7
 79
     5
170
     0
171
     0
290
     0
174
     0
 93
       13
 44
0.0
173
     0
291
     1
 45
0.0
  0
VISUALSTYLE
  5
2C
102
{ACAD_REACTORS
330
2A
102
}
102
{ACAD_XDICTIONARY
360
3DB
102
}
330
2A
100
AcDbVisualStyle
  2
FlatWithEdges
 70
     1
 71
     2
 72
     1
 73
     1
 90
        2
 40
0.6
 41
30.0
 62
     5
 63
     7
421
 16777215
 74
     1
 91
        0
 64
     7
 65
   257
 75
     1
175
     1
 42
1.0
 92
        0
 66
   257
 43
1.0
 76
     1
 77
     6
 78
     2
 67
     7
 79
     5
170
     0
171
     0
290
     0
174
     0
 93
       13
 44
0.0
173
     0
291
     1
 45
0.0
  0
VISUALSTYLE
  5
2D
102
{ACAD_REACTORS
330
2A
102
}
102
{ACAD_XDICTIONARY
360
3DD
102
}
330
2A
100
AcDbVisualStyle
  2
Gouraud
 70
     2
 71
     2
 72
     2
 73
     1
 90
        2
 40
0.6
 41
30.0
 62
     5
 63
     7
421
 16777215
 74
     0
 91
        0
 64
     7
 65
   257
 75
     1
175
     1
 42
1.0
 92
        0
 66
     7
 43
1.0
 76
     1
 77
     6
 78
     2
 67
     7
 79
     5
170
     0
171
     0
290
     0
174
     0
 93
       13
 44
0.0
173
     0
291
     1
 45
0.0
  0
VISUALSTYLE
  5
2E
102
{ACAD_REACTORS
330
2A
102
}
102
{ACAD_XDICTIONARY
360
3DF
102
}
330
2A
100
AcDbVisualStyle
  2
GouraudWithEdges
 70
     3
 71
     2
 72
     2
 73
     1
 90
        2
 40
0.6
 41
30.0
 62
     5
 63
     7
421
 16777215
 74
     1
 91
        0
 64
     7
 65
   257
 75
     1
175
     1
 42
1.0
 92
        0
 66
   257
 43
1.0
 76
     1
 77
     6
 78
     2
 67
     7
 79
     5
170
     0
171
     0
290
     0
174
     0
 93
       13
 44
0.0
173
     0
291
     1
 45
0.0
  0
VISUALSTYLE
  5
31
102
{ACAD_REACTORS
330
2A
102
}
102
{ACAD_XDICTIONARY
360
3E5
102
}
330
2A
100
AcDbVisualStyle
  2
Hidden
 70
     6
 71
     1
 72
     2
 73
     2
 90
        0
 40
0.6
 41
30.0
 62
     5
 63
     7
421
 16777215
 74
     2
 91
        2
 64
     7
 65
   257
 75
     2
175
     1
 42
40.0
 92
        0
 66
   257
 43
1.0
 76
     1
 77
     6
 78
     2
 67
     7
 79
     3
170
     0
171
     0
290
     0
174
     0
 93
        1
 44
0.0
173
     0
291
     0
 45
0.0
  0
VISUALSTYLE
  5
3B
102
{ACAD_REACTORS
330
2A
102
}
102
{ACAD_XDICTIONARY
360
3F9
102
}
330
2A
100
AcDbVisualStyle
  2
JitterOff
 70
    20
 71
     2
 72
     2
 73
     0
 90
        0
 40
0.6
 41
30.0
 62
     5
 63
     7
421
 16777215
 74
     1
 91
        4
 64
     7
 65
   257
 75
     1
175
     1
 42
1.0
 92
       10
 66
     7
 43
1.0
 76
     1
 77
     6
 78
     2
 67
     7
 79
     5
170
     0
171
     0
290
     0
174
     0
 93
        1
 44
0.0
173
     0
291
     1
 45
0.0
  0
VISUALSTYLE
  5
38
102
{ACAD_REACTORS
330
2A
102
}
102
{ACAD_XDICTIONARY
360
3F3
102
}
330
2A
100
AcDbVisualStyle
  2
Linepattern
 70
    14
 71
     2
 72
     2
 73
     0
 90
        0
 40
0.6
 41
30.0
 62
     5
 63
     7
421
 16777215
 74
     1
 91
        4
 64
     7
 65
   257
 75
     7
175
     7
 42
1.0
 92
        8
 66
     7
 43
1.0
 76
     1
 77
     6
 78
     2
 67
     7
 79
     5
170
     0
171
     0
290
     0
174
     0
 93
        1
 44
0.0
173
     0
291
     1
 45
0.0
  0
VISUALSTYLE
  5
3C
102
{ACAD_REACTORS
330
2A
102
}
102
{ACAD_XDICTIONARY
360
3FB
102
}
330
2A
100
AcDbVisualStyle
  2
OverhangOff
 70
    21
 71
     2
 72
     2
 73
     0
 90
        0
 40
0.6
 41
30.0
 62
     5
 63
     7
421
 16777215
 74
     1
 91
        4
 64
     7
 65
   257
 75
     1
175
     1
 42
1.0
 92
        9
 66
     7
 43
1.0
 76
     1
 77
     6
 78
     2
 67
     7
 79
     5
170
     0
171
     0
290
     0
174
     0
 93
        1
 44
0.0
173
     0
291
     1
 45
0.0
  0
VISUALSTYLE
  5
33
102
{ACAD_REACTORS
330
2A
102
}
102
{ACAD_XDICTIONARY
360
3E9
102
}
330
2A
100
AcDbVisualStyle
  2
Realistic
 70
     8
 71
     2
 72
     3
 73
     0
 90
        2
 40
0.6
 41
30.0
 62
     5
 63
     7
421
 16777215
 74
     0
 91
        0
 64
     7
 65
   257
 75
     1
175
     1
 42
1.0
 92
        8
 66
   257
 43
1.0
 76
     1
 77
     6
 78
     2
 67
     7
 79
     3
170
     0
171
     0
290
     0
174
     0
 93
       13
 44
0.0
173
     0
291
     0
 45
0.0
  0
VISUALSTYLE
  5
42
102
{ACAD_REACTORS
330
2A
102
}
102
{ACAD_XDICTIONARY
360
407
102
}
330
2A
100
AcDbVisualStyle
  2
Shaded
 70
    27
 71
     2
 72
     2
 73
     1
 90
        2
 40
0.6
 41
30.0
 62
     5
 63
     7
421
 16777215
 74
     0
 91
        4
 64
     7
 65
   257
 75
     1
175
     1
 42
1.0
 92
        8
 66
   257
 43
1.0
 76
     1
 77
     6
 78
     2
 67
     8
425
  7895160
 79
     3
170
     0
171
     0
290
     0
174
     0
 93
        5
 44
0.0
173
     0
291
     0
 45
0.0
  0
VISUALSTYLE
  5
41
102
{ACAD_REACTORS
330
2A
102
}
102
{ACAD_XDICTIONARY
360
405
102
}
330
2A
100
AcDbVisualStyle
  2
Shaded with edges
 70
    26
 71
     2
 72
     2
 73
     1
 90
        2
 40
0.6
 41
30.0
 62
     5
 63
     7
421
 16777215
 74
     1
 91
       10
 64
     7
 65
   257
 75
     2
175
     1
 42
1.0
 92
        8
 66
   257
 43
1.0
 76
     1
 77
     6
 78
     2
 67
     7
 79
     3
170
     0
171
     0
290
     0
174
     0
 93
        5
 44
0.0
173
     0
291
     0
 45
0.0
  0
VISUALSTYLE
  5
3E
102
{ACAD_REACTORS
330
2A
102
}
102
{ACAD_XDICTIONARY
360
3FF
102
}
330
2A
100
AcDbVisualStyle
  2
Shades of Gray
 70
    23
 71
     2
 72
     2
 73
     3
 90
        0
 40
0.6
 41
30.0
 62
     5
 63
     7
421
 16777215
 74
     2
 91
        2
 64
     7
 65
     7
 75
     1
175
     1
 42
40.0
 92
        8
 66
     7
 43
1.0
 76
     1
 77
     6
 78
     2
 67
     7
 79
     3
170
     0
171
     0
290
     0
174
     0
 93
        1
 44
0.0
173
     0
291
     0
 45
0.0
  0
VISUALSTYLE
  5
3F
102
{ACAD_REACTORS
330
2A
102
}
102
{ACAD_XDICTIONARY
360
401
102
}
330
2A
100
AcDbVisualStyle
  2
Sketchy
 70
    24
 71
     1
 72
     2
 73
     2
 90
        0
 40
0.6
 41
30.0
 62
     5
 63
     7
421
 16777215
 74
     2
 91
        2
 64
     7
 65
     7
 75
     1
175
     1
 42
40.0
 92
       11
 66
     7
 43
1.0
 76
     1
 77
     6
 78
     2
 67
     7
 79
     6
170
     0
171
     0
290
     0
174
     0
 93
        1
 44
0.0
173
     0
291
     0
 45
0.0
  0
VISUALSTYLE
  5
37
102
{ACAD_REACTORS
330
2A
102
}
102
{ACAD_XDICTIONARY
360
3F1
102
}
330
2A
100
AcDbVisualStyle
  2
Thicken
 70
    13
 71
     2
 72
     2
 73
     0
 90
        0
 40
0.6
 41
30.0
 62
     5
 63
     7
421
 16777215
 74
     1
 91
        4
 64
     7
 65
   257
 75
     1
175
     1
 42
1.0
 92
       12
 66
     7
 43
1.0
 76
     1
 77
     6
 78
     2
 67
     7
 79
     5
170
     0
171
     0
290
     0
174
     0
 93
        1
 44
0.0
173
     0
291
     1
 45
0.0
  0
VISUALSTYLE
  5
30
102
{ACAD_REACTORS
330
2A
102
}
102
{ACAD_XDICTIONARY
360
3E3
102
}
330
2A
100
AcDbVisualStyle
  2
Wireframe
 70
     5
 71
     0
 72
     2
 73
     0
 90
        0
 40
0.6
 41
30.0
 62
     5
 63
     7
421
 16777215
 74
     1
 91
        4
 64
     7
 65
   257
 75
     1
175
     1
 42
1.0
 92
        0
 66
   257
 43
1.0
 76
     1
 77
     6
 78
     2
 67
     7
 79
     3
170
     0
171
     0
290
     0
174
     0
 93
        1
 44
0.0
173
     0
291
     0
 45
0.0
  0
VISUALSTYLE
  5
40
102
{ACAD_REACTORS
330
2A
102
}
102
{ACAD_XDICTIONARY
360
403
102
}
330
2A
100
AcDbVisualStyle
  2
X-Ray
 70
    25
 71
     2
 72
     2
 73
     1
 90
        1
 40
0.5
 41
30.0
 62
     5
 63
     7
421
 16777215
 74
     1
 91
        0
 64
     7
 65
   257
 75
     1
175
     1
 42
1.0
 92
        8
 66
     7
 43
1.0
 76
     1
 77
     6
 78
     2
 67
     7
 79
     3
170
     0
171
     0
290
     0
174
     0
 93
       13
 44
0.0
173
     0
291
     0
 45
0.0
  0
DICTIONARYVAR
  5
3D7
102
{ACAD_REACTORS
330
3D6
102
}
330
3D6
100
DictionaryVariables
280
     0
  1
1:1
  0
DICTIONARYVAR
  5
410
102
{ACAD_REACTORS
330
3D6
102
}
330
3D6
100
DictionaryVariables
280
     0
  1
Standard
  0
DICTIONARYVAR
  5
40F
102
{ACAD_REACTORS
330
3D6
102
}
330
3D6
100
DictionaryVariables
280
     0
  1
Standard
  0
DICTIONARYVAR
  5
3D8
102
{ACAD_REACTORS
330
3D6
102
}
330
3D6
100
DictionaryVariables
280
     0
  1
2
  0
DICTIONARY
  5
40C
330
6C
100
AcDbDictionary
280
     1
281
     1
  3
ACAD_XREC_ROUNDTRIP
360
40D
  0
DICTIONARY
  5
409
330
6A
100
AcDbDictionary
280
     1
281
     1
  3
ACAD_ROUNDTRIP_2008_TABLESTYLE_CELLSTYLEMAP
360
40A
  0
DICTIONARY
  5
3E1
330
2F
100
AcDbDictionary
280
     1
281
     1
  3
ACAD_XREC_ROUNDTRIP
360
3E2
  0
DICTIONARY
  5
3E7
330
32
100
AcDbDictionary
280
     1
281
     1
  3
ACAD_XREC_ROUNDTRIP
360
3E8
  0
DICTIONARY
  5
3EF
330
36
100
AcDbDictionary
280
     1
281
     1
  3
ACAD_XREC_ROUNDTRIP
360
3F0
  0
DICTIONARY
  5
3F7
330
3A
100
AcDbDictionary
280
     1
281
     1
  3
ACAD_XREC_ROUNDTRIP
360
3F8
  0
DICTIONARY
  5
3EB
330
34
100
AcDbDictionary
280
     1
281
     1
  3
ACAD_XREC_ROUNDTRIP
360
3EC
  0
DICTIONARY
  5
3ED
330
35
100
AcDbDictionary
280
     1
281
     1
  3
ACAD_XREC_ROUNDTRIP
360
3EE
  0
DICTIONARY
  5
3FD
330
3D
100
AcDbDictionary
280
     1
281
     1
  3
ACAD_XREC_ROUNDTRIP
360
3FE
  0
DICTIONARY
  5
3F5
330
39
100
AcDbDictionary
280
     1
281
     1
  3
ACAD_XREC_ROUNDTRIP
360
3F6
  0
DICTIONARY
  5
3D9
330
2B
100
AcDbDictionary
280
     1
281
     1
  3
ACAD_XREC_ROUNDTRIP
360
3DA
  0
DICTIONARY
  5
3DB
330
2C
100
AcDbDictionary
280
     1
281
     1
  3
ACAD_XREC_ROUNDTRIP
360
3DC
  0
DICTIONARY
  5
3DD
330
2D
100
AcDbDictionary
280
     1
281
     1
  3
ACAD_XREC_ROUNDTRIP
360
3DE
  0
DICTIONARY
  5
3DF
330
2E
100
AcDbDictionary
280
     1
281
     1
  3
ACAD_XREC_ROUNDTRIP
360
3E0
  0
DICTIONARY
  5
3E5
330
31
100
AcDbDictionary
280
     1
281
     1
  3
ACAD_XREC_ROUNDTRIP
360
3E6
  0
DICTIONARY
  5
3F9
330
3B
100
AcDbDictionary
280
     1
281
     1
  3
ACAD_XREC_ROUNDTRIP
360
3FA
  0
DICTIONARY
  5
3F3
330
38
100
AcDbDictionary
280
     1
281
     1
  3
ACAD_XREC_ROUNDTRIP
360
3F4
  0
DICTIONARY
  5
3FB
330
3C
100
AcDbDictionary
280
     1
281
     1
  3
ACAD_XREC_ROUNDTRIP
360
3FC
  0
DICTIONARY
  5
3E9
330
33
100
AcDbDictionary
280
     1
281
     1
  3
ACAD_XREC_ROUNDTRIP
360
3EA
  0
DICTIONARY
  5
407
330
42
100
AcDbDictionary
280
     1
281
     1
  3
ACAD_XREC_ROUNDTRIP
360
408
  0
DICTIONARY
  5
405
330
41
100
AcDbDictionary
280
     1
281
     1
  3
ACAD_XREC_ROUNDTRIP
360
406
  0
DICTIONARY
  5
3FF
330
3E
100
AcDbDictionary
280
     1
281
     1
  3
ACAD_XREC_ROUNDTRIP
360
400
  0
DICTIONARY
  5
401
330
3F
100
AcDbDictionary
280
     1
281
     1
  3
ACAD_XREC_ROUNDTRIP
360
402
  0
DICTIONARY
  5
3F1
330
37
100
AcDbDictionary
280
     1
281
     1
  3
ACAD_XREC_ROUNDTRIP
360
3F2
  0
DICTIONARY
  5
3E3
330
30
100
AcDbDictionary
280
     1
281
     1
  3
ACAD_XREC_ROUNDTRIP
360
3E4
  0
DICTIONARY
  5
403
330
40
100
AcDbDictionary
280
     1
281
     1
  3
ACAD_XREC_ROUNDTRIP
360
404
  0
XRECORD
  5
40D
102
{ACAD_REACTORS
330
40C
102
}
330
40C
100
AcDbXrecord
280
     1
102
ACAD_ROUNDTRIP_2010_MLEADER_STYLE
  0
CELLSTYLEMAP
  5
40A
102
{ACAD_REACTORS
330
409
102
}
330
409
100
AcDbCellStyleMap
 90
        3
300
CELLSTYLE
  1
TABLEFORMAT_BEGIN
 90
        5
170
     1
 91
        0
 92
    32768
 62
   257
 93
        1
300
CONTENTFORMAT
  1
CONTENTFORMAT_BEGIN
 90
        0
 91
        0
 92
        4
 93
        0
300

 40
0.0
140
1.0
 94
        5
 62
     0
340
11
144
0.25
309
CONTENTFORMAT_END
171
     1
301
MARGIN
  1
CELLMARGIN_BEGIN
 40
0.06
 40
0.06
 40
0.06
 40
0.06
 40
0.06
 40
0.06
309
CELLMARGIN_END
 94
        6
 95
        1
302
GRIDFORMAT
  1
GRIDFORMAT_BEGIN
 90
        0
 91
        1
 62
     0
 92
       -2
340
14
 93
        0
 40
0.045
309
GRIDFORMAT_END
 95
        2
302
GRIDFORMAT
  1
GRIDFORMAT_BEGIN
 90
        0
 91
        1
 62
     0
 92
       -2
340
14
 93
        0
 40
0.045
309
GRIDFORMAT_END
 95
        4
302
GRIDFORMAT
  1
GRIDFORMAT_BEGIN
 90
        0
 91
        1
 62
     0
 92
       -2
340
14
 93
        0
 40
0.045
309
GRIDFORMAT_END
 95
        8
302
GRIDFORMAT
  1
GRIDFORMAT_BEGIN
 90
        0
 91
        1
 62
     0
 92
       -2
340
14
 93
        0
 40
0.045
309
GRIDFORMAT_END
 95
       16
302
GRIDFORMAT
  1
GRIDFORMAT_BEGIN
 90
        0
 91
        1
 62
     0
 92
       -2
340
14
 93
        0
 40
0.045
309
GRIDFORMAT_END
 95
       32
302
GRIDFORMAT
  1
GRIDFORMAT_BEGIN
 90
        0
 91
        1
 62
     0
 92
       -2
340
14
 93
        0
 40
0.045
309
GRIDFORMAT_END
309
TABLEFORMAT_END
  1
CELLSTYLE_BEGIN
 90
        1
 91
        1
300
_TITLE
309
CELLSTYLE_END
300
CELLSTYLE
  1
TABLEFORMAT_BEGIN
 90
        5
170
     1
 91
        0
 92
        0
 62
   257
 93
        1
300
CONTENTFORMAT
  1
CONTENTFORMAT_BEGIN
 90
        0
 91
        0
 92
        4
 93
        0
300

 40
0.0
140
1.0
 94
        5
 62
     0
340
11
144
0.18
309
CONTENTFORMAT_END
171
     1
301
MARGIN
  1
CELLMARGIN_BEGIN
 40
0.06
 40
0.06
 40
0.06
 40
0.06
 40
0.06
 40
0.06
309
CELLMARGIN_END
 94
        6
 95
        1
302
GRIDFORMAT
  1
GRIDFORMAT_BEGIN
 90
        0
 91
        1
 62
     0
 92
       -2
340
14
 93
        0
 40
0.045
309
GRIDFORMAT_END
 95
        2
302
GRIDFORMAT
  1
GRIDFORMAT_BEGIN
 90
        0
 91
        1
 62
     0
 92
       -2
340
14
 93
        0
 40
0.045
309
GRIDFORMAT_END
 95
        4
302
GRIDFORMAT
  1
GRIDFORMAT_BEGIN
 90
        0
 91
        1
 62
     0
 92
       -2
340
14
 93
        0
 40
0.045
309
GRIDFORMAT_END
 95
        8
302
GRIDFORMAT
  1
GRIDFORMAT_BEGIN
 90
        0
 91
        1
 62
     0
 92
       -2
340
14
 93
        0
 40
0.045
309
GRIDFORMAT_END
 95
       16
302
GRIDFORMAT
  1
GRIDFORMAT_BEGIN
 90
        0
 91
        1
 62
     0
 92
       -2
340
14
 93
        0
 40
0.045
309
GRIDFORMAT_END
 95
       32
302
GRIDFORMAT
  1
GRIDFORMAT_BEGIN
 90
        0
 91
        1
 62
     0
 92
       -2
340
14
 93
        0
 40
0.045
309
GRIDFORMAT_END
309
TABLEFORMAT_END
  1
CELLSTYLE_BEGIN
 90
        2
 91
        1
300
_HEADER
309
CELLSTYLE_END
300
CELLSTYLE
  1
TABLEFORMAT_BEGIN
 90
        5
170
     1
 91
        0
 92
        0
 62
   257
 93
        1
300
CONTENTFORMAT
  1
CONTENTFORMAT_BEGIN
 90
        0
 91
        0
 92
        4
 93
        0
300

 40
0.0
140
1.0
 94
        2
 62
     0
340
11
144
0.18
309
CONTENTFORMAT_END
171
     1
301
MARGIN
  1
CELLMARGIN_BEGIN
 40
0.06
 40
0.06
 40
0.06
 40
0.06
 40
0.06
 40
0.06
309
CELLMARGIN_END
 94
        6
 95
        1
302
GRIDFORMAT
  1
GRIDFORMAT_BEGIN
 90
        0
 91
        1
 62
     0
 92
       -2
340
14
 93
        0
 40
0.045
309
GRIDFORMAT_END
 95
        2
302
GRIDFORMAT
  1
GRIDFORMAT_BEGIN
 90
        0
 91
        1
 62
     0
 92
       -2
340
14
 93
        0
 40
0.045
309
GRIDFORMAT_END
 95
        4
302
GRIDFORMAT
  1
GRIDFORMAT_BEGIN
 90
        0
 91
        1
 62
     0
 92
       -2
340
14
 93
        0
 40
0.045
309
GRIDFORMAT_END
 95
        8
302
GRIDFORMAT
  1
GRIDFORMAT_BEGIN
 90
        0
 91
        1
 62
     0
 92
       -2
340
14
 93
        0
 40
0.045
309
GRIDFORMAT_END
 95
       16
302
GRIDFORMAT
  1
GRIDFORMAT_BEGIN
 90
        0
 91
        1
 62
     0
 92
       -2
340
14
 93
        0
 40
0.045
309
GRIDFORMAT_END
 95
       32
302
GRIDFORMAT
  1
GRIDFORMAT_BEGIN
 90
        0
 91
        1
 62
     0
 92
       -2
340
14
 93
        0
 40
0.045
309
GRIDFORMAT_END
309
TABLEFORMAT_END
  1
CELLSTYLE_BEGIN
 90
        3
 91
        2
300
_DATA
309
CELLSTYLE_END
  0
XRECORD
  5
3E2
102
{ACAD_REACTORS
330
3E1
102
}
330
3E1
100
AcDbXrecord
280
     1
102
RTVSPropertyOp0
 70
     1
102
RTVSPropertyOp1
 70
     1
102
RTVSPropertyOp2
 70
     1
102
RTVSPropertyOp3
 70
     1
102
RTVSPropertyOp4
 70
     1
102
RTVSPropertyOp5
 70
     1
102
RTVSPropertyOp6
 70
     1
102
RTVSPropertyOp7
 70
     1
102
RTVSPropertyOp8
 70
     1
102
RTVSPropertyOp9
 70
     1
102
RTVSPropertyOp10
 70
     1
102
RTVSPropertyOp11
 70
     1
102
RTVSPropertyOp12
 70
     1
102
RTVSPropertyOp13
 70
     1
102
RTVSPropertyOp14
 70
     1
102
RTVSPropertyOp15
 70
     1
102
RTVSPropertyOp16
 70
     1
102
RTVSPropertyOp17
 70
     1
102
RTVSPropertyOp18
 70
     1
102
RTVSPropertyOp19
 70
     1
102
RTVSPropertyOp20
 70
     1
102
RTVSPropertyOp21
 70
     1
102
RTVSPropertyOp22
 70
     1
102
RTVSPropertyOp23
 70
     1
102
RTVSPropertyOp24
 70
     1
102
RTVSPropertyOp25
 70
     1
102
RTVSPropertyOp26
 70
     1
102
RTVSPropertyOp27
 70
     1
102
RTVSPropertyOp28
 70
     1
102
RTVSPropertyOp29
 70
     1
102
RTVSPropertyOp30
 70
     1
102
RTVSPropertyOp31
 70
     1
102
RTVSPropertyOp32
 70
     1
102
RTVSPropertyOp33
 70
     1
102
RTVSPropertyOp34
 70
     1
102
RTVSPropertyOp35
 70
     1
102
RTVSPropertyOp36
 70
     1
102
RTVSPropertyOp37
 70
     1
102
RTVSPropertyOp38
 70
     1
102
RTVSPropertyOp39
 70
     1
102
RTVSPropertyOp40
 70
     1
102
RTVSPropertyOp41
 70
     1
102
RTVSPropertyOp42
 70
     1
102
RTVSPropertyOp43
 70
     1
102
RTVSPropertyOp44
 70
     1
102
RTVSPropertyOp45
 70
     1
102
RTVSPropertyOp46
 70
     1
102
RTVSPropertyOp47
 70
     1
102
RTVSPropertyOp48
 70
     1
102
RTVSPropertyOp49
 70
     1
102
RTVSPropertyOp50
 70
     1
102
RTVSPropertyOp51
 70
     0
102
RTVSPropertyOp52
 70
     0
102
RTVSPropertyOp53
 70
     1
102
RTVSPropertyOp54
 70
     1
102
RTVSPropertyOp55
 70
     1
102
RTVSPropertyOp56
 70
     1
102
RTVSPropertyOp57
 70
     1
102
RTVSPost2010Prop28
280
     1
102
RTVSPost2010PropOp28
 70
     1
102
RTVSPost2010Prop29
280
     1
102
RTVSPost2010PropOp29
 70
     1
102
RTVSPost2010Prop30
280
     0
102
RTVSPost2010PropOp30
 70
     1
102
RTVSPost2010Prop31
280
     0
102
RTVSPost2010PropOp31
 70
     1
102
RTVSPost2010Prop32
280
     0
102
RTVSPost2010PropOp32
 70
     1
102
RTVSPost2010Prop33
280
     0
102
RTVSPost2010PropOp33
 70
     1
102
RTVSPost2010Prop34
280
     0
102
RTVSPost2010PropOp34
 70
     1
102
RTVSPost2010Prop35
280
     0
102
RTVSPost2010PropOp35
 70
     1
102
RTVSPost2010Prop36
280
     0
102
RTVSPost2010PropOp36
 70
     1
102
RTVSPost2010Prop37
 90
       50
102
RTVSPost2010PropOp37
 70
     1
102
RTVSPost2010Prop38
140
0.0
102
RTVSPost2010PropOp38
 70
     1
102
RTVSPost2010Prop39
140
1.0
102
RTVSPost2010PropOp39
 70
     1
102
RTVSPost2010Prop40
 90
        0
102
RTVSPost2010PropOp40
 70
     1
102
RTVSPost2010Prop41ColorIndex
 90
      178
102
RTVSPost2010Prop41ColorRGB
 90
        0
102
RTVSPost2010PropOp41
 70
     1
102
RTVSPost2010Prop42
 90
       50
102
RTVSPost2010PropOp42
 70
     1
102
RTVSPost2010Prop43
 90
        3
102
RTVSPost2010PropOp43
 70
     1
102
RTVSPost2010Prop44ColorIndex
 90
        5
102
RTVSPost2010Prop44ColorRGB
 90
      255
102
RTVSPost2010PropOp44
 70
     1
102
RTVSPost2010Prop45
280
     0
102
RTVSPost2010PropOp45
 70
     1
102
RTVSPost2010Prop46
 90
       50
102
RTVSPost2010PropOp46
 70
     1
102
RTVSPost2010Prop47
 90
       50
102
RTVSPost2010PropOp47
 70
     1
102
RTVSPost2010Prop48
 90
       50
102
RTVSPost2010PropOp48
 70
     1
102
RTVSPost2010Prop49
280
     0
102
RTVSPost2010PropOp49
 70
     1
102
RTVSPost2010Prop50
 90
       50
102
RTVSPost2010PropOp50
 70
     1
102
RTVSPost2010Prop51ColorIndex
 90
      256
102
RTVSPost2010Prop51ColorRGB
 90
-16777216
102
RTVSPost2010PropOp51
 70
     0
102
RTVSPost2010Prop52
140
1.0
102
RTVSPost2010PropOp52
 70
     0
102
RTVSPost2010Prop53
 90
        2
102
RTVSPost2010PropOp53
 70
     1
102
RTVSPost2010Prop54
  1
strokes_ogs.tif
102
RTVSPost2010PropOp54
 70
     1
102
RTVSPost2010Prop55
280
     0
102
RTVSPost2010PropOp55
 70
     1
102
RTVSPost2010Prop56
140
1.0
102
RTVSPost2010PropOp56
 70
     1
102
RTVSPost2010Prop57
140
1.0
102
RTVSPost2010PropOp57
 70
     1
  0
XRECORD
  5
3E8
102
{ACAD_REACTORS
330
3E7
102
}
330
3E7
100
AcDbXrecord
280
     1
102
RTVSPropertyOp0
 70
     1
102
RTVSPropertyOp1
 70
     1
102
RTVSPropertyOp2
 70
     1
102
RTVSPropertyOp3
 70
     1
102
RTVSPropertyOp4
 70
     1
102
RTVSPropertyOp5
 70
     1
102
RTVSPropertyOp6
 70
     1
102
RTVSPropertyOp7
 70
     1
102
RTVSPropertyOp8
 70
     1
102
RTVSPropertyOp9
 70
     1
102
RTVSPropertyOp10
 70
     1
102
RTVSPropertyOp11
 70
     1
102
RTVSPropertyOp12
 70
     1
102
RTVSPropertyOp13
 70
     1
102
RTVSPropertyOp14
 70
     1
102
RTVSPropertyOp15
 70
     1
102
RTVSPropertyOp16
 70
     1
102
RTVSPropertyOp17
 70
     1
102
RTVSPropertyOp18
 70
     1
102
RTVSPropertyOp19
 70
     1
102
RTVSPropertyOp20
 70
     1
102
RTVSPropertyOp21
 70
     1
102
RTVSPropertyOp22
 70
     1
102
RTVSPropertyOp23
 70
     1
102
RTVSPropertyOp24
 70
     1
102
RTVSPropertyOp25
 70
     1
102
RTVSPropertyOp26
 70
     1
102
RTVSPropertyOp27
 70
     1
102
RTVSPropertyOp28
 70
     1
102
RTVSPropertyOp29
 70
     1
102
RTVSPropertyOp30
 70
     1
102
RTVSPropertyOp31
 70
     1
102
RTVSPropertyOp32
 70
     1
102
RTVSPropertyOp33
 70
     1
102
RTVSPropertyOp34
 70
     1
102
RTVSPropertyOp35
 70
     1
102
RTVSPropertyOp36
 70
     1
102
RTVSPropertyOp37
 70
     1
102
RTVSPropertyOp38
 70
     1
102
RTVSPropertyOp39
 70
     1
102
RTVSPropertyOp40
 70
     1
102
RTVSPropertyOp41
 70
     1
102
RTVSPropertyOp42
 70
     1
102
RTVSPropertyOp43
 70
     1
102
RTVSPropertyOp44
 70
     1
102
RTVSPropertyOp45
 70
     1
102
RTVSPropertyOp46
 70
     1
102
RTVSPropertyOp47
 70
     1
102
RTVSPropertyOp48
 70
     1
102
RTVSPropertyOp49
 70
     1
102
RTVSPropertyOp50
 70
     1
102
RTVSPropertyOp51
 70
     0
102
RTVSPropertyOp52
 70
     0
102
RTVSPropertyOp53
 70
     1
102
RTVSPropertyOp54
 70
     1
102
RTVSPropertyOp55
 70
     1
102
RTVSPropertyOp56
 70
     1
102
RTVSPropertyOp57
 70
     1
102
RTVSPost2010Prop28
280
     0
102
RTVSPost2010PropOp28
 70
     1
102
RTVSPost2010Prop29
280
     1
102
RTVSPost2010PropOp29
 70
     1
102
RTVSPost2010Prop30
280
     1
102
RTVSPost2010PropOp30
 70
     1
102
RTVSPost2010Prop31
280
     0
102
RTVSPost2010PropOp31
 70
     1
102
RTVSPost2010Prop32
280
     0
102
RTVSPost2010PropOp32
 70
     1
102
RTVSPost2010Prop33
280
     0
102
RTVSPost2010PropOp33
 70
     1
102
RTVSPost2010Prop34
280
     0
102
RTVSPost2010PropOp34
 70
     1
102
RTVSPost2010Prop35
280
     0
102
RTVSPost2010PropOp35
 70
     1
102
RTVSPost2010Prop36
280
     0
102
RTVSPost2010PropOp36
 70
     1
102
RTVSPost2010Prop37
 90
       50
102
RTVSPost2010PropOp37
 70
     1
102
RTVSPost2010Prop38
140
0.0
102
RTVSPost2010PropOp38
 70
     1
102
RTVSPost2010Prop39
140
1.0
102
RTVSPost2010PropOp39
 70
     1
102
RTVSPost2010Prop40
 90
        0
102
RTVSPost2010PropOp40
 70
     1
102
RTVSPost2010Prop41ColorIndex
 90
      178
102
RTVSPost2010Prop41ColorRGB
 90
        0
102
RTVSPost2010PropOp41
 70
     1
102
RTVSPost2010Prop42
 90
       50
102
RTVSPost2010PropOp42
 70
     1
102
RTVSPost2010Prop43
 90
        3
102
RTVSPost2010PropOp43
 70
     1
102
RTVSPost2010Prop44ColorIndex
 90
        5
102
RTVSPost2010Prop44ColorRGB
 90
      255
102
RTVSPost2010PropOp44
 70
     1
102
RTVSPost2010Prop45
280
     0
102
RTVSPost2010PropOp45
 70
     1
102
RTVSPost2010Prop46
 90
       50
102
RTVSPost2010PropOp46
 70
     1
102
RTVSPost2010Prop47
 90
       50
102
RTVSPost2010PropOp47
 70
     1
102
RTVSPost2010Prop48
 90
       50
102
RTVSPost2010PropOp48
 70
     1
102
RTVSPost2010Prop49
280
     0
102
RTVSPost2010PropOp49
 70
     1
102
RTVSPost2010Prop50
 90
       50
102
RTVSPost2010PropOp50
 70
     1
102
RTVSPost2010Prop51ColorIndex
 90
      256
102
RTVSPost2010Prop51ColorRGB
 90
-16777216
102
RTVSPost2010PropOp51
 70
     0
102
RTVSPost2010Prop52
140
1.0
102
RTVSPost2010PropOp52
 70
     0
102
RTVSPost2010Prop53
 90
        2
102
RTVSPost2010PropOp53
 70
     1
102
RTVSPost2010Prop54
  1
strokes_ogs.tif
102
RTVSPost2010PropOp54
 70
     1
102
RTVSPost2010Prop55
280
     0
102
RTVSPost2010PropOp55
 70
     1
102
RTVSPost2010Prop56
140
1.0
102
RTVSPost2010PropOp56
 70
     1
102
RTVSPost2010Prop57
140
1.0
102
RTVSPost2010PropOp57
 70
     1
  0
XRECORD
  5
3F0
102
{ACAD_REACTORS
330
3EF
102
}
330
3EF
100
AcDbXrecord
280
     1
102
RTVSPropertyOp0
 70
     1
102
RTVSPropertyOp1
 70
     1
102
RTVSPropertyOp2
 70
     1
102
RTVSPropertyOp3
 70
     1
102
RTVSPropertyOp4
 70
     1
102
RTVSPropertyOp5
 70
     1
102
RTVSPropertyOp6
 70
     1
102
RTVSPropertyOp7
 70
     1
102
RTVSPropertyOp8
 70
     1
102
RTVSPropertyOp9
 70
     1
102
RTVSPropertyOp10
 70
     1
102
RTVSPropertyOp11
 70
     1
102
RTVSPropertyOp12
 70
     1
102
RTVSPropertyOp13
 70
     1
102
RTVSPropertyOp14
 70
     1
102
RTVSPropertyOp15
 70
     1
102
RTVSPropertyOp16
 70
     1
102
RTVSPropertyOp17
 70
     1
102
RTVSPropertyOp18
 70
     1
102
RTVSPropertyOp19
 70
     1
102
RTVSPropertyOp20
 70
     1
102
RTVSPropertyOp21
 70
     1
102
RTVSPropertyOp22
 70
     1
102
RTVSPropertyOp23
 70
     1
102
RTVSPropertyOp24
 70
     1
102
RTVSPropertyOp25
 70
     1
102
RTVSPropertyOp26
 70
     1
102
RTVSPropertyOp27
 70
     1
102
RTVSPropertyOp28
 70
     1
102
RTVSPropertyOp29
 70
     1
102
RTVSPropertyOp30
 70
     1
102
RTVSPropertyOp31
 70
     1
102
RTVSPropertyOp32
 70
     1
102
RTVSPropertyOp33
 70
     1
102
RTVSPropertyOp34
 70
     1
102
RTVSPropertyOp35
 70
     1
102
RTVSPropertyOp36
 70
     1
102
RTVSPropertyOp37
 70
     1
102
RTVSPropertyOp38
 70
     1
102
RTVSPropertyOp39
 70
     1
102
RTVSPropertyOp40
 70
     1
102
RTVSPropertyOp41
 70
     1
102
RTVSPropertyOp42
 70
     1
102
RTVSPropertyOp43
 70
     1
102
RTVSPropertyOp44
 70
     1
102
RTVSPropertyOp45
 70
     1
102
RTVSPropertyOp46
 70
     1
102
RTVSPropertyOp47
 70
     1
102
RTVSPropertyOp48
 70
     1
102
RTVSPropertyOp49
 70
     1
102
RTVSPropertyOp50
 70
     1
102
RTVSPropertyOp51
 70
     0
102
RTVSPropertyOp52
 70
     0
102
RTVSPropertyOp53
 70
     1
102
RTVSPropertyOp54
 70
     1
102
RTVSPropertyOp55
 70
     1
102
RTVSPropertyOp56
 70
     1
102
RTVSPropertyOp57
 70
     1
102
RTVSPost2010Prop28
280
     0
102
RTVSPost2010PropOp28
 70
     1
102
RTVSPost2010Prop29
280
     1
102
RTVSPost2010PropOp29
 70
     1
102
RTVSPost2010Prop30
280
     1
102
RTVSPost2010PropOp30
 70
     1
102
RTVSPost2010Prop31
280
     0
102
RTVSPost2010PropOp31
 70
     1
102
RTVSPost2010Prop32
280
     0
102
RTVSPost2010PropOp32
 70
     1
102
RTVSPost2010Prop33
280
     0
102
RTVSPost2010PropOp33
 70
     1
102
RTVSPost2010Prop34
280
     0
102
RTVSPost2010PropOp34
 70
     1
102
RTVSPost2010Prop35
280
     0
102
RTVSPost2010PropOp35
 70
     1
102
RTVSPost2010Prop36
280
     0
102
RTVSPost2010PropOp36
 70
     1
102
RTVSPost2010Prop37
 90
       50
102
RTVSPost2010PropOp37
 70
     1
102
RTVSPost2010Prop38
140
0.0
102
RTVSPost2010PropOp38
 70
     1
102
RTVSPost2010Prop39
140
1.0
102
RTVSPost2010PropOp39
 70
     1
102
RTVSPost2010Prop40
 90
        0
102
RTVSPost2010PropOp40
 70
     1
102
RTVSPost2010Prop41ColorIndex
 90
      178
102
RTVSPost2010Prop41ColorRGB
 90
        0
102
RTVSPost2010PropOp41
 70
     1
102
RTVSPost2010Prop42
 90
       50
102
RTVSPost2010PropOp42
 70
     1
102
RTVSPost2010Prop43
 90
        3
102
RTVSPost2010PropOp43
 70
     1
102
RTVSPost2010Prop44ColorIndex
 90
        5
102
RTVSPost2010Prop44ColorRGB
 90
      255
102
RTVSPost2010PropOp44
 70
     1
102
RTVSPost2010Prop45
280
     0
102
RTVSPost2010PropOp45
 70
     1
102
RTVSPost2010Prop46
 90
       50
102
RTVSPost2010PropOp46
 70
     1
102
RTVSPost2010Prop47
 90
       50
102
RTVSPost2010PropOp47
 70
     1
102
RTVSPost2010Prop48
 90
       50
102
RTVSPost2010PropOp48
 70
     1
102
RTVSPost2010Prop49
280
     0
102
RTVSPost2010PropOp49
 70
     1
102
RTVSPost2010Prop50
 90
       50
102
RTVSPost2010PropOp50
 70
     1
102
RTVSPost2010Prop51ColorIndex
 90
      256
102
RTVSPost2010Prop51ColorRGB
 90
-16777216
102
RTVSPost2010PropOp51
 70
     0
102
RTVSPost2010Prop52
140
1.0
102
RTVSPost2010PropOp52
 70
     0
102
RTVSPost2010Prop53
 90
        2
102
RTVSPost2010PropOp53
 70
     1
102
RTVSPost2010Prop54
  1
strokes_ogs.tif
102
RTVSPost2010PropOp54
 70
     1
102
RTVSPost2010Prop55
280
     0
102
RTVSPost2010PropOp55
 70
     1
102
RTVSPost2010Prop56
140
1.0
102
RTVSPost2010PropOp56
 70
     1
102
RTVSPost2010Prop57
140
1.0
102
RTVSPost2010PropOp57
 70
     1
  0
XRECORD
  5
3F8
102
{ACAD_REACTORS
330
3F7
102
}
330
3F7
100
AcDbXrecord
280
     1
102
RTVSPropertyOp0
 70
     1
102
RTVSPropertyOp1
 70
     1
102
RTVSPropertyOp2
 70
     1
102
RTVSPropertyOp3
 70
     1
102
RTVSPropertyOp4
 70
     1
102
RTVSPropertyOp5
 70
     1
102
RTVSPropertyOp6
 70
     1
102
RTVSPropertyOp7
 70
     1
102
RTVSPropertyOp8
 70
     1
102
RTVSPropertyOp9
 70
     1
102
RTVSPropertyOp10
 70
     1
102
RTVSPropertyOp11
 70
     1
102
RTVSPropertyOp12
 70
     1
102
RTVSPropertyOp13
 70
     1
102
RTVSPropertyOp14
 70
     1
102
RTVSPropertyOp15
 70
     1
102
RTVSPropertyOp16
 70
     1
102
RTVSPropertyOp17
 70
     1
102
RTVSPropertyOp18
 70
     1
102
RTVSPropertyOp19
 70
     1
102
RTVSPropertyOp20
 70
     1
102
RTVSPropertyOp21
 70
     1
102
RTVSPropertyOp22
 70
     1
102
RTVSPropertyOp23
 70
     1
102
RTVSPropertyOp24
 70
     1
102
RTVSPropertyOp25
 70
     1
102
RTVSPropertyOp26
 70
     1
102
RTVSPropertyOp27
 70
     1
102
RTVSPropertyOp28
 70
     1
102
RTVSPropertyOp29
 70
     1
102
RTVSPropertyOp30
 70
     1
102
RTVSPropertyOp31
 70
     1
102
RTVSPropertyOp32
 70
     1
102
RTVSPropertyOp33
 70
     1
102
RTVSPropertyOp34
 70
     1
102
RTVSPropertyOp35
 70
     1
102
RTVSPropertyOp36
 70
     1
102
RTVSPropertyOp37
 70
     1
102
RTVSPropertyOp38
 70
     1
102
RTVSPropertyOp39
 70
     1
102
RTVSPropertyOp40
 70
     1
102
RTVSPropertyOp41
 70
     1
102
RTVSPropertyOp42
 70
     1
102
RTVSPropertyOp43
 70
     1
102
RTVSPropertyOp44
 70
     1
102
RTVSPropertyOp45
 70
     1
102
RTVSPropertyOp46
 70
     1
102
RTVSPropertyOp47
 70
     1
102
RTVSPropertyOp48
 70
     1
102
RTVSPropertyOp49
 70
     1
102
RTVSPropertyOp50
 70
     1
102
RTVSPropertyOp51
 70
     0
102
RTVSPropertyOp52
 70
     0
102
RTVSPropertyOp53
 70
     1
102
RTVSPropertyOp54
 70
     1
102
RTVSPropertyOp55
 70
     1
102
RTVSPropertyOp56
 70
     1
102
RTVSPropertyOp57
 70
     1
102
RTVSPost2010Prop28
280
     0
102
RTVSPost2010PropOp28
 70
     1
102
RTVSPost2010Prop29
280
     1
102
RTVSPost2010PropOp29
 70
     1
102
RTVSPost2010Prop30
280
     1
102
RTVSPost2010PropOp30
 70
     1
102
RTVSPost2010Prop31
280
     0
102
RTVSPost2010PropOp31
 70
     1
102
RTVSPost2010Prop32
280
     0
102
RTVSPost2010PropOp32
 70
     1
102
RTVSPost2010Prop33
280
     0
102
RTVSPost2010PropOp33
 70
     1
102
RTVSPost2010Prop34
280
     0
102
RTVSPost2010PropOp34
 70
     1
102
RTVSPost2010Prop35
280
     0
102
RTVSPost2010PropOp35
 70
     1
102
RTVSPost2010Prop36
280
     0
102
RTVSPost2010PropOp36
 70
     1
102
RTVSPost2010Prop37
 90
       50
102
RTVSPost2010PropOp37
 70
     1
102
RTVSPost2010Prop38
140
0.0
102
RTVSPost2010PropOp38
 70
     1
102
RTVSPost2010Prop39
140
1.0
102
RTVSPost2010PropOp39
 70
     1
102
RTVSPost2010Prop40
 90
        0
102
RTVSPost2010PropOp40
 70
     1
102
RTVSPost2010Prop41ColorIndex
 90
      178
102
RTVSPost2010Prop41ColorRGB
 90
        0
102
RTVSPost2010PropOp41
 70
     1
102
RTVSPost2010Prop42
 90
       50
102
RTVSPost2010PropOp42
 70
     1
102
RTVSPost2010Prop43
 90
        3
102
RTVSPost2010PropOp43
 70
     1
102
RTVSPost2010Prop44ColorIndex
 90
        5
102
RTVSPost2010Prop44ColorRGB
 90
      255
102
RTVSPost2010PropOp44
 70
     1
102
RTVSPost2010Prop45
280
     0
102
RTVSPost2010PropOp45
 70
     1
102
RTVSPost2010Prop46
 90
       50
102
RTVSPost2010PropOp46
 70
     1
102
RTVSPost2010Prop47
 90
       50
102
RTVSPost2010PropOp47
 70
     1
102
RTVSPost2010Prop48
 90
       50
102
RTVSPost2010PropOp48
 70
     1
102
RTVSPost2010Prop49
280
     0
102
RTVSPost2010PropOp49
 70
     1
102
RTVSPost2010Prop50
 90
       50
102
RTVSPost2010PropOp50
 70
     1
102
RTVSPost2010Prop51ColorIndex
 90
      256
102
RTVSPost2010Prop51ColorRGB
 90
-16777216
102
RTVSPost2010PropOp51
 70
     0
102
RTVSPost2010Prop52
140
1.0
102
RTVSPost2010PropOp52
 70
     0
102
RTVSPost2010Prop53
 90
        2
102
RTVSPost2010PropOp53
 70
     1
102
RTVSPost2010Prop54
  1
strokes_ogs.tif
102
RTVSPost2010PropOp54
 70
     1
102
RTVSPost2010Prop55
280
     0
102
RTVSPost2010PropOp55
 70
     1
102
RTVSPost2010Prop56
140
1.0
102
RTVSPost2010PropOp56
 70
     1
102
RTVSPost2010Prop57
140
1.0
102
RTVSPost2010PropOp57
 70
     1
  0
XRECORD
  5
3EC
102
{ACAD_REACTORS
330
3EB
102
}
330
3EB
100
AcDbXrecord
280
     1
102
RTVSPropertyOp0
 70
     1
102
RTVSPropertyOp1
 70
     1
102
RTVSPropertyOp2
 70
     1
102
RTVSPropertyOp3
 70
     1
102
RTVSPropertyOp4
 70
     1
102
RTVSPropertyOp5
 70
     1
102
RTVSPropertyOp6
 70
     1
102
RTVSPropertyOp7
 70
     1
102
RTVSPropertyOp8
 70
     1
102
RTVSPropertyOp9
 70
     1
102
RTVSPropertyOp10
 70
     1
102
RTVSPropertyOp11
 70
     1
102
RTVSPropertyOp12
 70
     1
102
RTVSPropertyOp13
 70
     1
102
RTVSPropertyOp14
 70
     1
102
RTVSPropertyOp15
 70
     1
102
RTVSPropertyOp16
 70
     1
102
RTVSPropertyOp17
 70
     1
102
RTVSPropertyOp18
 70
     1
102
RTVSPropertyOp19
 70
     1
102
RTVSPropertyOp20
 70
     1
102
RTVSPropertyOp21
 70
     1
102
RTVSPropertyOp22
 70
     1
102
RTVSPropertyOp23
 70
     1
102
RTVSPropertyOp24
 70
     1
102
RTVSPropertyOp25
 70
     1
102
RTVSPropertyOp26
 70
     1
102
RTVSPropertyOp27
 70
     1
102
RTVSPropertyOp28
 70
     1
102
RTVSPropertyOp29
 70
     1
102
RTVSPropertyOp30
 70
     1
102
RTVSPropertyOp31
 70
     1
102
RTVSPropertyOp32
 70
     1
102
RTVSPropertyOp33
 70
     1
102
RTVSPropertyOp34
 70
     1
102
RTVSPropertyOp35
 70
     1
102
RTVSPropertyOp36
 70
     1
102
RTVSPropertyOp37
 70
     1
102
RTVSPropertyOp38
 70
     1
102
RTVSPropertyOp39
 70
     1
102
RTVSPropertyOp40
 70
     1
102
RTVSPropertyOp41
 70
     1
102
RTVSPropertyOp42
 70
     1
102
RTVSPropertyOp43
 70
     1
102
RTVSPropertyOp44
 70
     1
102
RTVSPropertyOp45
 70
     1
102
RTVSPropertyOp46
 70
     1
102
RTVSPropertyOp47
 70
     1
102
RTVSPropertyOp48
 70
     1
102
RTVSPropertyOp49
 70
     1
102
RTVSPropertyOp50
 70
     1
102
RTVSPropertyOp51
 70
     0
102
RTVSPropertyOp52
 70
     0
102
RTVSPropertyOp53
 70
     1
102
RTVSPropertyOp54
 70
     1
102
RTVSPropertyOp55
 70
     1
102
RTVSPropertyOp56
 70
     1
102
RTVSPropertyOp57
 70
     1
102
RTVSPost2010Prop28
280
     0
102
RTVSPost2010PropOp28
 70
     1
102
RTVSPost2010Prop29
280
     1
102
RTVSPost2010PropOp29
 70
     1
102
RTVSPost2010Prop30
280
     1
102
RTVSPost2010PropOp30
 70
     1
102
RTVSPost2010Prop31
280
     0
102
RTVSPost2010PropOp31
 70
     1
102
RTVSPost2010Prop32
280
     0
102
RTVSPost2010PropOp32
 70
     1
102
RTVSPost2010Prop33
280
     0
102
RTVSPost2010PropOp33
 70
     1
102
RTVSPost2010Prop34
280
     0
102
RTVSPost2010PropOp34
 70
     1
102
RTVSPost2010Prop35
280
     0
102
RTVSPost2010PropOp35
 70
     1
102
RTVSPost2010Prop36
280
     0
102
RTVSPost2010PropOp36
 70
     1
102
RTVSPost2010Prop37
 90
       50
102
RTVSPost2010PropOp37
 70
     1
102
RTVSPost2010Prop38
140
0.0
102
RTVSPost2010PropOp38
 70
     1
102
RTVSPost2010Prop39
140
1.0
102
RTVSPost2010PropOp39
 70
     1
102
RTVSPost2010Prop40
 90
        0
102
RTVSPost2010PropOp40
 70
     1
102
RTVSPost2010Prop41ColorIndex
 90
      178
102
RTVSPost2010Prop41ColorRGB
 90
        0
102
RTVSPost2010PropOp41
 70
     1
102
RTVSPost2010Prop42
 90
       50
102
RTVSPost2010PropOp42
 70
     1
102
RTVSPost2010Prop43
 90
        3
102
RTVSPost2010PropOp43
 70
     1
102
RTVSPost2010Prop44ColorIndex
 90
        5
102
RTVSPost2010Prop44ColorRGB
 90
      255
102
RTVSPost2010PropOp44
 70
     1
102
RTVSPost2010Prop45
280
     0
102
RTVSPost2010PropOp45
 70
     1
102
RTVSPost2010Prop46
 90
       50
102
RTVSPost2010PropOp46
 70
     1
102
RTVSPost2010Prop47
 90
       50
102
RTVSPost2010PropOp47
 70
     1
102
RTVSPost2010Prop48
 90
       50
102
RTVSPost2010PropOp48
 70
     1
102
RTVSPost2010Prop49
280
     0
102
RTVSPost2010PropOp49
 70
     1
102
RTVSPost2010Prop50
 90
       50
102
RTVSPost2010PropOp50
 70
     1
102
RTVSPost2010Prop51ColorIndex
 90
      256
102
RTVSPost2010Prop51ColorRGB
 90
-16777216
102
RTVSPost2010PropOp51
 70
     0
102
RTVSPost2010Prop52
140
1.0
102
RTVSPost2010PropOp52
 70
     0
102
RTVSPost2010Prop53
 90
        2
102
RTVSPost2010PropOp53
 70
     1
102
RTVSPost2010Prop54
  1
strokes_ogs.tif
102
RTVSPost2010PropOp54
 70
     1
102
RTVSPost2010Prop55
280
     0
102
RTVSPost2010PropOp55
 70
     1
102
RTVSPost2010Prop56
140
1.0
102
RTVSPost2010PropOp56
 70
     1
102
RTVSPost2010Prop57
140
1.0
102
RTVSPost2010PropOp57
 70
     1
  0
XRECORD
  5
3EE
102
{ACAD_REACTORS
330
3ED
102
}
330
3ED
100
AcDbXrecord
280
     1
102
RTVSPropertyOp0
 70
     1
102
RTVSPropertyOp1
 70
     1
102
RTVSPropertyOp2
 70
     1
102
RTVSPropertyOp3
 70
     1
102
RTVSPropertyOp4
 70
     1
102
RTVSPropertyOp5
 70
     1
102
RTVSPropertyOp6
 70
     1
102
RTVSPropertyOp7
 70
     1
102
RTVSPropertyOp8
 70
     1
102
RTVSPropertyOp9
 70
     1
102
RTVSPropertyOp10
 70
     1
102
RTVSPropertyOp11
 70
     1
102
RTVSPropertyOp12
 70
     1
102
RTVSPropertyOp13
 70
     1
102
RTVSPropertyOp14
 70
     1
102
RTVSPropertyOp15
 70
     1
102
RTVSPropertyOp16
 70
     1
102
RTVSPropertyOp17
 70
     1
102
RTVSPropertyOp18
 70
     1
102
RTVSPropertyOp19
 70
     1
102
RTVSPropertyOp20
 70
     1
102
RTVSPropertyOp21
 70
     1
102
RTVSPropertyOp22
 70
     1
102
RTVSPropertyOp23
 70
     1
102
RTVSPropertyOp24
 70
     1
102
RTVSPropertyOp25
 70
     1
102
RTVSPropertyOp26
 70
     1
102
RTVSPropertyOp27
 70
     1
102
RTVSPropertyOp28
 70
     1
102
RTVSPropertyOp29
 70
     1
102
RTVSPropertyOp30
 70
     1
102
RTVSPropertyOp31
 70
     1
102
RTVSPropertyOp32
 70
     1
102
RTVSPropertyOp33
 70
     1
102
RTVSPropertyOp34
 70
     1
102
RTVSPropertyOp35
 70
     1
102
RTVSPropertyOp36
 70
     1
102
RTVSPropertyOp37
 70
     1
102
RTVSPropertyOp38
 70
     1
102
RTVSPropertyOp39
 70
     1
102
RTVSPropertyOp40
 70
     1
102
RTVSPropertyOp41
 70
     1
102
RTVSPropertyOp42
 70
     1
102
RTVSPropertyOp43
 70
     1
102
RTVSPropertyOp44
 70
     1
102
RTVSPropertyOp45
 70
     1
102
RTVSPropertyOp46
 70
     1
102
RTVSPropertyOp47
 70
     1
102
RTVSPropertyOp48
 70
     1
102
RTVSPropertyOp49
 70
     1
102
RTVSPropertyOp50
 70
     1
102
RTVSPropertyOp51
 70
     0
102
RTVSPropertyOp52
 70
     0
102
RTVSPropertyOp53
 70
     1
102
RTVSPropertyOp54
 70
     1
102
RTVSPropertyOp55
 70
     1
102
RTVSPropertyOp56
 70
     1
102
RTVSPropertyOp57
 70
     1
102
RTVSPost2010Prop28
280
     0
102
RTVSPost2010PropOp28
 70
     1
102
RTVSPost2010Prop29
280
     1
102
RTVSPost2010PropOp29
 70
     1
102
RTVSPost2010Prop30
280
     1
102
RTVSPost2010PropOp30
 70
     1
102
RTVSPost2010Prop31
280
     0
102
RTVSPost2010PropOp31
 70
     1
102
RTVSPost2010Prop32
280
     0
102
RTVSPost2010PropOp32
 70
     1
102
RTVSPost2010Prop33
280
     0
102
RTVSPost2010PropOp33
 70
     1
102
RTVSPost2010Prop34
280
     0
102
RTVSPost2010PropOp34
 70
     1
102
RTVSPost2010Prop35
280
     0
102
RTVSPost2010PropOp35
 70
     1
102
RTVSPost2010Prop36
280
     0
102
RTVSPost2010PropOp36
 70
     1
102
RTVSPost2010Prop37
 90
       50
102
RTVSPost2010PropOp37
 70
     1
102
RTVSPost2010Prop38
140
0.0
102
RTVSPost2010PropOp38
 70
     1
102
RTVSPost2010Prop39
140
1.0
102
RTVSPost2010PropOp39
 70
     1
102
RTVSPost2010Prop40
 90
        0
102
RTVSPost2010PropOp40
 70
     1
102
RTVSPost2010Prop41ColorIndex
 90
      178
102
RTVSPost2010Prop41ColorRGB
 90
        0
102
RTVSPost2010PropOp41
 70
     1
102
RTVSPost2010Prop42
 90
       50
102
RTVSPost2010PropOp42
 70
     1
102
RTVSPost2010Prop43
 90
        3
102
RTVSPost2010PropOp43
 70
     1
102
RTVSPost2010Prop44ColorIndex
 90
        5
102
RTVSPost2010Prop44ColorRGB
 90
      255
102
RTVSPost2010PropOp44
 70
     1
102
RTVSPost2010Prop45
280
     0
102
RTVSPost2010PropOp45
 70
     1
102
RTVSPost2010Prop46
 90
       50
102
RTVSPost2010PropOp46
 70
     1
102
RTVSPost2010Prop47
 90
       50
102
RTVSPost2010PropOp47
 70
     1
102
RTVSPost2010Prop48
 90
       50
102
RTVSPost2010PropOp48
 70
     1
102
RTVSPost2010Prop49
280
     0
102
RTVSPost2010PropOp49
 70
     1
102
RTVSPost2010Prop50
 90
       50
102
RTVSPost2010PropOp50
 70
     1
102
RTVSPost2010Prop51ColorIndex
 90
      256
102
RTVSPost2010Prop51ColorRGB
 90
-16777216
102
RTVSPost2010PropOp51
 70
     0
102
RTVSPost2010Prop52
140
1.0
102
RTVSPost2010PropOp52
 70
     0
102
RTVSPost2010Prop53
 90
        2
102
RTVSPost2010PropOp53
 70
     1
102
RTVSPost2010Prop54
  1
strokes_ogs.tif
102
RTVSPost2010PropOp54
 70
     1
102
RTVSPost2010Prop55
280
     0
102
RTVSPost2010PropOp55
 70
     1
102
RTVSPost2010Prop56
140
1.0
102
RTVSPost2010PropOp56
 70
     1
102
RTVSPost2010Prop57
140
1.0
102
RTVSPost2010PropOp57
 70
     1
  0
XRECORD
  5
3FE
102
{ACAD_REACTORS
330
3FD
102
}
330
3FD
100
AcDbXrecord
280
     1
102
RTVSPropertyOp0
 70
     0
102
RTVSPropertyOp1
 70
     0
102
RTVSPropertyOp2
 70
     0
102
RTVSPropertyOp3
 70
     0
102
RTVSPropertyOp4
 70
     0
102
RTVSPropertyOp5
 70
     0
102
RTVSPropertyOp6
 70
     0
102
RTVSPropertyOp7
 70
     0
102
RTVSPropertyOp8
 70
     0
102
RTVSPropertyOp9
 70
     0
102
RTVSPropertyOp10
 70
     0
102
RTVSPropertyOp11
 70
     0
102
RTVSPropertyOp12
 70
     0
102
RTVSPropertyOp13
 70
     0
102
RTVSPropertyOp14
 70
     2
102
RTVSPropertyOp15
 70
     0
102
RTVSPropertyOp16
 70
     0
102
RTVSPropertyOp17
 70
     0
102
RTVSPropertyOp18
 70
     0
102
RTVSPropertyOp19
 70
     0
102
RTVSPropertyOp20
 70
     0
102
RTVSPropertyOp21
 70
     0
102
RTVSPropertyOp22
 70
     0
102
RTVSPropertyOp23
 70
     0
102
RTVSPropertyOp24
 70
     0
102
RTVSPropertyOp25
 70
     0
102
RTVSPropertyOp26
 70
     0
102
RTVSPropertyOp27
 70
     0
102
RTVSPropertyOp28
 70
     0
102
RTVSPropertyOp29
 70
     0
102
RTVSPropertyOp30
 70
     0
102
RTVSPropertyOp31
 70
     0
102
RTVSPropertyOp32
 70
     0
102
RTVSPropertyOp33
 70
     0
102
RTVSPropertyOp34
 70
     0
102
RTVSPropertyOp35
 70
     0
102
RTVSPropertyOp36
 70
     0
102
RTVSPropertyOp37
 70
     0
102
RTVSPropertyOp38
 70
     0
102
RTVSPropertyOp39
 70
     0
102
RTVSPropertyOp40
 70
     0
102
RTVSPropertyOp41
 70
     0
102
RTVSPropertyOp42
 70
     0
102
RTVSPropertyOp43
 70
     0
102
RTVSPropertyOp44
 70
     0
102
RTVSPropertyOp45
 70
     0
102
RTVSPropertyOp46
 70
     0
102
RTVSPropertyOp47
 70
     0
102
RTVSPropertyOp48
 70
     0
102
RTVSPropertyOp49
 70
     0
102
RTVSPropertyOp50
 70
     0
102
RTVSPropertyOp51
 70
     0
102
RTVSPropertyOp52
 70
     0
102
RTVSPropertyOp53
 70
     0
102
RTVSPropertyOp54
 70
     0
102
RTVSPropertyOp55
 70
     0
102
RTVSPropertyOp56
 70
     0
102
RTVSPropertyOp57
 70
     0
102
RTVSPost2010Prop28
280
     0
102
RTVSPost2010PropOp28
 70
     0
102
RTVSPost2010Prop29
280
     1
102
RTVSPost2010PropOp29
 70
     0
102
RTVSPost2010Prop30
280
     1
102
RTVSPost2010PropOp30
 70
     0
102
RTVSPost2010Prop31
280
     0
102
RTVSPost2010PropOp31
 70
     0
102
RTVSPost2010Prop32
280
     0
102
RTVSPost2010PropOp32
 70
     0
102
RTVSPost2010Prop33
280
     0
102
RTVSPost2010PropOp33
 70
     0
102
RTVSPost2010Prop34
280
     0
102
RTVSPost2010PropOp34
 70
     0
102
RTVSPost2010Prop35
280
     0
102
RTVSPost2010PropOp35
 70
     0
102
RTVSPost2010Prop36
280
     0
102
RTVSPost2010PropOp36
 70
     0
102
RTVSPost2010Prop37
 90
       50
102
RTVSPost2010PropOp37
 70
     0
102
RTVSPost2010Prop38
140
0.0
102
RTVSPost2010PropOp38
 70
     0
102
RTVSPost2010Prop39
140
1.0
102
RTVSPost2010PropOp39
 70
     0
102
RTVSPost2010Prop40
 90
        0
102
RTVSPost2010PropOp40
 70
     0
102
RTVSPost2010Prop41ColorIndex
 90
      178
102
RTVSPost2010Prop41ColorRGB
 90
        0
102
RTVSPost2010PropOp41
 70
     0
102
RTVSPost2010Prop42
 90
       50
102
RTVSPost2010PropOp42
 70
     0
102
RTVSPost2010Prop43
 90
        3
102
RTVSPost2010PropOp43
 70
     0
102
RTVSPost2010Prop44ColorIndex
 90
        5
102
RTVSPost2010Prop44ColorRGB
 90
      255
102
RTVSPost2010PropOp44
 70
     0
102
RTVSPost2010Prop45
280
     0
102
RTVSPost2010PropOp45
 70
     0
102
RTVSPost2010Prop46
 90
       50
102
RTVSPost2010PropOp46
 70
     0
102
RTVSPost2010Prop47
 90
       50
102
RTVSPost2010PropOp47
 70
     0
102
RTVSPost2010Prop48
 90
       50
102
RTVSPost2010PropOp48
 70
     0
102
RTVSPost2010Prop49
280
     0
102
RTVSPost2010PropOp49
 70
     0
102
RTVSPost2010Prop50
 90
       50
102
RTVSPost2010PropOp50
 70
     0
102
RTVSPost2010Prop51ColorIndex
 90
      256
102
RTVSPost2010Prop51ColorRGB
 90
-16777216
102
RTVSPost2010PropOp51
 70
     0
102
RTVSPost2010Prop52
140
1.0
102
RTVSPost2010PropOp52
 70
     0
102
RTVSPost2010Prop53
 90
        2
102
RTVSPost2010PropOp53
 70
     0
102
RTVSPost2010Prop54
  1
strokes_ogs.tif
102
RTVSPost2010PropOp54
 70
     0
102
RTVSPost2010Prop55
280
     0
102
RTVSPost2010PropOp55
 70
     0
102
RTVSPost2010Prop56
140
1.0
102
RTVSPost2010PropOp56
 70
     0
102
RTVSPost2010Prop57
140
1.0
102
RTVSPost2010PropOp57
 70
     0
  0
XRECORD
  5
3F6
102
{ACAD_REACTORS
330
3F5
102
}
330
3F5
100
AcDbXrecord
280
     1
102
RTVSPropertyOp0
 70
     1
102
RTVSPropertyOp1
 70
     1
102
RTVSPropertyOp2
 70
     1
102
RTVSPropertyOp3
 70
     1
102
RTVSPropertyOp4
 70
     1
102
RTVSPropertyOp5
 70
     1
102
RTVSPropertyOp6
 70
     1
102
RTVSPropertyOp7
 70
     1
102
RTVSPropertyOp8
 70
     1
102
RTVSPropertyOp9
 70
     1
102
RTVSPropertyOp10
 70
     1
102
RTVSPropertyOp11
 70
     1
102
RTVSPropertyOp12
 70
     1
102
RTVSPropertyOp13
 70
     1
102
RTVSPropertyOp14
 70
     1
102
RTVSPropertyOp15
 70
     1
102
RTVSPropertyOp16
 70
     1
102
RTVSPropertyOp17
 70
     1
102
RTVSPropertyOp18
 70
     1
102
RTVSPropertyOp19
 70
     1
102
RTVSPropertyOp20
 70
     1
102
RTVSPropertyOp21
 70
     1
102
RTVSPropertyOp22
 70
     1
102
RTVSPropertyOp23
 70
     1
102
RTVSPropertyOp24
 70
     1
102
RTVSPropertyOp25
 70
     1
102
RTVSPropertyOp26
 70
     1
102
RTVSPropertyOp27
 70
     1
102
RTVSPropertyOp28
 70
     1
102
RTVSPropertyOp29
 70
     1
102
RTVSPropertyOp30
 70
     1
102
RTVSPropertyOp31
 70
     1
102
RTVSPropertyOp32
 70
     1
102
RTVSPropertyOp33
 70
     1
102
RTVSPropertyOp34
 70
     1
102
RTVSPropertyOp35
 70
     1
102
RTVSPropertyOp36
 70
     1
102
RTVSPropertyOp37
 70
     1
102
RTVSPropertyOp38
 70
     1
102
RTVSPropertyOp39
 70
     1
102
RTVSPropertyOp40
 70
     1
102
RTVSPropertyOp41
 70
     1
102
RTVSPropertyOp42
 70
     1
102
RTVSPropertyOp43
 70
     1
102
RTVSPropertyOp44
 70
     1
102
RTVSPropertyOp45
 70
     1
102
RTVSPropertyOp46
 70
     1
102
RTVSPropertyOp47
 70
     1
102
RTVSPropertyOp48
 70
     1
102
RTVSPropertyOp49
 70
     1
102
RTVSPropertyOp50
 70
     1
102
RTVSPropertyOp51
 70
     0
102
RTVSPropertyOp52
 70
     0
102
RTVSPropertyOp53
 70
     1
102
RTVSPropertyOp54
 70
     1
102
RTVSPropertyOp55
 70
     1
102
RTVSPropertyOp56
 70
     1
102
RTVSPropertyOp57
 70
     1
102
RTVSPost2010Prop28
280
     0
102
RTVSPost2010PropOp28
 70
     1
102
RTVSPost2010Prop29
280
     1
102
RTVSPost2010PropOp29
 70
     1
102
RTVSPost2010Prop30
280
     1
102
RTVSPost2010PropOp30
 70
     1
102
RTVSPost2010Prop31
280
     0
102
RTVSPost2010PropOp31
 70
     1
102
RTVSPost2010Prop32
280
     0
102
RTVSPost2010PropOp32
 70
     1
102
RTVSPost2010Prop33
280
     0
102
RTVSPost2010PropOp33
 70
     1
102
RTVSPost2010Prop34
280
     0
102
RTVSPost2010PropOp34
 70
     1
102
RTVSPost2010Prop35
280
     0
102
RTVSPost2010PropOp35
 70
     1
102
RTVSPost2010Prop36
280
     0
102
RTVSPost2010PropOp36
 70
     1
102
RTVSPost2010Prop37
 90
       50
102
RTVSPost2010PropOp37
 70
     1
102
RTVSPost2010Prop38
140
0.0
102
RTVSPost2010PropOp38
 70
     1
102
RTVSPost2010Prop39
140
1.0
102
RTVSPost2010PropOp39
 70
     1
102
RTVSPost2010Prop40
 90
        0
102
RTVSPost2010PropOp40
 70
     1
102
RTVSPost2010Prop41ColorIndex
 90
      178
102
RTVSPost2010Prop41ColorRGB
 90
        0
102
RTVSPost2010PropOp41
 70
     1
102
RTVSPost2010Prop42
 90
       50
102
RTVSPost2010PropOp42
 70
     1
102
RTVSPost2010Prop43
 90
        3
102
RTVSPost2010PropOp43
 70
     1
102
RTVSPost2010Prop44ColorIndex
 90
        5
102
RTVSPost2010Prop44ColorRGB
 90
      255
102
RTVSPost2010PropOp44
 70
     1
102
RTVSPost2010Prop45
280
     0
102
RTVSPost2010PropOp45
 70
     1
102
RTVSPost2010Prop46
 90
       50
102
RTVSPost2010PropOp46
 70
     1
102
RTVSPost2010Prop47
 90
       50
102
RTVSPost2010PropOp47
 70
     1
102
RTVSPost2010Prop48
 90
       50
102
RTVSPost2010PropOp48
 70
     1
102
RTVSPost2010Prop49
280
     0
102
RTVSPost2010PropOp49
 70
     1
102
RTVSPost2010Prop50
 90
       50
102
RTVSPost2010PropOp50
 70
     1
102
RTVSPost2010Prop51ColorIndex
 90
      256
102
RTVSPost2010Prop51ColorRGB
 90
-16777216
102
RTVSPost2010PropOp51
 70
     0
102
RTVSPost2010Prop52
140
1.0
102
RTVSPost2010PropOp52
 70
     0
102
RTVSPost2010Prop53
 90
        2
102
RTVSPost2010PropOp53
 70
     1
102
RTVSPost2010Prop54
  1
strokes_ogs.tif
102
RTVSPost2010PropOp54
 70
     1
102
RTVSPost2010Prop55
280
     0
102
RTVSPost2010PropOp55
 70
     1
102
RTVSPost2010Prop56
140
1.0
102
RTVSPost2010PropOp56
 70
     1
102
RTVSPost2010Prop57
140
1.0
102
RTVSPost2010PropOp57
 70
     1
  0
XRECORD
  5
3DA
102
{ACAD_REACTORS
330
3D9
102
}
330
3D9
100
AcDbXrecord
280
     1
102
RTVSPropertyOp0
 70
     1
102
RTVSPropertyOp1
 70
     1
102
RTVSPropertyOp2
 70
     1
102
RTVSPropertyOp3
 70
     1
102
RTVSPropertyOp4
 70
     1
102
RTVSPropertyOp5
 70
     1
102
RTVSPropertyOp6
 70
     1
102
RTVSPropertyOp7
 70
     1
102
RTVSPropertyOp8
 70
     1
102
RTVSPropertyOp9
 70
     1
102
RTVSPropertyOp10
 70
     1
102
RTVSPropertyOp11
 70
     1
102
RTVSPropertyOp12
 70
     1
102
RTVSPropertyOp13
 70
     1
102
RTVSPropertyOp14
 70
     1
102
RTVSPropertyOp15
 70
     1
102
RTVSPropertyOp16
 70
     1
102
RTVSPropertyOp17
 70
     1
102
RTVSPropertyOp18
 70
     1
102
RTVSPropertyOp19
 70
     1
102
RTVSPropertyOp20
 70
     1
102
RTVSPropertyOp21
 70
     1
102
RTVSPropertyOp22
 70
     1
102
RTVSPropertyOp23
 70
     1
102
RTVSPropertyOp24
 70
     1
102
RTVSPropertyOp25
 70
     1
102
RTVSPropertyOp26
 70
     1
102
RTVSPropertyOp27
 70
     1
102
RTVSPropertyOp28
 70
     1
102
RTVSPropertyOp29
 70
     1
102
RTVSPropertyOp30
 70
     1
102
RTVSPropertyOp31
 70
     1
102
RTVSPropertyOp32
 70
     1
102
RTVSPropertyOp33
 70
     1
102
RTVSPropertyOp34
 70
     1
102
RTVSPropertyOp35
 70
     1
102
RTVSPropertyOp36
 70
     1
102
RTVSPropertyOp37
 70
     1
102
RTVSPropertyOp38
 70
     1
102
RTVSPropertyOp39
 70
     1
102
RTVSPropertyOp40
 70
     1
102
RTVSPropertyOp41
 70
     1
102
RTVSPropertyOp42
 70
     1
102
RTVSPropertyOp43
 70
     1
102
RTVSPropertyOp44
 70
     1
102
RTVSPropertyOp45
 70
     1
102
RTVSPropertyOp46
 70
     1
102
RTVSPropertyOp47
 70
     1
102
RTVSPropertyOp48
 70
     1
102
RTVSPropertyOp49
 70
     1
102
RTVSPropertyOp50
 70
     1
102
RTVSPropertyOp51
 70
     0
102
RTVSPropertyOp52
 70
     0
102
RTVSPropertyOp53
 70
     1
102
RTVSPropertyOp54
 70
     1
102
RTVSPropertyOp55
 70
     1
102
RTVSPropertyOp56
 70
     1
102
RTVSPropertyOp57
 70
     1
102
RTVSPost2010Prop28
280
     0
102
RTVSPost2010PropOp28
 70
     1
102
RTVSPost2010Prop29
280
     1
102
RTVSPost2010PropOp29
 70
     1
102
RTVSPost2010Prop30
280
     1
102
RTVSPost2010PropOp30
 70
     1
102
RTVSPost2010Prop31
280
     0
102
RTVSPost2010PropOp31
 70
     1
102
RTVSPost2010Prop32
280
     0
102
RTVSPost2010PropOp32
 70
     1
102
RTVSPost2010Prop33
280
     0
102
RTVSPost2010PropOp33
 70
     1
102
RTVSPost2010Prop34
280
     0
102
RTVSPost2010PropOp34
 70
     1
102
RTVSPost2010Prop35
280
     0
102
RTVSPost2010PropOp35
 70
     1
102
RTVSPost2010Prop36
280
     0
102
RTVSPost2010PropOp36
 70
     1
102
RTVSPost2010Prop37
 90
       50
102
RTVSPost2010PropOp37
 70
     1
102
RTVSPost2010Prop38
140
0.0
102
RTVSPost2010PropOp38
 70
     1
102
RTVSPost2010Prop39
140
1.0
102
RTVSPost2010PropOp39
 70
     1
102
RTVSPost2010Prop40
 90
        0
102
RTVSPost2010PropOp40
 70
     1
102
RTVSPost2010Prop41ColorIndex
 90
      178
102
RTVSPost2010Prop41ColorRGB
 90
        0
102
RTVSPost2010PropOp41
 70
     1
102
RTVSPost2010Prop42
 90
       50
102
RTVSPost2010PropOp42
 70
     1
102
RTVSPost2010Prop43
 90
        3
102
RTVSPost2010PropOp43
 70
     1
102
RTVSPost2010Prop44ColorIndex
 90
        5
102
RTVSPost2010Prop44ColorRGB
 90
      255
102
RTVSPost2010PropOp44
 70
     1
102
RTVSPost2010Prop45
280
     0
102
RTVSPost2010PropOp45
 70
     1
102
RTVSPost2010Prop46
 90
       50
102
RTVSPost2010PropOp46
 70
     1
102
RTVSPost2010Prop47
 90
       50
102
RTVSPost2010PropOp47
 70
     1
102
RTVSPost2010Prop48
 90
       50
102
RTVSPost2010PropOp48
 70
     1
102
RTVSPost2010Prop49
280
     0
102
RTVSPost2010PropOp49
 70
     1
102
RTVSPost2010Prop50
 90
       50
102
RTVSPost2010PropOp50
 70
     1
102
RTVSPost2010Prop51ColorIndex
 90
      256
102
RTVSPost2010Prop51ColorRGB
 90
-16777216
102
RTVSPost2010PropOp51
 70
     0
102
RTVSPost2010Prop52
140
1.0
102
RTVSPost2010PropOp52
 70
     0
102
RTVSPost2010Prop53
 90
        2
102
RTVSPost2010PropOp53
 70
     1
102
RTVSPost2010Prop54
  1
strokes_ogs.tif
102
RTVSPost2010PropOp54
 70
     1
102
RTVSPost2010Prop55
280
     0
102
RTVSPost2010PropOp55
 70
     1
102
RTVSPost2010Prop56
140
1.0
102
RTVSPost2010PropOp56
 70
     1
102
RTVSPost2010Prop57
140
1.0
102
RTVSPost2010PropOp57
 70
     1
  0
XRECORD
  5
3DC
102
{ACAD_REACTORS
330
3DB
102
}
330
3DB
100
AcDbXrecord
280
     1
102
RTVSPropertyOp0
 70
     1
102
RTVSPropertyOp1
 70
     1
102
RTVSPropertyOp2
 70
     1
102
RTVSPropertyOp3
 70
     1
102
RTVSPropertyOp4
 70
     1
102
RTVSPropertyOp5
 70
     1
102
RTVSPropertyOp6
 70
     1
102
RTVSPropertyOp7
 70
     1
102
RTVSPropertyOp8
 70
     1
102
RTVSPropertyOp9
 70
     1
102
RTVSPropertyOp10
 70
     1
102
RTVSPropertyOp11
 70
     1
102
RTVSPropertyOp12
 70
     1
102
RTVSPropertyOp13
 70
     1
102
RTVSPropertyOp14
 70
     1
102
RTVSPropertyOp15
 70
     1
102
RTVSPropertyOp16
 70
     1
102
RTVSPropertyOp17
 70
     1
102
RTVSPropertyOp18
 70
     1
102
RTVSPropertyOp19
 70
     1
102
RTVSPropertyOp20
 70
     1
102
RTVSPropertyOp21
 70
     1
102
RTVSPropertyOp22
 70
     1
102
RTVSPropertyOp23
 70
     1
102
RTVSPropertyOp24
 70
     1
102
RTVSPropertyOp25
 70
     1
102
RTVSPropertyOp26
 70
     1
102
RTVSPropertyOp27
 70
     1
102
RTVSPropertyOp28
 70
     1
102
RTVSPropertyOp29
 70
     1
102
RTVSPropertyOp30
 70
     1
102
RTVSPropertyOp31
 70
     1
102
RTVSPropertyOp32
 70
     1
102
RTVSPropertyOp33
 70
     1
102
RTVSPropertyOp34
 70
     1
102
RTVSPropertyOp35
 70
     1
102
RTVSPropertyOp36
 70
     1
102
RTVSPropertyOp37
 70
     1
102
RTVSPropertyOp38
 70
     1
102
RTVSPropertyOp39
 70
     1
102
RTVSPropertyOp40
 70
     1
102
RTVSPropertyOp41
 70
     1
102
RTVSPropertyOp42
 70
     1
102
RTVSPropertyOp43
 70
     1
102
RTVSPropertyOp44
 70
     1
102
RTVSPropertyOp45
 70
     1
102
RTVSPropertyOp46
 70
     1
102
RTVSPropertyOp47
 70
     1
102
RTVSPropertyOp48
 70
     1
102
RTVSPropertyOp49
 70
     1
102
RTVSPropertyOp50
 70
     1
102
RTVSPropertyOp51
 70
     0
102
RTVSPropertyOp52
 70
     0
102
RTVSPropertyOp53
 70
     1
102
RTVSPropertyOp54
 70
     1
102
RTVSPropertyOp55
 70
     1
102
RTVSPropertyOp56
 70
     1
102
RTVSPropertyOp57
 70
     1
102
RTVSPost2010Prop28
280
     0
102
RTVSPost2010PropOp28
 70
     1
102
RTVSPost2010Prop29
280
     1
102
RTVSPost2010PropOp29
 70
     1
102
RTVSPost2010Prop30
280
     1
102
RTVSPost2010PropOp30
 70
     1
102
RTVSPost2010Prop31
280
     0
102
RTVSPost2010PropOp31
 70
     1
102
RTVSPost2010Prop32
280
     0
102
RTVSPost2010PropOp32
 70
     1
102
RTVSPost2010Prop33
280
     0
102
RTVSPost2010PropOp33
 70
     1
102
RTVSPost2010Prop34
280
     0
102
RTVSPost2010PropOp34
 70
     1
102
RTVSPost2010Prop35
280
     0
102
RTVSPost2010PropOp35
 70
     1
102
RTVSPost2010Prop36
280
     0
102
RTVSPost2010PropOp36
 70
     1
102
RTVSPost2010Prop37
 90
       50
102
RTVSPost2010PropOp37
 70
     1
102
RTVSPost2010Prop38
140
0.0
102
RTVSPost2010PropOp38
 70
     1
102
RTVSPost2010Prop39
140
1.0
102
RTVSPost2010PropOp39
 70
     1
102
RTVSPost2010Prop40
 90
        0
102
RTVSPost2010PropOp40
 70
     1
102
RTVSPost2010Prop41ColorIndex
 90
      178
102
RTVSPost2010Prop41ColorRGB
 90
        0
102
RTVSPost2010PropOp41
 70
     1
102
RTVSPost2010Prop42
 90
       50
102
RTVSPost2010PropOp42
 70
     1
102
RTVSPost2010Prop43
 90
        3
102
RTVSPost2010PropOp43
 70
     1
102
RTVSPost2010Prop44ColorIndex
 90
        5
102
RTVSPost2010Prop44ColorRGB
 90
      255
102
RTVSPost2010PropOp44
 70
     1
102
RTVSPost2010Prop45
280
     0
102
RTVSPost2010PropOp45
 70
     1
102
RTVSPost2010Prop46
 90
       50
102
RTVSPost2010PropOp46
 70
     1
102
RTVSPost2010Prop47
 90
       50
102
RTVSPost2010PropOp47
 70
     1
102
RTVSPost2010Prop48
 90
       50
102
RTVSPost2010PropOp48
 70
     1
102
RTVSPost2010Prop49
280
     0
102
RTVSPost2010PropOp49
 70
     1
102
RTVSPost2010Prop50
 90
       50
102
RTVSPost2010PropOp50
 70
     1
102
RTVSPost2010Prop51ColorIndex
 90
      256
102
RTVSPost2010Prop51ColorRGB
 90
-16777216
102
RTVSPost2010PropOp51
 70
     0
102
RTVSPost2010Prop52
140
1.0
102
RTVSPost2010PropOp52
 70
     0
102
RTVSPost2010Prop53
 90
        2
102
RTVSPost2010PropOp53
 70
     1
102
RTVSPost2010Prop54
  1
strokes_ogs.tif
102
RTVSPost2010PropOp54
 70
     1
102
RTVSPost2010Prop55
280
     0
102
RTVSPost2010PropOp55
 70
     1
102
RTVSPost2010Prop56
140
1.0
102
RTVSPost2010PropOp56
 70
     1
102
RTVSPost2010Prop57
140
1.0
102
RTVSPost2010PropOp57
 70
     1
  0
XRECORD
  5
3DE
102
{ACAD_REACTORS
330
3DD
102
}
330
3DD
100
AcDbXrecord
280
     1
102
RTVSPropertyOp0
 70
     1
102
RTVSPropertyOp1
 70
     1
102
RTVSPropertyOp2
 70
     1
102
RTVSPropertyOp3
 70
     1
102
RTVSPropertyOp4
 70
     1
102
RTVSPropertyOp5
 70
     1
102
RTVSPropertyOp6
 70
     1
102
RTVSPropertyOp7
 70
     1
102
RTVSPropertyOp8
 70
     1
102
RTVSPropertyOp9
 70
     1
102
RTVSPropertyOp10
 70
     1
102
RTVSPropertyOp11
 70
     1
102
RTVSPropertyOp12
 70
     1
102
RTVSPropertyOp13
 70
     1
102
RTVSPropertyOp14
 70
     1
102
RTVSPropertyOp15
 70
     1
102
RTVSPropertyOp16
 70
     1
102
RTVSPropertyOp17
 70
     1
102
RTVSPropertyOp18
 70
     1
102
RTVSPropertyOp19
 70
     1
102
RTVSPropertyOp20
 70
     1
102
RTVSPropertyOp21
 70
     1
102
RTVSPropertyOp22
 70
     1
102
RTVSPropertyOp23
 70
     1
102
RTVSPropertyOp24
 70
     1
102
RTVSPropertyOp25
 70
     1
102
RTVSPropertyOp26
 70
     1
102
RTVSPropertyOp27
 70
     1
102
RTVSPropertyOp28
 70
     1
102
RTVSPropertyOp29
 70
     1
102
RTVSPropertyOp30
 70
     1
102
RTVSPropertyOp31
 70
     1
102
RTVSPropertyOp32
 70
     1
102
RTVSPropertyOp33
 70
     1
102
RTVSPropertyOp34
 70
     1
102
RTVSPropertyOp35
 70
     1
102
RTVSPropertyOp36
 70
     1
102
RTVSPropertyOp37
 70
     1
102
RTVSPropertyOp38
 70
     1
102
RTVSPropertyOp39
 70
     1
102
RTVSPropertyOp40
 70
     1
102
RTVSPropertyOp41
 70
     1
102
RTVSPropertyOp42
 70
     1
102
RTVSPropertyOp43
 70
     1
102
RTVSPropertyOp44
 70
     1
102
RTVSPropertyOp45
 70
     1
102
RTVSPropertyOp46
 70
     1
102
RTVSPropertyOp47
 70
     1
102
RTVSPropertyOp48
 70
     1
102
RTVSPropertyOp49
 70
     1
102
RTVSPropertyOp50
 70
     1
102
RTVSPropertyOp51
 70
     0
102
RTVSPropertyOp52
 70
     0
102
RTVSPropertyOp53
 70
     1
102
RTVSPropertyOp54
 70
     1
102
RTVSPropertyOp55
 70
     1
102
RTVSPropertyOp56
 70
     1
102
RTVSPropertyOp57
 70
     1
102
RTVSPost2010Prop28
280
     0
102
RTVSPost2010PropOp28
 70
     1
102
RTVSPost2010Prop29
280
     1
102
RTVSPost2010PropOp29
 70
     1
102
RTVSPost2010Prop30
280
     1
102
RTVSPost2010PropOp30
 70
     1
102
RTVSPost2010Prop31
280
     0
102
RTVSPost2010PropOp31
 70
     1
102
RTVSPost2010Prop32
280
     0
102
RTVSPost2010PropOp32
 70
     1
102
RTVSPost2010Prop33
280
     0
102
RTVSPost2010PropOp33
 70
     1
102
RTVSPost2010Prop34
280
     0
102
RTVSPost2010PropOp34
 70
     1
102
RTVSPost2010Prop35
280
     0
102
RTVSPost2010PropOp35
 70
     1
102
RTVSPost2010Prop36
280
     0
102
RTVSPost2010PropOp36
 70
     1
102
RTVSPost2010Prop37
 90
       50
102
RTVSPost2010PropOp37
 70
     1
102
RTVSPost2010Prop38
140
0.0
102
RTVSPost2010PropOp38
 70
     1
102
RTVSPost2010Prop39
140
1.0
102
RTVSPost2010PropOp39
 70
     1
102
RTVSPost2010Prop40
 90
        0
102
RTVSPost2010PropOp40
 70
     1
102
RTVSPost2010Prop41ColorIndex
 90
      178
102
RTVSPost2010Prop41ColorRGB
 90
        0
102
RTVSPost2010PropOp41
 70
     1
102
RTVSPost2010Prop42
 90
       50
102
RTVSPost2010PropOp42
 70
     1
102
RTVSPost2010Prop43
 90
        3
102
RTVSPost2010PropOp43
 70
     1
102
RTVSPost2010Prop44ColorIndex
 90
        5
102
RTVSPost2010Prop44ColorRGB
 90
      255
102
RTVSPost2010PropOp44
 70
     1
102
RTVSPost2010Prop45
280
     0
102
RTVSPost2010PropOp45
 70
     1
102
RTVSPost2010Prop46
 90
       50
102
RTVSPost2010PropOp46
 70
     1
102
RTVSPost2010Prop47
 90
       50
102
RTVSPost2010PropOp47
 70
     1
102
RTVSPost2010Prop48
 90
       50
102
RTVSPost2010PropOp48
 70
     1
102
RTVSPost2010Prop49
280
     0
102
RTVSPost2010PropOp49
 70
     1
102
RTVSPost2010Prop50
 90
       50
102
RTVSPost2010PropOp50
 70
     1
102
RTVSPost2010Prop51ColorIndex
 90
      256
102
RTVSPost2010Prop51ColorRGB
 90
-16777216
102
RTVSPost2010PropOp51
 70
     0
102
RTVSPost2010Prop52
140
1.0
102
RTVSPost2010PropOp52
 70
     0
102
RTVSPost2010Prop53
 90
        2
102
RTVSPost2010PropOp53
 70
     1
102
RTVSPost2010Prop54
  1
strokes_ogs.tif
102
RTVSPost2010PropOp54
 70
     1
102
RTVSPost2010Prop55
280
     0
102
RTVSPost2010PropOp55
 70
     1
102
RTVSPost2010Prop56
140
1.0
102
RTVSPost2010PropOp56
 70
     1
102
RTVSPost2010Prop57
140
1.0
102
RTVSPost2010PropOp57
 70
     1
  0
XRECORD
  5
3E0
102
{ACAD_REACTORS
330
3DF
102
}
330
3DF
100
AcDbXrecord
280
     1
102
RTVSPropertyOp0
 70
     1
102
RTVSPropertyOp1
 70
     1
102
RTVSPropertyOp2
 70
     1
102
RTVSPropertyOp3
 70
     1
102
RTVSPropertyOp4
 70
     1
102
RTVSPropertyOp5
 70
     1
102
RTVSPropertyOp6
 70
     1
102
RTVSPropertyOp7
 70
     1
102
RTVSPropertyOp8
 70
     1
102
RTVSPropertyOp9
 70
     1
102
RTVSPropertyOp10
 70
     1
102
RTVSPropertyOp11
 70
     1
102
RTVSPropertyOp12
 70
     1
102
RTVSPropertyOp13
 70
     1
102
RTVSPropertyOp14
 70
     1
102
RTVSPropertyOp15
 70
     1
102
RTVSPropertyOp16
 70
     1
102
RTVSPropertyOp17
 70
     1
102
RTVSPropertyOp18
 70
     1
102
RTVSPropertyOp19
 70
     1
102
RTVSPropertyOp20
 70
     1
102
RTVSPropertyOp21
 70
     1
102
RTVSPropertyOp22
 70
     1
102
RTVSPropertyOp23
 70
     1
102
RTVSPropertyOp24
 70
     1
102
RTVSPropertyOp25
 70
     1
102
RTVSPropertyOp26
 70
     1
102
RTVSPropertyOp27
 70
     1
102
RTVSPropertyOp28
 70
     1
102
RTVSPropertyOp29
 70
     1
102
RTVSPropertyOp30
 70
     1
102
RTVSPropertyOp31
 70
     1
102
RTVSPropertyOp32
 70
     1
102
RTVSPropertyOp33
 70
     1
102
RTVSPropertyOp34
 70
     1
102
RTVSPropertyOp35
 70
     1
102
RTVSPropertyOp36
 70
     1
102
RTVSPropertyOp37
 70
     1
102
RTVSPropertyOp38
 70
     1
102
RTVSPropertyOp39
 70
     1
102
RTVSPropertyOp40
 70
     1
102
RTVSPropertyOp41
 70
     1
102
RTVSPropertyOp42
 70
     1
102
RTVSPropertyOp43
 70
     1
102
RTVSPropertyOp44
 70
     1
102
RTVSPropertyOp45
 70
     1
102
RTVSPropertyOp46
 70
     1
102
RTVSPropertyOp47
 70
     1
102
RTVSPropertyOp48
 70
     1
102
RTVSPropertyOp49
 70
     1
102
RTVSPropertyOp50
 70
     1
102
RTVSPropertyOp51
 70
     0
102
RTVSPropertyOp52
 70
     0
102
RTVSPropertyOp53
 70
     1
102
RTVSPropertyOp54
 70
     1
102
RTVSPropertyOp55
 70
     1
102
RTVSPropertyOp56
 70
     1
102
RTVSPropertyOp57
 70
     1
102
RTVSPost2010Prop28
280
     0
102
RTVSPost2010PropOp28
 70
     1
102
RTVSPost2010Prop29
280
     1
102
RTVSPost2010PropOp29
 70
     1
102
RTVSPost2010Prop30
280
     1
102
RTVSPost2010PropOp30
 70
     1
102
RTVSPost2010Prop31
280
     0
102
RTVSPost2010PropOp31
 70
     1
102
RTVSPost2010Prop32
280
     0
102
RTVSPost2010PropOp32
 70
     1
102
RTVSPost2010Prop33
280
     0
102
RTVSPost2010PropOp33
 70
     1
102
RTVSPost2010Prop34
280
     0
102
RTVSPost2010PropOp34
 70
     1
102
RTVSPost2010Prop35
280
     0
102
RTVSPost2010PropOp35
 70
     1
102
RTVSPost2010Prop36
280
     0
102
RTVSPost2010PropOp36
 70
     1
102
RTVSPost2010Prop37
 90
       50
102
RTVSPost2010PropOp37
 70
     1
102
RTVSPost2010Prop38
140
0.0
102
RTVSPost2010PropOp38
 70
     1
102
RTVSPost2010Prop39
140
1.0
102
RTVSPost2010PropOp39
 70
     1
102
RTVSPost2010Prop40
 90
        0
102
RTVSPost2010PropOp40
 70
     1
102
RTVSPost2010Prop41ColorIndex
 90
      178
102
RTVSPost2010Prop41ColorRGB
 90
        0
102
RTVSPost2010PropOp41
 70
     1
102
RTVSPost2010Prop42
 90
       50
102
RTVSPost2010PropOp42
 70
     1
102
RTVSPost2010Prop43
 90
        3
102
RTVSPost2010PropOp43
 70
     1
102
RTVSPost2010Prop44ColorIndex
 90
        5
102
RTVSPost2010Prop44ColorRGB
 90
      255
102
RTVSPost2010PropOp44
 70
     1
102
RTVSPost2010Prop45
280
     0
102
RTVSPost2010PropOp45
 70
     1
102
RTVSPost2010Prop46
 90
       50
102
RTVSPost2010PropOp46
 70
     1
102
RTVSPost2010Prop47
 90
       50
102
RTVSPost2010PropOp47
 70
     1
102
RTVSPost2010Prop48
 90
       50
102
RTVSPost2010PropOp48
 70
     1
102
RTVSPost2010Prop49
280
     0
102
RTVSPost2010PropOp49
 70
     1
102
RTVSPost2010Prop50
 90
       50
102
RTVSPost2010PropOp50
 70
     1
102
RTVSPost2010Prop51ColorIndex
 90
      256
102
RTVSPost2010Prop51ColorRGB
 90
-16777216
102
RTVSPost2010PropOp51
 70
     0
102
RTVSPost2010Prop52
140
1.0
102
RTVSPost2010PropOp52
 70
     0
102
RTVSPost2010Prop53
 90
        2
102
RTVSPost2010PropOp53
 70
     1
102
RTVSPost2010Prop54
  1
strokes_ogs.tif
102
RTVSPost2010PropOp54
 70
     1
102
RTVSPost2010Prop55
280
     0
102
RTVSPost2010PropOp55
 70
     1
102
RTVSPost2010Prop56
140
1.0
102
RTVSPost2010PropOp56
 70
     1
102
RTVSPost2010Prop57
140
1.0
102
RTVSPost2010PropOp57
 70
     1
  0
XRECORD
  5
3E6
102
{ACAD_REACTORS
330
3E5
102
}
330
3E5
100
AcDbXrecord
280
     1
102
RTVSPropertyOp0
 70
     1
102
RTVSPropertyOp1
 70
     1
102
RTVSPropertyOp2
 70
     1
102
RTVSPropertyOp3
 70
     1
102
RTVSPropertyOp4
 70
     1
102
RTVSPropertyOp5
 70
     1
102
RTVSPropertyOp6
 70
     1
102
RTVSPropertyOp7
 70
     1
102
RTVSPropertyOp8
 70
     1
102
RTVSPropertyOp9
 70
     1
102
RTVSPropertyOp10
 70
     1
102
RTVSPropertyOp11
 70
     1
102
RTVSPropertyOp12
 70
     1
102
RTVSPropertyOp13
 70
     1
102
RTVSPropertyOp14
 70
     1
102
RTVSPropertyOp15
 70
     1
102
RTVSPropertyOp16
 70
     1
102
RTVSPropertyOp17
 70
     1
102
RTVSPropertyOp18
 70
     1
102
RTVSPropertyOp19
 70
     1
102
RTVSPropertyOp20
 70
     1
102
RTVSPropertyOp21
 70
     1
102
RTVSPropertyOp22
 70
     1
102
RTVSPropertyOp23
 70
     1
102
RTVSPropertyOp24
 70
     1
102
RTVSPropertyOp25
 70
     1
102
RTVSPropertyOp26
 70
     1
102
RTVSPropertyOp27
 70
     1
102
RTVSPropertyOp28
 70
     1
102
RTVSPropertyOp29
 70
     1
102
RTVSPropertyOp30
 70
     1
102
RTVSPropertyOp31
 70
     1
102
RTVSPropertyOp32
 70
     1
102
RTVSPropertyOp33
 70
     1
102
RTVSPropertyOp34
 70
     1
102
RTVSPropertyOp35
 70
     1
102
RTVSPropertyOp36
 70
     1
102
RTVSPropertyOp37
 70
     1
102
RTVSPropertyOp38
 70
     1
102
RTVSPropertyOp39
 70
     1
102
RTVSPropertyOp40
 70
     1
102
RTVSPropertyOp41
 70
     1
102
RTVSPropertyOp42
 70
     1
102
RTVSPropertyOp43
 70
     1
102
RTVSPropertyOp44
 70
     1
102
RTVSPropertyOp45
 70
     1
102
RTVSPropertyOp46
 70
     1
102
RTVSPropertyOp47
 70
     1
102
RTVSPropertyOp48
 70
     1
102
RTVSPropertyOp49
 70
     1
102
RTVSPropertyOp50
 70
     1
102
RTVSPropertyOp51
 70
     0
102
RTVSPropertyOp52
 70
     0
102
RTVSPropertyOp53
 70
     1
102
RTVSPropertyOp54
 70
     1
102
RTVSPropertyOp55
 70
     1
102
RTVSPropertyOp56
 70
     1
102
RTVSPropertyOp57
 70
     1
102
RTVSPost2010Prop28
280
     0
102
RTVSPost2010PropOp28
 70
     1
102
RTVSPost2010Prop29
280
     1
102
RTVSPost2010PropOp29
 70
     1
102
RTVSPost2010Prop30
280
     1
102
RTVSPost2010PropOp30
 70
     1
102
RTVSPost2010Prop31
280
     0
102
RTVSPost2010PropOp31
 70
     1
102
RTVSPost2010Prop32
280
     0
102
RTVSPost2010PropOp32
 70
     1
102
RTVSPost2010Prop33
280
     0
102
RTVSPost2010PropOp33
 70
     1
102
RTVSPost2010Prop34
280
     0
102
RTVSPost2010PropOp34
 70
     1
102
RTVSPost2010Prop35
280
     0
102
RTVSPost2010PropOp35
 70
     1
102
RTVSPost2010Prop36
280
     0
102
RTVSPost2010PropOp36
 70
     1
102
RTVSPost2010Prop37
 90
       50
102
RTVSPost2010PropOp37
 70
     1
102
RTVSPost2010Prop38
140
0.0
102
RTVSPost2010PropOp38
 70
     1
102
RTVSPost2010Prop39
140
1.0
102
RTVSPost2010PropOp39
 70
     1
102
RTVSPost2010Prop40
 90
        0
102
RTVSPost2010PropOp40
 70
     1
102
RTVSPost2010Prop41ColorIndex
 90
      178
102
RTVSPost2010Prop41ColorRGB
 90
        0
102
RTVSPost2010PropOp41
 70
     1
102
RTVSPost2010Prop42
 90
       50
102
RTVSPost2010PropOp42
 70
     1
102
RTVSPost2010Prop43
 90
        3
102
RTVSPost2010PropOp43
 70
     1
102
RTVSPost2010Prop44ColorIndex
 90
        5
102
RTVSPost2010Prop44ColorRGB
 90
      255
102
RTVSPost2010PropOp44
 70
     1
102
RTVSPost2010Prop45
280
     0
102
RTVSPost2010PropOp45
 70
     1
102
RTVSPost2010Prop46
 90
       50
102
RTVSPost2010PropOp46
 70
     1
102
RTVSPost2010Prop47
 90
       50
102
RTVSPost2010PropOp47
 70
     1
102
RTVSPost2010Prop48
 90
       50
102
RTVSPost2010PropOp48
 70
     1
102
RTVSPost2010Prop49
280
     0
102
RTVSPost2010PropOp49
 70
     1
102
RTVSPost2010Prop50
 90
       50
102
RTVSPost2010PropOp50
 70
     1
102
RTVSPost2010Prop51ColorIndex
 90
      256
102
RTVSPost2010Prop51ColorRGB
 90
-16777216
102
RTVSPost2010PropOp51
 70
     0
102
RTVSPost2010Prop52
140
1.0
102
RTVSPost2010PropOp52
 70
     0
102
RTVSPost2010Prop53
 90
        2
102
RTVSPost2010PropOp53
 70
     1
102
RTVSPost2010Prop54
  1
strokes_ogs.tif
102
RTVSPost2010PropOp54
 70
     1
102
RTVSPost2010Prop55
280
     0
102
RTVSPost2010PropOp55
 70
     1
102
RTVSPost2010Prop56
140
1.0
102
RTVSPost2010PropOp56
 70
     1
102
RTVSPost2010Prop57
140
1.0
102
RTVSPost2010PropOp57
 70
     1
  0
XRECORD
  5
3FA
102
{ACAD_REACTORS
330
3F9
102
}
330
3F9
100
AcDbXrecord
280
     1
102
RTVSPropertyOp0
 70
     0
102
RTVSPropertyOp1
 70
     0
102
RTVSPropertyOp2
 70
     0
102
RTVSPropertyOp3
 70
     0
102
RTVSPropertyOp4
 70
     0
102
RTVSPropertyOp5
 70
     0
102
RTVSPropertyOp6
 70
     0
102
RTVSPropertyOp7
 70
     0
102
RTVSPropertyOp8
 70
     0
102
RTVSPropertyOp9
 70
     0
102
RTVSPropertyOp10
 70
     0
102
RTVSPropertyOp11
 70
     0
102
RTVSPropertyOp12
 70
     0
102
RTVSPropertyOp13
 70
     0
102
RTVSPropertyOp14
 70
     2
102
RTVSPropertyOp15
 70
     0
102
RTVSPropertyOp16
 70
     0
102
RTVSPropertyOp17
 70
     0
102
RTVSPropertyOp18
 70
     0
102
RTVSPropertyOp19
 70
     0
102
RTVSPropertyOp20
 70
     0
102
RTVSPropertyOp21
 70
     0
102
RTVSPropertyOp22
 70
     0
102
RTVSPropertyOp23
 70
     0
102
RTVSPropertyOp24
 70
     0
102
RTVSPropertyOp25
 70
     0
102
RTVSPropertyOp26
 70
     0
102
RTVSPropertyOp27
 70
     0
102
RTVSPropertyOp28
 70
     0
102
RTVSPropertyOp29
 70
     0
102
RTVSPropertyOp30
 70
     0
102
RTVSPropertyOp31
 70
     0
102
RTVSPropertyOp32
 70
     0
102
RTVSPropertyOp33
 70
     0
102
RTVSPropertyOp34
 70
     0
102
RTVSPropertyOp35
 70
     0
102
RTVSPropertyOp36
 70
     0
102
RTVSPropertyOp37
 70
     0
102
RTVSPropertyOp38
 70
     0
102
RTVSPropertyOp39
 70
     0
102
RTVSPropertyOp40
 70
     0
102
RTVSPropertyOp41
 70
     0
102
RTVSPropertyOp42
 70
     0
102
RTVSPropertyOp43
 70
     0
102
RTVSPropertyOp44
 70
     0
102
RTVSPropertyOp45
 70
     0
102
RTVSPropertyOp46
 70
     0
102
RTVSPropertyOp47
 70
     0
102
RTVSPropertyOp48
 70
     0
102
RTVSPropertyOp49
 70
     0
102
RTVSPropertyOp50
 70
     0
102
RTVSPropertyOp51
 70
     0
102
RTVSPropertyOp52
 70
     0
102
RTVSPropertyOp53
 70
     0
102
RTVSPropertyOp54
 70
     0
102
RTVSPropertyOp55
 70
     0
102
RTVSPropertyOp56
 70
     0
102
RTVSPropertyOp57
 70
     0
102
RTVSPost2010Prop28
280
     0
102
RTVSPost2010PropOp28
 70
     0
102
RTVSPost2010Prop29
280
     1
102
RTVSPost2010PropOp29
 70
     0
102
RTVSPost2010Prop30
280
     1
102
RTVSPost2010PropOp30
 70
     0
102
RTVSPost2010Prop31
280
     0
102
RTVSPost2010PropOp31
 70
     0
102
RTVSPost2010Prop32
280
     0
102
RTVSPost2010PropOp32
 70
     0
102
RTVSPost2010Prop33
280
     0
102
RTVSPost2010PropOp33
 70
     0
102
RTVSPost2010Prop34
280
     0
102
RTVSPost2010PropOp34
 70
     0
102
RTVSPost2010Prop35
280
     0
102
RTVSPost2010PropOp35
 70
     0
102
RTVSPost2010Prop36
280
     0
102
RTVSPost2010PropOp36
 70
     0
102
RTVSPost2010Prop37
 90
       50
102
RTVSPost2010PropOp37
 70
     0
102
RTVSPost2010Prop38
140
0.0
102
RTVSPost2010PropOp38
 70
     0
102
RTVSPost2010Prop39
140
1.0
102
RTVSPost2010PropOp39
 70
     0
102
RTVSPost2010Prop40
 90
        0
102
RTVSPost2010PropOp40
 70
     0
102
RTVSPost2010Prop41ColorIndex
 90
      178
102
RTVSPost2010Prop41ColorRGB
 90
        0
102
RTVSPost2010PropOp41
 70
     0
102
RTVSPost2010Prop42
 90
       50
102
RTVSPost2010PropOp42
 70
     0
102
RTVSPost2010Prop43
 90
        3
102
RTVSPost2010PropOp43
 70
     0
102
RTVSPost2010Prop44ColorIndex
 90
        5
102
RTVSPost2010Prop44ColorRGB
 90
      255
102
RTVSPost2010PropOp44
 70
     0
102
RTVSPost2010Prop45
280
     0
102
RTVSPost2010PropOp45
 70
     0
102
RTVSPost2010Prop46
 90
       50
102
RTVSPost2010PropOp46
 70
     0
102
RTVSPost2010Prop47
 90
       50
102
RTVSPost2010PropOp47
 70
     0
102
RTVSPost2010Prop48
 90
       50
102
RTVSPost2010PropOp48
 70
     0
102
RTVSPost2010Prop49
280
     0
102
RTVSPost2010PropOp49
 70
     0
102
RTVSPost2010Prop50
 90
       50
102
RTVSPost2010PropOp50
 70
     0
102
RTVSPost2010Prop51ColorIndex
 90
      256
102
RTVSPost2010Prop51ColorRGB
 90
-16777216
102
RTVSPost2010PropOp51
 70
     0
102
RTVSPost2010Prop52
140
1.0
102
RTVSPost2010PropOp52
 70
     0
102
RTVSPost2010Prop53
 90
        2
102
RTVSPost2010PropOp53
 70
     0
102
RTVSPost2010Prop54
  1
strokes_ogs.tif
102
RTVSPost2010PropOp54
 70
     0
102
RTVSPost2010Prop55
280
     0
102
RTVSPost2010PropOp55
 70
     0
102
RTVSPost2010Prop56
140
1.0
102
RTVSPost2010PropOp56
 70
     0
102
RTVSPost2010Prop57
140
1.0
102
RTVSPost2010PropOp57
 70
     0
  0
XRECORD
  5
3F4
102
{ACAD_REACTORS
330
3F3
102
}
330
3F3
100
AcDbXrecord
280
     1
102
RTVSPropertyOp0
 70
     1
102
RTVSPropertyOp1
 70
     1
102
RTVSPropertyOp2
 70
     1
102
RTVSPropertyOp3
 70
     1
102
RTVSPropertyOp4
 70
     1
102
RTVSPropertyOp5
 70
     1
102
RTVSPropertyOp6
 70
     1
102
RTVSPropertyOp7
 70
     1
102
RTVSPropertyOp8
 70
     1
102
RTVSPropertyOp9
 70
     1
102
RTVSPropertyOp10
 70
     1
102
RTVSPropertyOp11
 70
     1
102
RTVSPropertyOp12
 70
     1
102
RTVSPropertyOp13
 70
     1
102
RTVSPropertyOp14
 70
     1
102
RTVSPropertyOp15
 70
     1
102
RTVSPropertyOp16
 70
     1
102
RTVSPropertyOp17
 70
     1
102
RTVSPropertyOp18
 70
     1
102
RTVSPropertyOp19
 70
     1
102
RTVSPropertyOp20
 70
     1
102
RTVSPropertyOp21
 70
     1
102
RTVSPropertyOp22
 70
     1
102
RTVSPropertyOp23
 70
     1
102
RTVSPropertyOp24
 70
     1
102
RTVSPropertyOp25
 70
     1
102
RTVSPropertyOp26
 70
     1
102
RTVSPropertyOp27
 70
     1
102
RTVSPropertyOp28
 70
     1
102
RTVSPropertyOp29
 70
     1
102
RTVSPropertyOp30
 70
     1
102
RTVSPropertyOp31
 70
     1
102
RTVSPropertyOp32
 70
     1
102
RTVSPropertyOp33
 70
     1
102
RTVSPropertyOp34
 70
     1
102
RTVSPropertyOp35
 70
     1
102
RTVSPropertyOp36
 70
     1
102
RTVSPropertyOp37
 70
     1
102
RTVSPropertyOp38
 70
     1
102
RTVSPropertyOp39
 70
     1
102
RTVSPropertyOp40
 70
     1
102
RTVSPropertyOp41
 70
     1
102
RTVSPropertyOp42
 70
     1
102
RTVSPropertyOp43
 70
     1
102
RTVSPropertyOp44
 70
     1
102
RTVSPropertyOp45
 70
     1
102
RTVSPropertyOp46
 70
     1
102
RTVSPropertyOp47
 70
     1
102
RTVSPropertyOp48
 70
     1
102
RTVSPropertyOp49
 70
     1
102
RTVSPropertyOp50
 70
     1
102
RTVSPropertyOp51
 70
     0
102
RTVSPropertyOp52
 70
     0
102
RTVSPropertyOp53
 70
     1
102
RTVSPropertyOp54
 70
     1
102
RTVSPropertyOp55
 70
     1
102
RTVSPropertyOp56
 70
     1
102
RTVSPropertyOp57
 70
     1
102
RTVSPost2010Prop28
280
     0
102
RTVSPost2010PropOp28
 70
     1
102
RTVSPost2010Prop29
280
     1
102
RTVSPost2010PropOp29
 70
     1
102
RTVSPost2010Prop30
280
     1
102
RTVSPost2010PropOp30
 70
     1
102
RTVSPost2010Prop31
280
     0
102
RTVSPost2010PropOp31
 70
     1
102
RTVSPost2010Prop32
280
     0
102
RTVSPost2010PropOp32
 70
     1
102
RTVSPost2010Prop33
280
     0
102
RTVSPost2010PropOp33
 70
     1
102
RTVSPost2010Prop34
280
     0
102
RTVSPost2010PropOp34
 70
     1
102
RTVSPost2010Prop35
280
     0
102
RTVSPost2010PropOp35
 70
     1
102
RTVSPost2010Prop36
280
     0
102
RTVSPost2010PropOp36
 70
     1
102
RTVSPost2010Prop37
 90
       50
102
RTVSPost2010PropOp37
 70
     1
102
RTVSPost2010Prop38
140
0.0
102
RTVSPost2010PropOp38
 70
     1
102
RTVSPost2010Prop39
140
1.0
102
RTVSPost2010PropOp39
 70
     1
102
RTVSPost2010Prop40
 90
        0
102
RTVSPost2010PropOp40
 70
     1
102
RTVSPost2010Prop41ColorIndex
 90
      178
102
RTVSPost2010Prop41ColorRGB
 90
        0
102
RTVSPost2010PropOp41
 70
     1
102
RTVSPost2010Prop42
 90
       50
102
RTVSPost2010PropOp42
 70
     1
102
RTVSPost2010Prop43
 90
        3
102
RTVSPost2010PropOp43
 70
     1
102
RTVSPost2010Prop44ColorIndex
 90
        5
102
RTVSPost2010Prop44ColorRGB
 90
      255
102
RTVSPost2010PropOp44
 70
     1
102
RTVSPost2010Prop45
280
     0
102
RTVSPost2010PropOp45
 70
     1
102
RTVSPost2010Prop46
 90
       50
102
RTVSPost2010PropOp46
 70
     1
102
RTVSPost2010Prop47
 90
       50
102
RTVSPost2010PropOp47
 70
     1
102
RTVSPost2010Prop48
 90
       50
102
RTVSPost2010PropOp48
 70
     1
102
RTVSPost2010Prop49
280
     0
102
RTVSPost2010PropOp49
 70
     1
102
RTVSPost2010Prop50
 90
       50
102
RTVSPost2010PropOp50
 70
     1
102
RTVSPost2010Prop51ColorIndex
 90
      256
102
RTVSPost2010Prop51ColorRGB
 90
-16777216
102
RTVSPost2010PropOp51
 70
     0
102
RTVSPost2010Prop52
140
1.0
102
RTVSPost2010PropOp52
 70
     0
102
RTVSPost2010Prop53
 90
        2
102
RTVSPost2010PropOp53
 70
     1
102
RTVSPost2010Prop54
  1
strokes_ogs.tif
102
RTVSPost2010PropOp54
 70
     1
102
RTVSPost2010Prop55
280
     0
102
RTVSPost2010PropOp55
 70
     1
102
RTVSPost2010Prop56
140
1.0
102
RTVSPost2010PropOp56
 70
     1
102
RTVSPost2010Prop57
140
1.0
102
RTVSPost2010PropOp57
 70
     1
  0
XRECORD
  5
3FC
102
{ACAD_REACTORS
330
3FB
102
}
330
3FB
100
AcDbXrecord
280
     1
102
RTVSPropertyOp0
 70
     0
102
RTVSPropertyOp1
 70
     0
102
RTVSPropertyOp2
 70
     0
102
RTVSPropertyOp3
 70
     0
102
RTVSPropertyOp4
 70
     0
102
RTVSPropertyOp5
 70
     0
102
RTVSPropertyOp6
 70
     0
102
RTVSPropertyOp7
 70
     0
102
RTVSPropertyOp8
 70
     0
102
RTVSPropertyOp9
 70
     0
102
RTVSPropertyOp10
 70
     0
102
RTVSPropertyOp11
 70
     0
102
RTVSPropertyOp12
 70
     0
102
RTVSPropertyOp13
 70
     0
102
RTVSPropertyOp14
 70
     2
102
RTVSPropertyOp15
 70
     0
102
RTVSPropertyOp16
 70
     0
102
RTVSPropertyOp17
 70
     0
102
RTVSPropertyOp18
 70
     0
102
RTVSPropertyOp19
 70
     0
102
RTVSPropertyOp20
 70
     0
102
RTVSPropertyOp21
 70
     0
102
RTVSPropertyOp22
 70
     0
102
RTVSPropertyOp23
 70
     0
102
RTVSPropertyOp24
 70
     0
102
RTVSPropertyOp25
 70
     0
102
RTVSPropertyOp26
 70
     0
102
RTVSPropertyOp27
 70
     0
102
RTVSPropertyOp28
 70
     0
102
RTVSPropertyOp29
 70
     0
102
RTVSPropertyOp30
 70
     0
102
RTVSPropertyOp31
 70
     0
102
RTVSPropertyOp32
 70
     0
102
RTVSPropertyOp33
 70
     0
102
RTVSPropertyOp34
 70
     0
102
RTVSPropertyOp35
 70
     0
102
RTVSPropertyOp36
 70
     0
102
RTVSPropertyOp37
 70
     0
102
RTVSPropertyOp38
 70
     0
102
RTVSPropertyOp39
 70
     0
102
RTVSPropertyOp40
 70
     0
102
RTVSPropertyOp41
 70
     0
102
RTVSPropertyOp42
 70
     0
102
RTVSPropertyOp43
 70
     0
102
RTVSPropertyOp44
 70
     0
102
RTVSPropertyOp45
 70
     0
102
RTVSPropertyOp46
 70
     0
102
RTVSPropertyOp47
 70
     0
102
RTVSPropertyOp48
 70
     0
102
RTVSPropertyOp49
 70
     0
102
RTVSPropertyOp50
 70
     0
102
RTVSPropertyOp51
 70
     0
102
RTVSPropertyOp52
 70
     0
102
RTVSPropertyOp53
 70
     0
102
RTVSPropertyOp54
 70
     0
102
RTVSPropertyOp55
 70
     0
102
RTVSPropertyOp56
 70
     0
102
RTVSPropertyOp57
 70
     0
102
RTVSPost2010Prop28
280
     0
102
RTVSPost2010PropOp28
 70
     0
102
RTVSPost2010Prop29
280
     1
102
RTVSPost2010PropOp29
 70
     0
102
RTVSPost2010Prop30
280
     1
102
RTVSPost2010PropOp30
 70
     0
102
RTVSPost2010Prop31
280
     0
102
RTVSPost2010PropOp31
 70
     0
102
RTVSPost2010Prop32
280
     0
102
RTVSPost2010PropOp32
 70
     0
102
RTVSPost2010Prop33
280
     0
102
RTVSPost2010PropOp33
 70
     0
102
RTVSPost2010Prop34
280
     0
102
RTVSPost2010PropOp34
 70
     0
102
RTVSPost2010Prop35
280
     0
102
RTVSPost2010PropOp35
 70
     0
102
RTVSPost2010Prop36
280
     0
102
RTVSPost2010PropOp36
 70
     0
102
RTVSPost2010Prop37
 90
       50
102
RTVSPost2010PropOp37
 70
     0
102
RTVSPost2010Prop38
140
0.0
102
RTVSPost2010PropOp38
 70
     0
102
RTVSPost2010Prop39
140
1.0
102
RTVSPost2010PropOp39
 70
     0
102
RTVSPost2010Prop40
 90
        0
102
RTVSPost2010PropOp40
 70
     0
102
RTVSPost2010Prop41ColorIndex
 90
      178
102
RTVSPost2010Prop41ColorRGB
 90
        0
102
RTVSPost2010PropOp41
 70
     0
102
RTVSPost2010Prop42
 90
       50
102
RTVSPost2010PropOp42
 70
     0
102
RTVSPost2010Prop43
 90
        3
102
RTVSPost2010PropOp43
 70
     0
102
RTVSPost2010Prop44ColorIndex
 90
        5
102
RTVSPost2010Prop44ColorRGB
 90
      255
102
RTVSPost2010PropOp44
 70
     0
102
RTVSPost2010Prop45
280
     0
102
RTVSPost2010PropOp45
 70
     0
102
RTVSPost2010Prop46
 90
       50
102
RTVSPost2010PropOp46
 70
     0
102
RTVSPost2010Prop47
 90
       50
102
RTVSPost2010PropOp47
 70
     0
102
RTVSPost2010Prop48
 90
       50
102
RTVSPost2010PropOp48
 70
     0
102
RTVSPost2010Prop49
280
     0
102
RTVSPost2010PropOp49
 70
     0
102
RTVSPost2010Prop50
 90
       50
102
RTVSPost2010PropOp50
 70
     0
102
RTVSPost2010Prop51ColorIndex
 90
      256
102
RTVSPost2010Prop51ColorRGB
 90
-16777216
102
RTVSPost2010PropOp51
 70
     0
102
RTVSPost2010Prop52
140
1.0
102
RTVSPost2010PropOp52
 70
     0
102
RTVSPost2010Prop53
 90
        2
102
RTVSPost2010PropOp53
 70
     0
102
RTVSPost2010Prop54
  1
strokes_ogs.tif
102
RTVSPost2010PropOp54
 70
     0
102
RTVSPost2010Prop55
280
     0
102
RTVSPost2010PropOp55
 70
     0
102
RTVSPost2010Prop56
140
1.0
102
RTVSPost2010PropOp56
 70
     0
102
RTVSPost2010Prop57
140
1.0
102
RTVSPost2010PropOp57
 70
     0
  0
XRECORD
  5
3EA
102
{ACAD_REACTORS
330
3E9
102
}
330
3E9
100
AcDbXrecord
280
     1
102
RTVSPropertyOp0
 70
     1
102
RTVSPropertyOp1
 70
     1
102
RTVSPropertyOp2
 70
     1
102
RTVSPropertyOp3
 70
     1
102
RTVSPropertyOp4
 70
     1
102
RTVSPropertyOp5
 70
     1
102
RTVSPropertyOp6
 70
     1
102
RTVSPropertyOp7
 70
     1
102
RTVSPropertyOp8
 70
     1
102
RTVSPropertyOp9
 70
     1
102
RTVSPropertyOp10
 70
     1
102
RTVSPropertyOp11
 70
     1
102
RTVSPropertyOp12
 70
     1
102
RTVSPropertyOp13
 70
     1
102
RTVSPropertyOp14
 70
     1
102
RTVSPropertyOp15
 70
     1
102
RTVSPropertyOp16
 70
     1
102
RTVSPropertyOp17
 70
     1
102
RTVSPropertyOp18
 70
     1
102
RTVSPropertyOp19
 70
     1
102
RTVSPropertyOp20
 70
     1
102
RTVSPropertyOp21
 70
     1
102
RTVSPropertyOp22
 70
     1
102
RTVSPropertyOp23
 70
     1
102
RTVSPropertyOp24
 70
     1
102
RTVSPropertyOp25
 70
     1
102
RTVSPropertyOp26
 70
     1
102
RTVSPropertyOp27
 70
     1
102
RTVSPropertyOp28
 70
     1
102
RTVSPropertyOp29
 70
     1
102
RTVSPropertyOp30
 70
     1
102
RTVSPropertyOp31
 70
     1
102
RTVSPropertyOp32
 70
     1
102
RTVSPropertyOp33
 70
     1
102
RTVSPropertyOp34
 70
     1
102
RTVSPropertyOp35
 70
     1
102
RTVSPropertyOp36
 70
     1
102
RTVSPropertyOp37
 70
     1
102
RTVSPropertyOp38
 70
     1
102
RTVSPropertyOp39
 70
     1
102
RTVSPropertyOp40
 70
     1
102
RTVSPropertyOp41
 70
     1
102
RTVSPropertyOp42
 70
     1
102
RTVSPropertyOp43
 70
     1
102
RTVSPropertyOp44
 70
     1
102
RTVSPropertyOp45
 70
     1
102
RTVSPropertyOp46
 70
     1
102
RTVSPropertyOp47
 70
     1
102
RTVSPropertyOp48
 70
     1
102
RTVSPropertyOp49
 70
     1
102
RTVSPropertyOp50
 70
     1
102
RTVSPropertyOp51
 70
     0
102
RTVSPropertyOp52
 70
     0
102
RTVSPropertyOp53
 70
     1
102
RTVSPropertyOp54
 70
     1
102
RTVSPropertyOp55
 70
     1
102
RTVSPropertyOp56
 70
     1
102
RTVSPropertyOp57
 70
     1
102
RTVSPost2010Prop28
280
     0
102
RTVSPost2010PropOp28
 70
     1
102
RTVSPost2010Prop29
280
     1
102
RTVSPost2010PropOp29
 70
     1
102
RTVSPost2010Prop30
280
     1
102
RTVSPost2010PropOp30
 70
     1
102
RTVSPost2010Prop31
280
     0
102
RTVSPost2010PropOp31
 70
     1
102
RTVSPost2010Prop32
280
     0
102
RTVSPost2010PropOp32
 70
     1
102
RTVSPost2010Prop33
280
     0
102
RTVSPost2010PropOp33
 70
     1
102
RTVSPost2010Prop34
280
     0
102
RTVSPost2010PropOp34
 70
     1
102
RTVSPost2010Prop35
280
     0
102
RTVSPost2010PropOp35
 70
     1
102
RTVSPost2010Prop36
280
     0
102
RTVSPost2010PropOp36
 70
     1
102
RTVSPost2010Prop37
 90
       50
102
RTVSPost2010PropOp37
 70
     1
102
RTVSPost2010Prop38
140
0.0
102
RTVSPost2010PropOp38
 70
     1
102
RTVSPost2010Prop39
140
1.0
102
RTVSPost2010PropOp39
 70
     1
102
RTVSPost2010Prop40
 90
        0
102
RTVSPost2010PropOp40
 70
     1
102
RTVSPost2010Prop41ColorIndex
 90
      178
102
RTVSPost2010Prop41ColorRGB
 90
        0
102
RTVSPost2010PropOp41
 70
     1
102
RTVSPost2010Prop42
 90
       50
102
RTVSPost2010PropOp42
 70
     1
102
RTVSPost2010Prop43
 90
        3
102
RTVSPost2010PropOp43
 70
     1
102
RTVSPost2010Prop44ColorIndex
 90
        5
102
RTVSPost2010Prop44ColorRGB
 90
      255
102
RTVSPost2010PropOp44
 70
     1
102
RTVSPost2010Prop45
280
     0
102
RTVSPost2010PropOp45
 70
     1
102
RTVSPost2010Prop46
 90
       50
102
RTVSPost2010PropOp46
 70
     1
102
RTVSPost2010Prop47
 90
       50
102
RTVSPost2010PropOp47
 70
     1
102
RTVSPost2010Prop48
 90
       50
102
RTVSPost2010PropOp48
 70
     1
102
RTVSPost2010Prop49
280
     0
102
RTVSPost2010PropOp49
 70
     1
102
RTVSPost2010Prop50
 90
       50
102
RTVSPost2010PropOp50
 70
     1
102
RTVSPost2010Prop51ColorIndex
 90
      256
102
RTVSPost2010Prop51ColorRGB
 90
-16777216
102
RTVSPost2010PropOp51
 70
     0
102
RTVSPost2010Prop52
140
1.0
102
RTVSPost2010PropOp52
 70
     0
102
RTVSPost2010Prop53
 90
        2
102
RTVSPost2010PropOp53
 70
     1
102
RTVSPost2010Prop54
  1
strokes_ogs.tif
102
RTVSPost2010PropOp54
 70
     1
102
RTVSPost2010Prop55
280
     0
102
RTVSPost2010PropOp55
 70
     1
102
RTVSPost2010Prop56
140
1.0
102
RTVSPost2010PropOp56
 70
     1
102
RTVSPost2010Prop57
140
1.0
102
RTVSPost2010PropOp57
 70
     1
  0
XRECORD
  5
408
102
{ACAD_REACTORS
330
407
102
}
330
407
100
AcDbXrecord
280
     1
102
RTVSPropertyOp0
 70
     1
102
RTVSPropertyOp1
 70
     1
102
RTVSPropertyOp2
 70
     1
102
RTVSPropertyOp3
 70
     1
102
RTVSPropertyOp4
 70
     1
102
RTVSPropertyOp5
 70
     1
102
RTVSPropertyOp6
 70
     1
102
RTVSPropertyOp7
 70
     1
102
RTVSPropertyOp8
 70
     1
102
RTVSPropertyOp9
 70
     1
102
RTVSPropertyOp10
 70
     1
102
RTVSPropertyOp11
 70
     1
102
RTVSPropertyOp12
 70
     1
102
RTVSPropertyOp13
 70
     1
102
RTVSPropertyOp14
 70
     1
102
RTVSPropertyOp15
 70
     1
102
RTVSPropertyOp16
 70
     1
102
RTVSPropertyOp17
 70
     1
102
RTVSPropertyOp18
 70
     1
102
RTVSPropertyOp19
 70
     1
102
RTVSPropertyOp20
 70
     1
102
RTVSPropertyOp21
 70
     1
102
RTVSPropertyOp22
 70
     1
102
RTVSPropertyOp23
 70
     1
102
RTVSPropertyOp24
 70
     1
102
RTVSPropertyOp25
 70
     1
102
RTVSPropertyOp26
 70
     1
102
RTVSPropertyOp27
 70
     1
102
RTVSPropertyOp28
 70
     1
102
RTVSPropertyOp29
 70
     1
102
RTVSPropertyOp30
 70
     1
102
RTVSPropertyOp31
 70
     1
102
RTVSPropertyOp32
 70
     1
102
RTVSPropertyOp33
 70
     1
102
RTVSPropertyOp34
 70
     1
102
RTVSPropertyOp35
 70
     1
102
RTVSPropertyOp36
 70
     1
102
RTVSPropertyOp37
 70
     1
102
RTVSPropertyOp38
 70
     1
102
RTVSPropertyOp39
 70
     1
102
RTVSPropertyOp40
 70
     1
102
RTVSPropertyOp41
 70
     1
102
RTVSPropertyOp42
 70
     1
102
RTVSPropertyOp43
 70
     1
102
RTVSPropertyOp44
 70
     1
102
RTVSPropertyOp45
 70
     1
102
RTVSPropertyOp46
 70
     1
102
RTVSPropertyOp47
 70
     1
102
RTVSPropertyOp48
 70
     1
102
RTVSPropertyOp49
 70
     1
102
RTVSPropertyOp50
 70
     1
102
RTVSPropertyOp51
 70
     0
102
RTVSPropertyOp52
 70
     0
102
RTVSPropertyOp53
 70
     1
102
RTVSPropertyOp54
 70
     1
102
RTVSPropertyOp55
 70
     1
102
RTVSPropertyOp56
 70
     1
102
RTVSPropertyOp57
 70
     1
102
RTVSPost2010Prop28
280
     0
102
RTVSPost2010PropOp28
 70
     1
102
RTVSPost2010Prop29
280
     1
102
RTVSPost2010PropOp29
 70
     1
102
RTVSPost2010Prop30
280
     1
102
RTVSPost2010PropOp30
 70
     1
102
RTVSPost2010Prop31
280
     0
102
RTVSPost2010PropOp31
 70
     1
102
RTVSPost2010Prop32
280
     0
102
RTVSPost2010PropOp32
 70
     1
102
RTVSPost2010Prop33
280
     0
102
RTVSPost2010PropOp33
 70
     1
102
RTVSPost2010Prop34
280
     0
102
RTVSPost2010PropOp34
 70
     1
102
RTVSPost2010Prop35
280
     0
102
RTVSPost2010PropOp35
 70
     1
102
RTVSPost2010Prop36
280
     0
102
RTVSPost2010PropOp36
 70
     1
102
RTVSPost2010Prop37
 90
       50
102
RTVSPost2010PropOp37
 70
     1
102
RTVSPost2010Prop38
140
0.0
102
RTVSPost2010PropOp38
 70
     1
102
RTVSPost2010Prop39
140
1.0
102
RTVSPost2010PropOp39
 70
     1
102
RTVSPost2010Prop40
 90
        0
102
RTVSPost2010PropOp40
 70
     1
102
RTVSPost2010Prop41ColorIndex
 90
      178
102
RTVSPost2010Prop41ColorRGB
 90
        0
102
RTVSPost2010PropOp41
 70
     1
102
RTVSPost2010Prop42
 90
       50
102
RTVSPost2010PropOp42
 70
     1
102
RTVSPost2010Prop43
 90
        3
102
RTVSPost2010PropOp43
 70
     1
102
RTVSPost2010Prop44ColorIndex
 90
        5
102
RTVSPost2010Prop44ColorRGB
 90
      255
102
RTVSPost2010PropOp44
 70
     1
102
RTVSPost2010Prop45
280
     0
102
RTVSPost2010PropOp45
 70
     1
102
RTVSPost2010Prop46
 90
       50
102
RTVSPost2010PropOp46
 70
     1
102
RTVSPost2010Prop47
 90
       50
102
RTVSPost2010PropOp47
 70
     1
102
RTVSPost2010Prop48
 90
       50
102
RTVSPost2010PropOp48
 70
     1
102
RTVSPost2010Prop49
280
     0
102
RTVSPost2010PropOp49
 70
     1
102
RTVSPost2010Prop50
 90
       50
102
RTVSPost2010PropOp50
 70
     1
102
RTVSPost2010Prop51ColorIndex
 90
      256
102
RTVSPost2010Prop51ColorRGB
 90
-16777216
102
RTVSPost2010PropOp51
 70
     0
102
RTVSPost2010Prop52
140
1.0
102
RTVSPost2010PropOp52
 70
     0
102
RTVSPost2010Prop53
 90
        2
102
RTVSPost2010PropOp53
 70
     1
102
RTVSPost2010Prop54
  1
strokes_ogs.tif
102
RTVSPost2010PropOp54
 70
     1
102
RTVSPost2010Prop55
280
     0
102
RTVSPost2010PropOp55
 70
     1
102
RTVSPost2010Prop56
140
1.0
102
RTVSPost2010PropOp56
 70
     1
102
RTVSPost2010Prop57
140
1.0
102
RTVSPost2010PropOp57
 70
     1
  0
XRECORD
  5
406
102
{ACAD_REACTORS
330
405
102
}
330
405
100
AcDbXrecord
280
     1
102
RTVSPropertyOp0
 70
     1
102
RTVSPropertyOp1
 70
     1
102
RTVSPropertyOp2
 70
     1
102
RTVSPropertyOp3
 70
     1
102
RTVSPropertyOp4
 70
     1
102
RTVSPropertyOp5
 70
     1
102
RTVSPropertyOp6
 70
     1
102
RTVSPropertyOp7
 70
     1
102
RTVSPropertyOp8
 70
     1
102
RTVSPropertyOp9
 70
     1
102
RTVSPropertyOp10
 70
     1
102
RTVSPropertyOp11
 70
     1
102
RTVSPropertyOp12
 70
     1
102
RTVSPropertyOp13
 70
     1
102
RTVSPropertyOp14
 70
     1
102
RTVSPropertyOp15
 70
     1
102
RTVSPropertyOp16
 70
     1
102
RTVSPropertyOp17
 70
     1
102
RTVSPropertyOp18
 70
     1
102
RTVSPropertyOp19
 70
     1
102
RTVSPropertyOp20
 70
     1
102
RTVSPropertyOp21
 70
     1
102
RTVSPropertyOp22
 70
     1
102
RTVSPropertyOp23
 70
     1
102
RTVSPropertyOp24
 70
     1
102
RTVSPropertyOp25
 70
     1
102
RTVSPropertyOp26
 70
     1
102
RTVSPropertyOp27
 70
     1
102
RTVSPropertyOp28
 70
     1
102
RTVSPropertyOp29
 70
     1
102
RTVSPropertyOp30
 70
     1
102
RTVSPropertyOp31
 70
     1
102
RTVSPropertyOp32
 70
     1
102
RTVSPropertyOp33
 70
     1
102
RTVSPropertyOp34
 70
     1
102
RTVSPropertyOp35
 70
     1
102
RTVSPropertyOp36
 70
     1
102
RTVSPropertyOp37
 70
     1
102
RTVSPropertyOp38
 70
     1
102
RTVSPropertyOp39
 70
     1
102
RTVSPropertyOp40
 70
     1
102
RTVSPropertyOp41
 70
     1
102
RTVSPropertyOp42
 70
     1
102
RTVSPropertyOp43
 70
     1
102
RTVSPropertyOp44
 70
     1
102
RTVSPropertyOp45
 70
     1
102
RTVSPropertyOp46
 70
     1
102
RTVSPropertyOp47
 70
     1
102
RTVSPropertyOp48
 70
     1
102
RTVSPropertyOp49
 70
     1
102
RTVSPropertyOp50
 70
     1
102
RTVSPropertyOp51
 70
     0
102
RTVSPropertyOp52
 70
     0
102
RTVSPropertyOp53
 70
     1
102
RTVSPropertyOp54
 70
     1
102
RTVSPropertyOp55
 70
     1
102
RTVSPropertyOp56
 70
     1
102
RTVSPropertyOp57
 70
     1
102
RTVSPost2010Prop28
280
     0
102
RTVSPost2010PropOp28
 70
     1
102
RTVSPost2010Prop29
280
     1
102
RTVSPost2010PropOp29
 70
     1
102
RTVSPost2010Prop30
280
     1
102
RTVSPost2010PropOp30
 70
     1
102
RTVSPost2010Prop31
280
     0
102
RTVSPost2010PropOp31
 70
     1
102
RTVSPost2010Prop32
280
     0
102
RTVSPost2010PropOp32
 70
     1
102
RTVSPost2010Prop33
280
     0
102
RTVSPost2010PropOp33
 70
     1
102
RTVSPost2010Prop34
280
     0
102
RTVSPost2010PropOp34
 70
     1
102
RTVSPost2010Prop35
280
     0
102
RTVSPost2010PropOp35
 70
     1
102
RTVSPost2010Prop36
280
     0
102
RTVSPost2010PropOp36
 70
     1
102
RTVSPost2010Prop37
 90
       50
102
RTVSPost2010PropOp37
 70
     1
102
RTVSPost2010Prop38
140
0.0
102
RTVSPost2010PropOp38
 70
     1
102
RTVSPost2010Prop39
140
1.0
102
RTVSPost2010PropOp39
 70
     1
102
RTVSPost2010Prop40
 90
        0
102
RTVSPost2010PropOp40
 70
     1
102
RTVSPost2010Prop41ColorIndex
 90
      178
102
RTVSPost2010Prop41ColorRGB
 90
        0
102
RTVSPost2010PropOp41
 70
     1
102
RTVSPost2010Prop42
 90
       50
102
RTVSPost2010PropOp42
 70
     1
102
RTVSPost2010Prop43
 90
        3
102
RTVSPost2010PropOp43
 70
     1
102
RTVSPost2010Prop44ColorIndex
 90
        5
102
RTVSPost2010Prop44ColorRGB
 90
      255
102
RTVSPost2010PropOp44
 70
     1
102
RTVSPost2010Prop45
280
     0
102
RTVSPost2010PropOp45
 70
     1
102
RTVSPost2010Prop46
 90
       50
102
RTVSPost2010PropOp46
 70
     1
102
RTVSPost2010Prop47
 90
       50
102
RTVSPost2010PropOp47
 70
     1
102
RTVSPost2010Prop48
 90
       50
102
RTVSPost2010PropOp48
 70
     1
102
RTVSPost2010Prop49
280
     0
102
RTVSPost2010PropOp49
 70
     1
102
RTVSPost2010Prop50
 90
       50
102
RTVSPost2010PropOp50
 70
     1
102
RTVSPost2010Prop51ColorIndex
 90
      256
102
RTVSPost2010Prop51ColorRGB
 90
-16777216
102
RTVSPost2010PropOp51
 70
     0
102
RTVSPost2010Prop52
140
1.0
102
RTVSPost2010PropOp52
 70
     0
102
RTVSPost2010Prop53
 90
        2
102
RTVSPost2010PropOp53
 70
     1
102
RTVSPost2010Prop54
  1
strokes_ogs.tif
102
RTVSPost2010PropOp54
 70
     1
102
RTVSPost2010Prop55
280
     0
102
RTVSPost2010PropOp55
 70
     1
102
RTVSPost2010Prop56
140
1.0
102
RTVSPost2010PropOp56
 70
     1
102
RTVSPost2010Prop57
140
1.0
102
RTVSPost2010PropOp57
 70
     1
  0
XRECORD
  5
400
102
{ACAD_REACTORS
330
3FF
102
}
330
3FF
100
AcDbXrecord
280
     1
102
RTVSPropertyOp0
 70
     1
102
RTVSPropertyOp1
 70
     1
102
RTVSPropertyOp2
 70
     1
102
RTVSPropertyOp3
 70
     1
102
RTVSPropertyOp4
 70
     1
102
RTVSPropertyOp5
 70
     1
102
RTVSPropertyOp6
 70
     1
102
RTVSPropertyOp7
 70
     1
102
RTVSPropertyOp8
 70
     1
102
RTVSPropertyOp9
 70
     1
102
RTVSPropertyOp10
 70
     1
102
RTVSPropertyOp11
 70
     1
102
RTVSPropertyOp12
 70
     1
102
RTVSPropertyOp13
 70
     1
102
RTVSPropertyOp14
 70
     1
102
RTVSPropertyOp15
 70
     1
102
RTVSPropertyOp16
 70
     1
102
RTVSPropertyOp17
 70
     1
102
RTVSPropertyOp18
 70
     1
102
RTVSPropertyOp19
 70
     1
102
RTVSPropertyOp20
 70
     1
102
RTVSPropertyOp21
 70
     1
102
RTVSPropertyOp22
 70
     1
102
RTVSPropertyOp23
 70
     1
102
RTVSPropertyOp24
 70
     1
102
RTVSPropertyOp25
 70
     1
102
RTVSPropertyOp26
 70
     1
102
RTVSPropertyOp27
 70
     1
102
RTVSPropertyOp28
 70
     1
102
RTVSPropertyOp29
 70
     1
102
RTVSPropertyOp30
 70
     1
102
RTVSPropertyOp31
 70
     1
102
RTVSPropertyOp32
 70
     1
102
RTVSPropertyOp33
 70
     1
102
RTVSPropertyOp34
 70
     1
102
RTVSPropertyOp35
 70
     1
102
RTVSPropertyOp36
 70
     1
102
RTVSPropertyOp37
 70
     1
102
RTVSPropertyOp38
 70
     1
102
RTVSPropertyOp39
 70
     1
102
RTVSPropertyOp40
 70
     1
102
RTVSPropertyOp41
 70
     1
102
RTVSPropertyOp42
 70
     1
102
RTVSPropertyOp43
 70
     1
102
RTVSPropertyOp44
 70
     1
102
RTVSPropertyOp45
 70
     1
102
RTVSPropertyOp46
 70
     1
102
RTVSPropertyOp47
 70
     1
102
RTVSPropertyOp48
 70
     1
102
RTVSPropertyOp49
 70
     1
102
RTVSPropertyOp50
 70
     1
102
RTVSPropertyOp51
 70
     0
102
RTVSPropertyOp52
 70
     0
102
RTVSPropertyOp53
 70
     1
102
RTVSPropertyOp54
 70
     1
102
RTVSPropertyOp55
 70
     1
102
RTVSPropertyOp56
 70
     1
102
RTVSPropertyOp57
 70
     1
102
RTVSPost2010Prop28
280
     0
102
RTVSPost2010PropOp28
 70
     1
102
RTVSPost2010Prop29
280
     1
102
RTVSPost2010PropOp29
 70
     1
102
RTVSPost2010Prop30
280
     1
102
RTVSPost2010PropOp30
 70
     1
102
RTVSPost2010Prop31
280
     0
102
RTVSPost2010PropOp31
 70
     1
102
RTVSPost2010Prop32
280
     0
102
RTVSPost2010PropOp32
 70
     1
102
RTVSPost2010Prop33
280
     0
102
RTVSPost2010PropOp33
 70
     1
102
RTVSPost2010Prop34
280
     0
102
RTVSPost2010PropOp34
 70
     1
102
RTVSPost2010Prop35
280
     0
102
RTVSPost2010PropOp35
 70
     1
102
RTVSPost2010Prop36
280
     0
102
RTVSPost2010PropOp36
 70
     1
102
RTVSPost2010Prop37
 90
       50
102
RTVSPost2010PropOp37
 70
     1
102
RTVSPost2010Prop38
140
0.0
102
RTVSPost2010PropOp38
 70
     1
102
RTVSPost2010Prop39
140
1.0
102
RTVSPost2010PropOp39
 70
     1
102
RTVSPost2010Prop40
 90
        0
102
RTVSPost2010PropOp40
 70
     1
102
RTVSPost2010Prop41ColorIndex
 90
      178
102
RTVSPost2010Prop41ColorRGB
 90
        0
102
RTVSPost2010PropOp41
 70
     1
102
RTVSPost2010Prop42
 90
       50
102
RTVSPost2010PropOp42
 70
     1
102
RTVSPost2010Prop43
 90
        3
102
RTVSPost2010PropOp43
 70
     1
102
RTVSPost2010Prop44ColorIndex
 90
        5
102
RTVSPost2010Prop44ColorRGB
 90
      255
102
RTVSPost2010PropOp44
 70
     1
102
RTVSPost2010Prop45
280
     0
102
RTVSPost2010PropOp45
 70
     1
102
RTVSPost2010Prop46
 90
       50
102
RTVSPost2010PropOp46
 70
     1
102
RTVSPost2010Prop47
 90
       50
102
RTVSPost2010PropOp47
 70
     1
102
RTVSPost2010Prop48
 90
       50
102
RTVSPost2010PropOp48
 70
     1
102
RTVSPost2010Prop49
280
     0
102
RTVSPost2010PropOp49
 70
     1
102
RTVSPost2010Prop50
 90
       50
102
RTVSPost2010PropOp50
 70
     1
102
RTVSPost2010Prop51ColorIndex
 90
      256
102
RTVSPost2010Prop51ColorRGB
 90
-16777216
102
RTVSPost2010PropOp51
 70
     0
102
RTVSPost2010Prop52
140
1.0
102
RTVSPost2010PropOp52
 70
     0
102
RTVSPost2010Prop53
 90
        2
102
RTVSPost2010PropOp53
 70
     1
102
RTVSPost2010Prop54
  1
strokes_ogs.tif
102
RTVSPost2010PropOp54
 70
     1
102
RTVSPost2010Prop55
280
     0
102
RTVSPost2010PropOp55
 70
     1
102
RTVSPost2010Prop56
140
1.0
102
RTVSPost2010PropOp56
 70
     1
102
RTVSPost2010Prop57
140
1.0
102
RTVSPost2010PropOp57
 70
     1
  0
XRECORD
  5
402
102
{ACAD_REACTORS
330
401
102
}
330
401
100
AcDbXrecord
280
     1
102
RTVSPropertyOp0
 70
     1
102
RTVSPropertyOp1
 70
     1
102
RTVSPropertyOp2
 70
     1
102
RTVSPropertyOp3
 70
     1
102
RTVSPropertyOp4
 70
     1
102
RTVSPropertyOp5
 70
     1
102
RTVSPropertyOp6
 70
     1
102
RTVSPropertyOp7
 70
     1
102
RTVSPropertyOp8
 70
     1
102
RTVSPropertyOp9
 70
     1
102
RTVSPropertyOp10
 70
     1
102
RTVSPropertyOp11
 70
     1
102
RTVSPropertyOp12
 70
     1
102
RTVSPropertyOp13
 70
     1
102
RTVSPropertyOp14
 70
     1
102
RTVSPropertyOp15
 70
     1
102
RTVSPropertyOp16
 70
     1
102
RTVSPropertyOp17
 70
     1
102
RTVSPropertyOp18
 70
     1
102
RTVSPropertyOp19
 70
     1
102
RTVSPropertyOp20
 70
     1
102
RTVSPropertyOp21
 70
     1
102
RTVSPropertyOp22
 70
     1
102
RTVSPropertyOp23
 70
     1
102
RTVSPropertyOp24
 70
     1
102
RTVSPropertyOp25
 70
     1
102
RTVSPropertyOp26
 70
     1
102
RTVSPropertyOp27
 70
     1
102
RTVSPropertyOp28
 70
     1
102
RTVSPropertyOp29
 70
     1
102
RTVSPropertyOp30
 70
     1
102
RTVSPropertyOp31
 70
     1
102
RTVSPropertyOp32
 70
     1
102
RTVSPropertyOp33
 70
     1
102
RTVSPropertyOp34
 70
     1
102
RTVSPropertyOp35
 70
     1
102
RTVSPropertyOp36
 70
     1
102
RTVSPropertyOp37
 70
     1
102
RTVSPropertyOp38
 70
     1
102
RTVSPropertyOp39
 70
     1
102
RTVSPropertyOp40
 70
     1
102
RTVSPropertyOp41
 70
     1
102
RTVSPropertyOp42
 70
     1
102
RTVSPropertyOp43
 70
     1
102
RTVSPropertyOp44
 70
     1
102
RTVSPropertyOp45
 70
     1
102
RTVSPropertyOp46
 70
     1
102
RTVSPropertyOp47
 70
     1
102
RTVSPropertyOp48
 70
     1
102
RTVSPropertyOp49
 70
     1
102
RTVSPropertyOp50
 70
     1
102
RTVSPropertyOp51
 70
     0
102
RTVSPropertyOp52
 70
     0
102
RTVSPropertyOp53
 70
     1
102
RTVSPropertyOp54
 70
     1
102
RTVSPropertyOp55
 70
     1
102
RTVSPropertyOp56
 70
     1
102
RTVSPropertyOp57
 70
     1
102
RTVSPost2010Prop28
280
     0
102
RTVSPost2010PropOp28
 70
     1
102
RTVSPost2010Prop29
280
     1
102
RTVSPost2010PropOp29
 70
     1
102
RTVSPost2010Prop30
280
     1
102
RTVSPost2010PropOp30
 70
     1
102
RTVSPost2010Prop31
280
     0
102
RTVSPost2010PropOp31
 70
     1
102
RTVSPost2010Prop32
280
     0
102
RTVSPost2010PropOp32
 70
     1
102
RTVSPost2010Prop33
280
     0
102
RTVSPost2010PropOp33
 70
     1
102
RTVSPost2010Prop34
280
     0
102
RTVSPost2010PropOp34
 70
     1
102
RTVSPost2010Prop35
280
     0
102
RTVSPost2010PropOp35
 70
     1
102
RTVSPost2010Prop36
280
     0
102
RTVSPost2010PropOp36
 70
     1
102
RTVSPost2010Prop37
 90
       50
102
RTVSPost2010PropOp37
 70
     1
102
RTVSPost2010Prop38
140
0.0
102
RTVSPost2010PropOp38
 70
     1
102
RTVSPost2010Prop39
140
1.0
102
RTVSPost2010PropOp39
 70
     1
102
RTVSPost2010Prop40
 90
        0
102
RTVSPost2010PropOp40
 70
     1
102
RTVSPost2010Prop41ColorIndex
 90
      178
102
RTVSPost2010Prop41ColorRGB
 90
        0
102
RTVSPost2010PropOp41
 70
     1
102
RTVSPost2010Prop42
 90
       50
102
RTVSPost2010PropOp42
 70
     1
102
RTVSPost2010Prop43
 90
        3
102
RTVSPost2010PropOp43
 70
     1
102
RTVSPost2010Prop44ColorIndex
 90
        5
102
RTVSPost2010Prop44ColorRGB
 90
      255
102
RTVSPost2010PropOp44
 70
     1
102
RTVSPost2010Prop45
280
     0
102
RTVSPost2010PropOp45
 70
     1
102
RTVSPost2010Prop46
 90
       50
102
RTVSPost2010PropOp46
 70
     1
102
RTVSPost2010Prop47
 90
       50
102
RTVSPost2010PropOp47
 70
     1
102
RTVSPost2010Prop48
 90
       50
102
RTVSPost2010PropOp48
 70
     1
102
RTVSPost2010Prop49
280
     0
102
RTVSPost2010PropOp49
 70
     1
102
RTVSPost2010Prop50
 90
       50
102
RTVSPost2010PropOp50
 70
     1
102
RTVSPost2010Prop51ColorIndex
 90
      256
102
RTVSPost2010Prop51ColorRGB
 90
-16777216
102
RTVSPost2010PropOp51
 70
     0
102
RTVSPost2010Prop52
140
1.0
102
RTVSPost2010PropOp52
 70
     0
102
RTVSPost2010Prop53
 90
        2
102
RTVSPost2010PropOp53
 70
     1
102
RTVSPost2010Prop54
  1
strokes_ogs.tif
102
RTVSPost2010PropOp54
 70
     1
102
RTVSPost2010Prop55
280
     0
102
RTVSPost2010PropOp55
 70
     1
102
RTVSPost2010Prop56
140
1.0
102
RTVSPost2010PropOp56
 70
     1
102
RTVSPost2010Prop57
140
1.0
102
RTVSPost2010PropOp57
 70
     1
  0
XRECORD
  5
3F2
102
{ACAD_REACTORS
330
3F1
102
}
330
3F1
100
AcDbXrecord
280
     1
102
RTVSPropertyOp0
 70
     1
102
RTVSPropertyOp1
 70
     1
102
RTVSPropertyOp2
 70
     1
102
RTVSPropertyOp3
 70
     1
102
RTVSPropertyOp4
 70
     1
102
RTVSPropertyOp5
 70
     1
102
RTVSPropertyOp6
 70
     1
102
RTVSPropertyOp7
 70
     1
102
RTVSPropertyOp8
 70
     1
102
RTVSPropertyOp9
 70
     1
102
RTVSPropertyOp10
 70
     1
102
RTVSPropertyOp11
 70
     1
102
RTVSPropertyOp12
 70
     1
102
RTVSPropertyOp13
 70
     1
102
RTVSPropertyOp14
 70
     1
102
RTVSPropertyOp15
 70
     1
102
RTVSPropertyOp16
 70
     1
102
RTVSPropertyOp17
 70
     1
102
RTVSPropertyOp18
 70
     1
102
RTVSPropertyOp19
 70
     1
102
RTVSPropertyOp20
 70
     1
102
RTVSPropertyOp21
 70
     1
102
RTVSPropertyOp22
 70
     1
102
RTVSPropertyOp23
 70
     1
102
RTVSPropertyOp24
 70
     1
102
RTVSPropertyOp25
 70
     1
102
RTVSPropertyOp26
 70
     1
102
RTVSPropertyOp27
 70
     1
102
RTVSPropertyOp28
 70
     1
102
RTVSPropertyOp29
 70
     1
102
RTVSPropertyOp30
 70
     1
102
RTVSPropertyOp31
 70
     1
102
RTVSPropertyOp32
 70
     1
102
RTVSPropertyOp33
 70
     1
102
RTVSPropertyOp34
 70
     1
102
RTVSPropertyOp35
 70
     1
102
RTVSPropertyOp36
 70
     1
102
RTVSPropertyOp37
 70
     1
102
RTVSPropertyOp38
 70
     1
102
RTVSPropertyOp39
 70
     1
102
RTVSPropertyOp40
 70
     1
102
RTVSPropertyOp41
 70
     1
102
RTVSPropertyOp42
 70
     1
102
RTVSPropertyOp43
 70
     1
102
RTVSPropertyOp44
 70
     1
102
RTVSPropertyOp45
 70
     1
102
RTVSPropertyOp46
 70
     1
102
RTVSPropertyOp47
 70
     1
102
RTVSPropertyOp48
 70
     1
102
RTVSPropertyOp49
 70
     1
102
RTVSPropertyOp50
 70
     1
102
RTVSPropertyOp51
 70
     0
102
RTVSPropertyOp52
 70
     0
102
RTVSPropertyOp53
 70
     1
102
RTVSPropertyOp54
 70
     1
102
RTVSPropertyOp55
 70
     1
102
RTVSPropertyOp56
 70
     1
102
RTVSPropertyOp57
 70
     1
102
RTVSPost2010Prop28
280
     0
102
RTVSPost2010PropOp28
 70
     1
102
RTVSPost2010Prop29
280
     1
102
RTVSPost2010PropOp29
 70
     1
102
RTVSPost2010Prop30
280
     1
102
RTVSPost2010PropOp30
 70
     1
102
RTVSPost2010Prop31
280
     0
102
RTVSPost2010PropOp31
 70
     1
102
RTVSPost2010Prop32
280
     0
102
RTVSPost2010PropOp32
 70
     1
102
RTVSPost2010Prop33
280
     0
102
RTVSPost2010PropOp33
 70
     1
102
RTVSPost2010Prop34
280
     0
102
RTVSPost2010PropOp34
 70
     1
102
RTVSPost2010Prop35
280
     0
102
RTVSPost2010PropOp35
 70
     1
102
RTVSPost2010Prop36
280
     0
102
RTVSPost2010PropOp36
 70
     1
102
RTVSPost2010Prop37
 90
       50
102
RTVSPost2010PropOp37
 70
     1
102
RTVSPost2010Prop38
140
0.0
102
RTVSPost2010PropOp38
 70
     1
102
RTVSPost2010Prop39
140
1.0
102
RTVSPost2010PropOp39
 70
     1
102
RTVSPost2010Prop40
 90
        0
102
RTVSPost2010PropOp40
 70
     1
102
RTVSPost2010Prop41ColorIndex
 90
      178
102
RTVSPost2010Prop41ColorRGB
 90
        0
102
RTVSPost2010PropOp41
 70
     1
102
RTVSPost2010Prop42
 90
       50
102
RTVSPost2010PropOp42
 70
     1
102
RTVSPost2010Prop43
 90
        3
102
RTVSPost2010PropOp43
 70
     1
102
RTVSPost2010Prop44ColorIndex
 90
        5
102
RTVSPost2010Prop44ColorRGB
 90
      255
102
RTVSPost2010PropOp44
 70
     1
102
RTVSPost2010Prop45
280
     0
102
RTVSPost2010PropOp45
 70
     1
102
RTVSPost2010Prop46
 90
       50
102
RTVSPost2010PropOp46
 70
     1
102
RTVSPost2010Prop47
 90
       50
102
RTVSPost2010PropOp47
 70
     1
102
RTVSPost2010Prop48
 90
       50
102
RTVSPost2010PropOp48
 70
     1
102
RTVSPost2010Prop49
280
     0
102
RTVSPost2010PropOp49
 70
     1
102
RTVSPost2010Prop50
 90
       50
102
RTVSPost2010PropOp50
 70
     1
102
RTVSPost2010Prop51ColorIndex
 90
      256
102
RTVSPost2010Prop51ColorRGB
 90
-16777216
102
RTVSPost2010PropOp51
 70
     0
102
RTVSPost2010Prop52
140
1.0
102
RTVSPost2010PropOp52
 70
     0
102
RTVSPost2010Prop53
 90
        2
102
RTVSPost2010PropOp53
 70
     1
102
RTVSPost2010Prop54
  1
strokes_ogs.tif
102
RTVSPost2010PropOp54
 70
     1
102
RTVSPost2010Prop55
280
     0
102
RTVSPost2010PropOp55
 70
     1
102
RTVSPost2010Prop56
140
1.0
102
RTVSPost2010PropOp56
 70
     1
102
RTVSPost2010Prop57
140
1.0
102
RTVSPost2010PropOp57
 70
     1
  0
XRECORD
  5
3E4
102
{ACAD_REACTORS
330
3E3
102
}
330
3E3
100
AcDbXrecord
280
     1
102
RTVSPropertyOp0
 70
     1
102
RTVSPropertyOp1
 70
     1
102
RTVSPropertyOp2
 70
     1
102
RTVSPropertyOp3
 70
     1
102
RTVSPropertyOp4
 70
     1
102
RTVSPropertyOp5
 70
     1
102
RTVSPropertyOp6
 70
     1
102
RTVSPropertyOp7
 70
     1
102
RTVSPropertyOp8
 70
     1
102
RTVSPropertyOp9
 70
     1
102
RTVSPropertyOp10
 70
     1
102
RTVSPropertyOp11
 70
     1
102
RTVSPropertyOp12
 70
     1
102
RTVSPropertyOp13
 70
     1
102
RTVSPropertyOp14
 70
     1
102
RTVSPropertyOp15
 70
     1
102
RTVSPropertyOp16
 70
     1
102
RTVSPropertyOp17
 70
     1
102
RTVSPropertyOp18
 70
     1
102
RTVSPropertyOp19
 70
     1
102
RTVSPropertyOp20
 70
     1
102
RTVSPropertyOp21
 70
     1
102
RTVSPropertyOp22
 70
     1
102
RTVSPropertyOp23
 70
     1
102
RTVSPropertyOp24
 70
     1
102
RTVSPropertyOp25
 70
     1
102
RTVSPropertyOp26
 70
     1
102
RTVSPropertyOp27
 70
     1
102
RTVSPropertyOp28
 70
     1
102
RTVSPropertyOp29
 70
     1
102
RTVSPropertyOp30
 70
     1
102
RTVSPropertyOp31
 70
     1
102
RTVSPropertyOp32
 70
     1
102
RTVSPropertyOp33
 70
     1
102
RTVSPropertyOp34
 70
     1
102
RTVSPropertyOp35
 70
     1
102
RTVSPropertyOp36
 70
     1
102
RTVSPropertyOp37
 70
     1
102
RTVSPropertyOp38
 70
     1
102
RTVSPropertyOp39
 70
     1
102
RTVSPropertyOp40
 70
     1
102
RTVSPropertyOp41
 70
     1
102
RTVSPropertyOp42
 70
     1
102
RTVSPropertyOp43
 70
     1
102
RTVSPropertyOp44
 70
     1
102
RTVSPropertyOp45
 70
     1
102
RTVSPropertyOp46
 70
     1
102
RTVSPropertyOp47
 70
     1
102
RTVSPropertyOp48
 70
     1
102
RTVSPropertyOp49
 70
     1
102
RTVSPropertyOp50
 70
     1
102
RTVSPropertyOp51
 70
     0
102
RTVSPropertyOp52
 70
     0
102
RTVSPropertyOp53
 70
     1
102
RTVSPropertyOp54
 70
     1
102
RTVSPropertyOp55
 70
     1
102
RTVSPropertyOp56
 70
     1
102
RTVSPropertyOp57
 70
     1
102
RTVSPost2010Prop28
280
     0
102
RTVSPost2010PropOp28
 70
     1
102
RTVSPost2010Prop29
280
     1
102
RTVSPost2010PropOp29
 70
     1
102
RTVSPost2010Prop30
280
     1
102
RTVSPost2010PropOp30
 70
     1
102
RTVSPost2010Prop31
280
     0
102
RTVSPost2010PropOp31
 70
     1
102
RTVSPost2010Prop32
280
     0
102
RTVSPost2010PropOp32
 70
     1
102
RTVSPost2010Prop33
280
     0
102
RTVSPost2010PropOp33
 70
     1
102
RTVSPost2010Prop34
280
     0
102
RTVSPost2010PropOp34
 70
     1
102
RTVSPost2010Prop35
280
     0
102
RTVSPost2010PropOp35
 70
     1
102
RTVSPost2010Prop36
280
     0
102
RTVSPost2010PropOp36
 70
     1
102
RTVSPost2010Prop37
 90
       50
102
RTVSPost2010PropOp37
 70
     1
102
RTVSPost2010Prop38
140
0.0
102
RTVSPost2010PropOp38
 70
     1
102
RTVSPost2010Prop39
140
1.0
102
RTVSPost2010PropOp39
 70
     1
102
RTVSPost2010Prop40
 90
        0
102
RTVSPost2010PropOp40
 70
     1
102
RTVSPost2010Prop41ColorIndex
 90
      178
102
RTVSPost2010Prop41ColorRGB
 90
        0
102
RTVSPost2010PropOp41
 70
     1
102
RTVSPost2010Prop42
 90
       50
102
RTVSPost2010PropOp42
 70
     1
102
RTVSPost2010Prop43
 90
        3
102
RTVSPost2010PropOp43
 70
     1
102
RTVSPost2010Prop44ColorIndex
 90
        5
102
RTVSPost2010Prop44ColorRGB
 90
      255
102
RTVSPost2010PropOp44
 70
     1
102
RTVSPost2010Prop45
280
     0
102
RTVSPost2010PropOp45
 70
     1
102
RTVSPost2010Prop46
 90
       50
102
RTVSPost2010PropOp46
 70
     1
102
RTVSPost2010Prop47
 90
       50
102
RTVSPost2010PropOp47
 70
     1
102
RTVSPost2010Prop48
 90
       50
102
RTVSPost2010PropOp48
 70
     1
102
RTVSPost2010Prop49
280
     0
102
RTVSPost2010PropOp49
 70
     1
102
RTVSPost2010Prop50
 90
       50
102
RTVSPost2010PropOp50
 70
     1
102
RTVSPost2010Prop51ColorIndex
 90
      256
102
RTVSPost2010Prop51ColorRGB
 90
-16777216
102
RTVSPost2010PropOp51
 70
     0
102
RTVSPost2010Prop52
140
1.0
102
RTVSPost2010PropOp52
 70
     0
102
RTVSPost2010Prop53
 90
        2
102
RTVSPost2010PropOp53
 70
     1
102
RTVSPost2010Prop54
  1
strokes_ogs.tif
102
RTVSPost2010PropOp54
 70
     1
102
RTVSPost2010Prop55
280
     0
102
RTVSPost2010PropOp55
 70
     1
102
RTVSPost2010Prop56
140
1.0
102
RTVSPost2010PropOp56
 70
     1
102
RTVSPost2010Prop57
140
1.0
102
RTVSPost2010PropOp57
 70
     1
  0
XRECORD
  5
404
102
{ACAD_REACTORS
330
403
102
}
330
403
100
AcDbXrecord
280
     1
102
RTVSPropertyOp0
 70
     1
102
RTVSPropertyOp1
 70
     1
102
RTVSPropertyOp2
 70
     1
102
RTVSPropertyOp3
 70
     1
102
RTVSPropertyOp4
 70
     1
102
RTVSPropertyOp5
 70
     1
102
RTVSPropertyOp6
 70
     1
102
RTVSPropertyOp7
 70
     1
102
RTVSPropertyOp8
 70
     1
102
RTVSPropertyOp9
 70
     1
102
RTVSPropertyOp10
 70
     1
102
RTVSPropertyOp11
 70
     1
102
RTVSPropertyOp12
 70
     1
102
RTVSPropertyOp13
 70
     1
102
RTVSPropertyOp14
 70
     1
102
RTVSPropertyOp15
 70
     1
102
RTVSPropertyOp16
 70
     1
102
RTVSPropertyOp17
 70
     1
102
RTVSPropertyOp18
 70
     1
102
RTVSPropertyOp19
 70
     1
102
RTVSPropertyOp20
 70
     1
102
RTVSPropertyOp21
 70
     1
102
RTVSPropertyOp22
 70
     1
102
RTVSPropertyOp23
 70
     1
102
RTVSPropertyOp24
 70
     1
102
RTVSPropertyOp25
 70
     1
102
RTVSPropertyOp26
 70
     1
102
RTVSPropertyOp27
 70
     1
102
RTVSPropertyOp28
 70
     1
102
RTVSPropertyOp29
 70
     1
102
RTVSPropertyOp30
 70
     1
102
RTVSPropertyOp31
 70
     1
102
RTVSPropertyOp32
 70
     1
102
RTVSPropertyOp33
 70
     1
102
RTVSPropertyOp34
 70
     1
102
RTVSPropertyOp35
 70
     1
102
RTVSPropertyOp36
 70
     1
102
RTVSPropertyOp37
 70
     1
102
RTVSPropertyOp38
 70
     1
102
RTVSPropertyOp39
 70
     1
102
RTVSPropertyOp40
 70
     1
102
RTVSPropertyOp41
 70
     1
102
RTVSPropertyOp42
 70
     1
102
RTVSPropertyOp43
 70
     1
102
RTVSPropertyOp44
 70
     1
102
RTVSPropertyOp45
 70
     1
102
RTVSPropertyOp46
 70
     1
102
RTVSPropertyOp47
 70
     1
102
RTVSPropertyOp48
 70
     1
102
RTVSPropertyOp49
 70
     1
102
RTVSPropertyOp50
 70
     1
102
RTVSPropertyOp51
 70
     0
102
RTVSPropertyOp52
 70
     0
102
RTVSPropertyOp53
 70
     1
102
RTVSPropertyOp54
 70
     1
102
RTVSPropertyOp55
 70
     1
102
RTVSPropertyOp56
 70
     1
102
RTVSPropertyOp57
 70
     1
102
RTVSPost2010Prop28
280
     0
102
RTVSPost2010PropOp28
 70
     1
102
RTVSPost2010Prop29
280
     1
102
RTVSPost2010PropOp29
 70
     1
102
RTVSPost2010Prop30
280
     1
102
RTVSPost2010PropOp30
 70
     1
102
RTVSPost2010Prop31
280
     0
102
RTVSPost2010PropOp31
 70
     1
102
RTVSPost2010Prop32
280
     0
102
RTVSPost2010PropOp32
 70
     1
102
RTVSPost2010Prop33
280
     0
102
RTVSPost2010PropOp33
 70
     1
102
RTVSPost2010Prop34
280
     0
102
RTVSPost2010PropOp34
 70
     1
102
RTVSPost2010Prop35
280
     0
102
RTVSPost2010PropOp35
 70
     1
102
RTVSPost2010Prop36
280
     0
102
RTVSPost2010PropOp36
 70
     1
102
RTVSPost2010Prop37
 90
       50
102
RTVSPost2010PropOp37
 70
     1
102
RTVSPost2010Prop38
140
0.0
102
RTVSPost2010PropOp38
 70
     1
102
RTVSPost2010Prop39
140
1.0
102
RTVSPost2010PropOp39
 70
     1
102
RTVSPost2010Prop40
 90
        0
102
RTVSPost2010PropOp40
 70
     1
102
RTVSPost2010Prop41ColorIndex
 90
      178
102
RTVSPost2010Prop41ColorRGB
 90
        0
102
RTVSPost2010PropOp41
 70
     1
102
RTVSPost2010Prop42
 90
       50
102
RTVSPost2010PropOp42
 70
     1
102
RTVSPost2010Prop43
 90
        3
102
RTVSPost2010PropOp43
 70
     1
102
RTVSPost2010Prop44ColorIndex
 90
        5
102
RTVSPost2010Prop44ColorRGB
 90
      255
102
RTVSPost2010PropOp44
 70
     1
102
RTVSPost2010Prop45
280
     0
102
RTVSPost2010PropOp45
 70
     1
102
RTVSPost2010Prop46
 90
       50
102
RTVSPost2010PropOp46
 70
     1
102
RTVSPost2010Prop47
 90
       50
102
RTVSPost2010PropOp47
 70
     1
102
RTVSPost2010Prop48
 90
       50
102
RTVSPost2010PropOp48
 70
     1
102
RTVSPost2010Prop49
280
     0
102
RTVSPost2010PropOp49
 70
     1
102
RTVSPost2010Prop50
 90
       50
102
RTVSPost2010PropOp50
 70
     1
102
RTVSPost2010Prop51ColorIndex
 90
      256
102
RTVSPost2010Prop51ColorRGB
 90
-16777216
102
RTVSPost2010PropOp51
 70
     0
102
RTVSPost2010Prop52
140
1.0
102
RTVSPost2010PropOp52
 70
     0
102
RTVSPost2010Prop53
 90
        2
102
RTVSPost2010PropOp53
 70
     1
102
RTVSPost2010Prop54
  1
strokes_ogs.tif
102
RTVSPost2010PropOp54
 70
     1
102
RTVSPost2010Prop55
280
     0
102
RTVSPost2010PropOp55
 70
     1
102
RTVSPost2010Prop56
140
1.0
102
RTVSPost2010PropOp56
 70
     1
102
RTVSPost2010Prop57
140
1.0
102
RTVSPost2010PropOp57
 70
     1
  0
ENDSEC
  0
EOF
