  0
SECTION
  2
HEADER
  9
$ACADVER
  1
AC1021
  9
$ACADMAINTVER
 70
    25
  9
$DWGCODEPAGE
  3
ANSI_1252
  9
$INSBASE
 10
0.0
 20
0.0
 30
0.0
  9
$EXTMIN
 10
1.000000000000000E+20
 20
1.000000000000000E+20
 30
1.000000000000000E+20
  9
$EXTMAX
 10
-1.000000000000000E+20
 20
-1.000000000000000E+20
 30
-1.000000000000000E+20
  9
$LIMMIN
 10
0.0
 20
0.0
  9
$LIMMAX
 10
12.0
 20
9.0
  9
$ORTHOMODE
 70
     0
  9
$REGENMODE
 70
     1
  9
$FILLMODE
 70
     1
  9
$QTEXTMODE
 70
     0
  9
$MIRRTEXT
 70
     1
  9
$LTSCALE
 40
1.0
  9
$ATTMODE
 70
     1
  9
$TEXTSIZE
 40
0.2
  9
$TRACEWID
 40
0.05
  9
$TEXTSTYLE
  7
Standard
  9
$CLAYER
  8
Graypants_Float36
  9
$CELTYPE
  6
ByLayer
  9
$CECOLOR
 62
   256
  9
$CELTSCALE
 40
1.0
  9
$DISPSILH
 70
     0
  9
$DIMSCALE
 40
1.0
  9
$DIMASZ
 40
0.18
  9
$DIMEXO
 40
0.0625
  9
$DIMDLI
 40
0.38
  9
$DIMRND
 40
0.0
  9
$DIMDLE
 40
0.0
  9
$DIMEXE
 40
0.18
  9
$DIMTP
 40
0.0
  9
$DIMTM
 40
0.0
  9
$DIMTXT
 40
0.18
  9
$DIMCEN
 40
0.09
  9
$DIMTSZ
 40
0.0
  9
$DIMTOL
 70
     0
  9
$DIMLIM
 70
     0
  9
$DIMTIH
 70
     1
  9
$DIMTOH
 70
     1
  9
$DIMSE1
 70
     0
  9
$DIMSE2
 70
     0
  9
$DIMTAD
 70
     0
  9
$DIMZIN
 70
     0
  9
$DIMBLK
  1

  9
$DIMASO
 70
     1
  9
$DIMSHO
 70
     1
  9
$DIMPOST
  1

  9
$DIMAPOST
  1

  9
$DIMALT
 70
     0
  9
$DIMALTD
 70
     2
  9
$DIMALTF
 40
25.4
  9
$DIMLFAC
 40
1.0
  9
$DIMTOFL
 70
     0
  9
$DIMTVP
 40
0.0
  9
$DIMTIX
 70
     0
  9
$DIMSOXD
 70
     0
  9
$DIMSAH
 70
     0
  9
$DIMBLK1
  1

  9
$DIMBLK2
  1

  9
$DIMSTYLE
  2
STANDARD_ACAD
  9
$DIMCLRD
 70
     0
  9
$DIMCLRE
 70
     0
  9
$DIMCLRT
 70
     0
  9
$DIMTFAC
 40
1.0
  9
$DIMGAP
 40
0.09
  9
$DIMJUST
 70
     0
  9
$DIMSD1
 70
     0
  9
$DIMSD2
 70
     0
  9
$DIMTOLJ
 70
     1
  9
$DIMTZIN
 70
     0
  9
$DIMALTZ
 70
     0
  9
$DIMALTTZ
 70
     0
  9
$DIMUPT
 70
     0
  9
$DIMDEC
 70
     4
  9
$DIMTDEC
 70
     4
  9
$DIMALTU
 70
     2
  9
$DIMALTTD
 70
     2
  9
$DIMTXSTY
  7
Standard
  9
$DIMAUNIT
 70
     0
  9
$DIMADEC
 70
     0
  9
$DIMALTRND
 40
0.0
  9
$DIMAZIN
 70
     0
  9
$DIMDSEP
 70
    46
  9
$DIMATFIT
 70
     3
  9
$DIMFRAC
 70
     0
  9
$DIMLDRBLK
  1

  9
$DIMLUNIT
 70
     2
  9
$DIMLWD
 70
    -2
  9
$DIMLWE
 70
    -2
  9
$DIMTMOVE
 70
     2
  9
$DIMFXL
 40
1.0
  9
$DIMFXLON
 70
     0
  9
$DIMJOGANG
 40
0.7853981633974483
  9
$DIMTFILL
 70
     0
  9
$DIMTFILLCLR
 70
     0
  9
$DIMARCSYM
 70
     0
  9
$DIMLTYPE
  6

  9
$DIMLTEX1
  6

  9
$DIMLTEX2
  6

  9
$LUNITS
 70
     2
  9
$LUPREC
 70
     3
  9
$SKETCHINC
 40
0.1
  9
$FILLETRAD
 40
0.5
  9
$AUNITS
 70
     0
  9
$AUPREC
 70
     0
  9
$MENU
  1
.
  9
$ELEVATION
 40
0.0
  9
$PELEVATION
 40
0.0
  9
$THICKNESS
 40
0.0
  9
$LIMCHECK
 70
     0
  9
$CHAMFERA
 40
0.0
  9
$CHAMFERB
 40
0.0
  9
$CHAMFERC
 40
0.0
  9
$CHAMFERD
 40
0.0
  9
$SKPOLY
 70
     0
  9
$TDCREATE
 40
2460859.559836296
  9
$TDUCREATE
 40
2460859.89316963
  9
$TDUPDATE
 40
2460859.559859549
  9
$TDUUPDATE
 40
2460859.893192882
  9
$TDINDWG
 40
0.0000000116
  9
$TDUSRTIMER
 40
0.0000000116
  9
$USRTIMER
 70
     1
  9
$ANGBASE
 50
0.0
  9
$ANGDIR
 70
     0
  9
$PDMODE
 70
     0
  9
$PDSIZE
 40
0.0
  9
$PLINEWID
 40
0.0
  9
$SPLFRAME
 70
     0
  9
$SPLINETYPE
 70
     6
  9
$SPLINESEGS
 70
     8
  9
$HANDSEED
  5
4D4
  9
$SURFTAB1
 70
     6
  9
$SURFTAB2
 70
     6
  9
$SURFTYPE
 70
     6
  9
$SURFU
 70
     6
  9
$SURFV
 70
     6
  9
$UCSBASE
  2

  9
$UCSNAME
  2

  9
$UCSORG
 10
0.0
 20
0.0
 30
0.0
  9
$UCSXDIR
 10
1.0
 20
0.0
 30
0.0
  9
$UCSYDIR
 10
0.0
 20
1.0
 30
0.0
  9
$UCSORTHOREF
  2

  9
$UCSORTHOVIEW
 70
     0
  9
$UCSORGTOP
 10
0.0
 20
0.0
 30
0.0
  9
$UCSORGBOTTOM
 10
0.0
 20
0.0
 30
0.0
  9
$UCSORGLEFT
 10
0.0
 20
0.0
 30
0.0
  9
$UCSORGRIGHT
 10
0.0
 20
0.0
 30
0.0
  9
$UCSORGFRONT
 10
0.0
 20
0.0
 30
0.0
  9
$UCSORGBACK
 10
0.0
 20
0.0
 30
0.0
  9
$PUCSBASE
  2

  9
$PUCSNAME
  2

  9
$PUCSORG
 10
0.0
 20
0.0
 30
0.0
  9
$PUCSXDIR
 10
1.0
 20
0.0
 30
0.0
  9
$PUCSYDIR
 10
0.0
 20
1.0
 30
0.0
  9
$PUCSORTHOREF
  2

  9
$PUCSORTHOVIEW
 70
     0
  9
$PUCSORGTOP
 10
0.0
 20
0.0
 30
0.0
  9
$PUCSORGBOTTOM
 10
0.0
 20
0.0
 30
0.0
  9
$PUCSORGLEFT
 10
0.0
 20
0.0
 30
0.0
  9
$PUCSORGRIGHT
 10
0.0
 20
0.0
 30
0.0
  9
$PUCSORGFRONT
 10
0.0
 20
0.0
 30
0.0
  9
$PUCSORGBACK
 10
0.0
 20
0.0
 30
0.0
  9
$USERI1
 70
     0
  9
$USERI2
 70
     0
  9
$USERI3
 70
     0
  9
$USERI4
 70
     0
  9
$USERI5
 70
     0
  9
$USERR1
 40
0.0
  9
$USERR2
 40
0.0
  9
$USERR3
 40
0.0
  9
$USERR4
 40
0.0
  9
$USERR5
 40
0.0
  9
$WORLDVIEW
 70
     1
  9
$SHADEDGE
 70
     3
  9
$SHADEDIF
 70
    70
  9
$TILEMODE
 70
     1
  9
$MAXACTVP
 70
    64
  9
$PINSBASE
 10
0.0
 20
0.0
 30
0.0
  9
$PLIMCHECK
 70
     0
  9
$PEXTMIN
 10
1.000000000000000E+20
 20
1.000000000000000E+20
 30
1.000000000000000E+20
  9
$PEXTMAX
 10
-1.000000000000000E+20
 20
-1.000000000000000E+20
 30
-1.000000000000000E+20
  9
$PLIMMIN
 10
0.0
 20
0.0
  9
$PLIMMAX
 10
12.0
 20
9.0
  9
$UNITMODE
 70
     0
  9
$VISRETAIN
 70
     1
  9
$PLINEGEN
 70
     0
  9
$PSLTSCALE
 70
     1
  9
$TREEDEPTH
 70
  3020
  9
$CMLSTYLE
  2
Standard
  9
$CMLJUST
 70
     0
  9
$CMLSCALE
 40
1.0
  9
$PROXYGRAPHICS
 70
     1
  9
$MEASUREMENT
 70
     1
  9
$CELWEIGHT
370
    -1
  9
$ENDCAPS
280
     0
  9
$JOINSTYLE
280
     0
  9
$LWDISPLAY
290
     0
  9
$INSUNITS
 70
     4
  9
$HYPERLINKBASE
  1

  9
$STYLESHEET
  1

  9
$XEDIT
290
     1
  9
$CEPSNTYPE
380
     0
  9
$PSTYLEMODE
290
     1
  9
$FINGERPRINTGUID
  2
{70c929a5-083c-5848-be70-f3c437fe2ba8}
  9
$VERSIONGUID
  2
{FAEB1C32-E019-11D5-929B-00C0DF256EC4}
  9
$EXTNAMES
290
     1
  9
$PSVPSCALE
 40
0.0
  9
$OLESTARTUP
290
     0
  9
$SORTENTS
280
   127
  9
$INDEXCTL
280
     0
  9
$HIDETEXT
280
     1
  9
$XCLIPFRAME
290
     0
  9
$HALOGAP
280
     0
  9
$OBSCOLOR
 70
   257
  9
$OBSLTYPE
280
     0
  9
$INTERSECTIONDISPLAY
280
     0
  9
$INTERSECTIONCOLOR
 70
   257
  9
$DIMASSOC
280
     2
  9
$PROJECTNAME
  1

  9
$CAMERADISPLAY
290
     0
  9
$LENSLENGTH
 40
50.0
  9
$CAMERAHEIGHT
 40
0.0
  9
$STEPSPERSEC
 40
2.0
  9
$STEPSIZE
 40
6.0
  9
$3DDWFPREC
 40
2.0
  9
$PSOLWIDTH
 40
0.25
  9
$PSOLHEIGHT
 40
4.0
  9
$LOFTANG1
 40
1.570796326794897
  9
$LOFTANG2
 40
1.570796326794897
  9
$LOFTMAG1
 40
0.0
  9
$LOFTMAG2
 40
0.0
  9
$LOFTPARAM
 70
     7
  9
$LOFTNORMALS
280
     1
  9
$LATITUDE
 40
37.795
  9
$LONGITUDE
 40
-122.394
  9
$NORTHDIRECTION
 40
0.0
  9
$TIMEZONE
 70
 -8000
  9
$LIGHTGLYPHDISPLAY
280
     1
  9
$TILEMODELIGHTSYNCH
280
     1
  9
$CMATERIAL
347
44
  9
$SOLIDHIST
280
     0
  9
$SHOWHIST
280
     1
  9
$DWFFRAME
280
     2
  9
$DGNFRAME
280
     2
  9
$REALWORLDSCALE
290
     1
  9
$INTERFERECOLOR
 62
   256
  9
$CSHADOW
280
     0
  9
$SHADOWPLANELOCATION
 40
0.0
  0
ENDSEC
  0
SECTION
  2
CLASSES
  0
CLASS
  1
ACDBDICTIONARYWDFLT
  2
AcDbDictionaryWithDefault
  3
ObjectDBX Classes
 90
        0
 91
        3
280
     0
281
     0
  0
CLASS
  1
VISUALSTYLE
  2
AcDbVisualStyle
  3
ObjectDBX Classes
 90
     4095
 91
        3
280
     0
281
     0
  0
CLASS
  1
MATERIAL
  2
AcDbMaterial
  3
ObjectDBX Classes
 90
     1153
 91
        3
280
     0
281
     0
  0
CLASS
  1
SCALE
  2
AcDbScale
  3
ObjectDBX Classes
 90
     1153
 91
        3
280
     0
281
     0
  0
CLASS
  1
TABLESTYLE
  2
AcDbTableStyle
  3
ObjectDBX Classes
 90
     4095
 91
        3
280
     0
281
     0
  0
CLASS
  1
MLEADERSTYLE
  2
AcDbMLeaderStyle
  3
ACDB_MLEADERSTYLE_CLASS
 90
     4095
 91
        3
280
     0
281
     0
  0
CLASS
  1
SUN
  2
AcDbSun
  3
SCENEOE
 90
     1153
 91
        3
280
     0
281
     0
  0
CLASS
  1
DICTIONARYVAR
  2
AcDbDictionaryVar
  3
ObjectDBX Classes
 90
        0
 91
        3
280
     0
281
     0
  0
CLASS
  1
CELLSTYLEMAP
  2
AcDbCellStyleMap
  3
ObjectDBX Classes
 90
     1152
 91
        3
280
     0
281
     0
  0
ENDSEC
  0
SECTION
  2
TABLES
  0
TABLE
  2
VPORT
  5
8
330
0
100
AcDbSymbolTable
 70
     1
  0
VPORT
  5
29
330
8
100
AcDbSymbolTableRecord
100
AcDbViewportTableRecord
  2
*Active
 70
     0
 10
0.0
 20
0.0
 11
1.0
 21
1.0
 12
10.42990654205607
 22
4.5
 13
0.0
 23
0.0
 14
0.5
 24
0.5
 15
0.5
 25
0.5
 16
0.0
 26
0.0
 36
1.0
 17
0.0
 27
0.0
 37
0.0
 40
9.0
 41
1.972972972850329
 42
50.0
 43
0.0
 44
0.0
 50
0.0
 51
0.0
 71
     0
 72
   100
 73
     1
 74
     3
 75
     0
 76
     0
 77
     0
 78
     0
281
     0
 65
     1
110
0.0
120
0.0
130
0.0
111
1.0
121
0.0
131
0.0
112
0.0
122
1.0
132
0.0
 79
     0
146
0.0
348
2F
 60
     3
 61
     5
292
     1
282
     1
141
0.0
142
0.0
 63
   250
361
6D
  0
ENDTAB
  0
TABLE
  2
LTYPE
  5
5
330
0
100
AcDbSymbolTable
 70
     2
  0
LTYPE
  5
14
330
5
100
AcDbSymbolTableRecord
100
AcDbLinetypeTableRecord
  2
ByBlock
 70
     0
  3

 72
    65
 73
     0
 40
0.0
  0
LTYPE
  5
15
330
5
100
AcDbSymbolTableRecord
100
AcDbLinetypeTableRecord
  2
ByLayer
 70
     0
  3

 72
    65
 73
     0
 40
0.0
  0
LTYPE
  5
16
330
5
100
AcDbSymbolTableRecord
100
AcDbLinetypeTableRecord
  2
Continuous
 70
     0
  3
Solid line
 72
    65
 73
     0
 40
0.0
  0
LTYPE
  5
375
330
5
100
AcDbSymbolTableRecord
100
AcDbLinetypeTableRecord
  2
Hidden
 70
     0
  3

 72
    65
 73
     2
 40
4.0
 49
2.0
 74
     0
 49
-2.0
 74
     0
  0
ENDTAB
  0
TABLE
  2
LAYER
  5
2
330
0
100
AcDbSymbolTable
 70
     2
  0
LAYER
  5
10
330
2
100
AcDbSymbolTableRecord
100
AcDbLayerTableRecord
  2
0
 70
     0
 62
     7
  6
Continuous
370
    -3
390
F
347
46
  0
LAYER
  5
6E
330
2
100
AcDbSymbolTableRecord
100
AcDbLayerTableRecord
  2
Graypants_Float36
 70
     0
 62
    36
420
  8866048
  6
Continuous
370
    -3
390
F
347
46
  0
ENDTAB
  0
TABLE
  2
STYLE
  5
3
330
0
100
AcDbSymbolTable
 70
     1
  0
STYLE
  5
11
330
3
100
AcDbSymbolTableRecord
100
AcDbTextStyleTableRecord
  2
Standard
 70
     0
 40
0.0
 41
1.0
 50
0.0
 71
     0
 42
0.2
  3
txt
  4

  0
ENDTAB
  0
TABLE
  2
VIEW
  5
6
330
0
100
AcDbSymbolTable
 70
     0
  0
ENDTAB
  0
TABLE
  2
UCS
  5
7
330
0
100
AcDbSymbolTable
 70
     0
  0
ENDTAB
  0
TABLE
  2
APPID
  5
9
330
0
100
AcDbSymbolTable
 70
     2
  0
APPID
  5
12
330
9
100
AcDbSymbolTableRecord
100
AcDbRegAppTableRecord
  2
ACAD
 70
     0
  0
APPID
  5
4CC
330
9
100
AcDbSymbolTableRecord
100
AcDbRegAppTableRecord
  2
ACAD_MLEADERVER
 70
     0
  0
ENDTAB
  0
TABLE
  2
DIMSTYLE
  5
A
330
0
100
AcDbSymbolTable
 70
     1
100
AcDbDimStyleTable
  0
DIMSTYLE
105
27
330
A
100
AcDbSymbolTableRecord
100
AcDbDimStyleTableRecord
  2
STANDARD_ACAD
 70
     0
178
     0
340
11
  0
ENDTAB
  0
TABLE
  2
BLOCK_RECORD
  5
1
330
0
100
AcDbSymbolTable
 70
     1
  0
BLOCK_RECORD
  5
1F
330
1
100
AcDbSymbolTableRecord
100
AcDbBlockTableRecord
  2
*Model_Space
340
22
 70
     0
280
     1
281
     0
  0
BLOCK_RECORD
  5
1B
330
1
100
AcDbSymbolTableRecord
100
AcDbBlockTableRecord
  2
*Paper_Space
340
1E
 70
     0
280
     1
281
     0
  0
BLOCK_RECORD
  5
23
330
1
100
AcDbSymbolTableRecord
100
AcDbBlockTableRecord
  2
*Paper_Space0
340
26
 70
     0
280
     1
281
     0
  0
ENDTAB
  0
ENDSEC
  0
SECTION
  2
BLOCKS
  0
BLOCK
  5
20
330
1F
100
AcDbEntity
  8
0
100
AcDbBlockBegin
  2
*Model_Space
 70
     0
 10
0.0
 20
0.0
 30
0.0
  3
*Model_Space
  1

  0
ENDBLK
  5
21
330
1F
100
AcDbEntity
  8
0
100
AcDbBlockEnd
  0
BLOCK
  5
1C
330
1B
100
AcDbEntity
 67
     1
  8
0
100
AcDbBlockBegin
  2
*Paper_Space
 70
     0
 10
0.0
 20
0.0
 30
0.0
  3
*Paper_Space
  1

  0
ENDBLK
  5
1D
330
1B
100
AcDbEntity
 67
     1
  8
0
100
AcDbBlockEnd
  0
BLOCK
  5
24
330
23
100
AcDbEntity
  8
0
100
AcDbBlockBegin
  2
*Paper_Space0
 70
     0
 10
0.0
 20
0.0
 30
0.0
  3
*Paper_Space0
  1

  0
ENDBLK
  5
25
330
23
100
AcDbEntity
  8
0
100
AcDbBlockEnd
  0
ENDSEC
  0
SECTION
  2
ENTITIES
  0
POLYLINE
  5
6F
330
1F
100
AcDbEntity
  8
Graypants_Float36
370
    -3
100
AcDb2dPolyline
 66
     1
 10
0.0
 20
0.0
 30
0.0
  0
VERTEX
  5
70
330
6F
100
AcDbEntity
  8
Graypants_Float36
370
    -3
100
AcDbVertex
100
AcDb2dVertex
 10
88.48767465273728
 20
-1219.886874246713
 30
0.0
  0
VERTEX
  5
71
330
6F
100
AcDbEntity
  8
Graypants_Float36
370
    -3
100
AcDbVertex
100
AcDb2dVertex
 10
87.98307822895084
 20
-1219.961771484041
 30
0.0
  0
VERTEX
  5
72
330
6F
100
AcDbEntity
  8
Graypants_Float36
370
    -3
100
AcDbVertex
100
AcDb2dVertex
 10
87.54328556678169
 20
-1220.037545552676
 30
0.0
  0
VERTEX
  5
73
330
6F
100
AcDbEntity
  8
Graypants_Float36
370
    -3
100
AcDbVertex
100
AcDb2dVertex
 10
87.3605906843302
 20
-1220.073391871654
 30
0.0
  0
VERTEX
  5
74
330
6F
100
AcDbEntity
  8
Graypants_Float36
370
    -3
100
AcDbVertex
100
AcDb2dVertex
 10
87.20675493298481
 20
-1220.106823711074
 30
0.0
  0
VERTEX
  5
75
330
6F
100
AcDbEntity
  8
Graypants_Float36
370
    -3
100
AcDbVertex
100
AcDb2dVertex
 10
87.08281615679441
 20
-1220.137276186403
 30
0.0
  0
VERTEX
  5
76
330
6F
100
AcDbEntity
  8
Graypants_Float36
370
    -3
100
AcDbVertex
100
AcDb2dVertex
 10
87.03197556005742
 20
-1220.151264633049
 30
0.0
  0
VERTEX
  5
77
330
6F
100
AcDbEntity
  8
Graypants_Float36
370
    -3
100
AcDbVertex
100
AcDb2dVertex
 10
86.9883497087244
 20
-1220.164388809168
 30
0.0
  0
VERTEX
  5
78
330
6F
100
AcDbEntity
  8
Graypants_Float36
370
    -3
100
AcDbVertex
100
AcDb2dVertex
 10
86.959281209515
 20
-1220.173981005209
 30
0.0
  0
VERTEX
  5
79
330
6F
100
AcDbEntity
  8
Graypants_Float36
370
    -3
100
AcDbVertex
100
AcDb2dVertex
 10
86.93344920163888
 20
-1220.183363824183
 30
0.0
  0
VERTEX
  5
7A
330
6F
100
AcDbEntity
  8
Graypants_Float36
370
    -3
100
AcDbVertex
100
AcDb2dVertex
 10
86.92182617955525
 20
-1220.187963442085
 30
0.0
  0
VERTEX
  5
7B
330
6F
100
AcDbEntity
  8
Graypants_Float36
370
    -3
100
AcDbVertex
100
AcDb2dVertex
 10
86.91110665718578
 20
-1220.192494633028
 30
0.0
  0
VERTEX
  5
7C
330
6F
100
AcDbEntity
  8
Graypants_Float36
370
    -3
100
AcDbVertex
100
AcDb2dVertex
 10
86.90132109618003
 20
-1220.196951898823
 30
0.0
  0
VERTEX
  5
7D
330
6F
100
AcDbEntity
  8
Graypants_Float36
370
    -3
100
AcDbVertex
100
AcDb2dVertex
 10
86.89678789056559
 20
-1220.199151079501
 30
0.0
  0
VERTEX
  5
7E
330
6F
100
AcDbEntity
  8
Graypants_Float36
370
    -3
100
AcDbVertex
100
AcDb2dVertex
 10
86.8924992891478
 20
-1220.201329698432
 30
0.0
  0
VERTEX
  5
7F
330
6F
100
AcDbEntity
  8
Graypants_Float36
370
    -3
100
AcDbVertex
100
AcDb2dVertex
 10
86.8884588930737
 20
-1220.20348705866
 30
0.0
  0
VERTEX
  5
80
330
6F
100
AcDbEntity
  8
Graypants_Float36
370
    -3
100
AcDbVertex
100
AcDb2dVertex
 10
86.88467024756771
 20
-1220.205622462398
 30
0.0
  0
VERTEX
  5
81
330
6F
100
AcDbEntity
  8
Graypants_Float36
370
    -3
100
AcDbVertex
100
AcDb2dVertex
 10
86.8811368383468
 20
-1220.20773521152
 30
0.0
  0
VERTEX
  5
82
330
6F
100
AcDbEntity
  8
Graypants_Float36
370
    -3
100
AcDbVertex
100
AcDb2dVertex
 10
86.87786208802392
 20
-1220.209824608065
 30
0.0
  0
VERTEX
  5
83
330
6F
100
AcDbEntity
  8
Graypants_Float36
370
    -3
100
AcDbVertex
100
AcDb2dVertex
 10
86.87632276137418
 20
-1220.21086033118
 30
0.0
  0
VERTEX
  5
84
330
6F
100
AcDbEntity
  8
Graypants_Float36
370
    -3
100
AcDbVertex
100
AcDb2dVertex
 10
86.87484935250517
 20
-1220.211889954754
 30
0.0
  0
VERTEX
  5
85
330
6F
100
AcDbEntity
  8
Graypants_Float36
370
    -3
100
AcDbVertex
100
AcDb2dVertex
 10
86.87344226989093
 20
-1220.212913391818
 30
0.0
  0
VERTEX
  5
86
330
6F
100
AcDbEntity
  8
Graypants_Float36
370
    -3
100
AcDbVertex
100
AcDb2dVertex
 10
86.8721019173861
 20
-1220.213930555512
 30
0.0
  0
VERTEX
  5
87
330
6F
100
AcDbEntity
  8
Graypants_Float36
370
    -3
100
AcDbVertex
100
AcDb2dVertex
 10
86.87082869411365
 20
-1220.214941359105
 30
0.0
  0
VERTEX
  5
88
330
6F
100
AcDbEntity
  8
Graypants_Float36
370
    -3
100
AcDbVertex
100
AcDb2dVertex
 10
86.86962299435272
 20
-1220.215945716003
 30
0.0
  0
VERTEX
  5
89
330
6F
100
AcDbEntity
  8
Graypants_Float36
370
    -3
100
AcDbVertex
100
AcDb2dVertex
 10
86.86848520742689
 20
-1220.216943539775
 30
0.0
  0
VERTEX
  5
8A
330
6F
100
AcDbEntity
  8
Graypants_Float36
370
    -3
100
AcDbVertex
100
AcDb2dVertex
 10
86.86741571759265
 20
-1220.217934744168
 30
0.0
  0
VERTEX
  5
8B
330
6F
100
AcDbEntity
  8
Graypants_Float36
370
    -3
100
AcDbVertex
100
AcDb2dVertex
 10
86.86641490392816
 20
-1220.218919243119
 30
0.0
  0
VERTEX
  5
8C
330
6F
100
AcDbEntity
  8
Graypants_Float36
370
    -3
100
AcDbVertex
100
AcDb2dVertex
 10
86.86548314022262
 20
-1220.219896950781
 30
0.0
  0
VERTEX
  5
8D
330
6F
100
AcDbEntity
  8
Graypants_Float36
370
    -3
100
AcDbVertex
100
AcDb2dVertex
 10
86.86504326744016
 20
-1220.220383231112
 30
0.0
  0
VERTEX
  5
8E
330
6F
100
AcDbEntity
  8
Graypants_Float36
370
    -3
100
AcDbVertex
100
AcDb2dVertex
 10
86.86462079486574
 20
-1220.220867781533
 30
0.0
  0
VERTEX
  5
8F
330
6F
100
AcDbEntity
  8
Graypants_Float36
370
    -3
100
AcDbVertex
100
AcDb2dVertex
 10
86.86421576768642
 20
-1220.221350591379
 30
0.0
  0
VERTEX
  5
90
330
6F
100
AcDbEntity
  8
Graypants_Float36
370
    -3
100
AcDbVertex
100
AcDb2dVertex
 10
86.86382823073806
 20
-1220.221831650003
 30
0.0
  0
VERTEX
  5
91
330
6F
100
AcDbEntity
  8
Graypants_Float36
370
    -3
100
AcDbVertex
100
AcDb2dVertex
 10
86.86345822850198
 20
-1220.222310946775
 30
0.0
  0
VERTEX
  5
92
330
6F
100
AcDbEntity
  8
Graypants_Float36
370
    -3
100
AcDbVertex
100
AcDb2dVertex
 10
86.86310580510155
 20
-1220.222788471083
 30
0.0
  0
VERTEX
  5
93
330
6F
100
AcDbEntity
  8
Graypants_Float36
370
    -3
100
AcDbVertex
100
AcDb2dVertex
 10
86.86277100429874
 20
-1220.223264212332
 30
0.0
  0
VERTEX
  5
94
330
6F
100
AcDbEntity
  8
Graypants_Float36
370
    -3
100
AcDbVertex
100
AcDb2dVertex
 10
86.86245386949085
 20
-1220.223738159948
 30
0.0
  0
VERTEX
  5
95
330
6F
100
AcDbEntity
  8
Graypants_Float36
370
    -3
100
AcDbVertex
100
AcDb2dVertex
 10
86.86215444370714
 20
-1220.224210303373
 30
0.0
  0
VERTEX
  5
96
330
6F
100
AcDbEntity
  8
Graypants_Float36
370
    -3
100
AcDbVertex
100
AcDb2dVertex
 10
86.86187276960531
 20
-1220.224680632072
 30
0.0
  0
VERTEX
  5
97
330
6F
100
AcDbEntity
  8
Graypants_Float36
370
    -3
100
AcDbVertex
100
AcDb2dVertex
 10
86.86160888946843
 20
-1220.225149135529
 30
0.0
  0
VERTEX
  5
98
330
6F
100
AcDbEntity
  8
Graypants_Float36
370
    -3
100
AcDbVertex
100
AcDb2dVertex
 10
86.8613628452014
 20
-1220.22561580325
 30
0.0
  0
VERTEX
  5
99
330
6F
100
AcDbEntity
  8
Graypants_Float36
370
    -3
100
AcDbVertex
100
AcDb2dVertex
 10
86.86113467832772
 20
-1220.226080624761
 30
0.0
  0
VERTEX
  5
9A
330
6F
100
AcDbEntity
  8
Graypants_Float36
370
    -3
100
AcDbVertex
100
AcDb2dVertex
 10
86.86092442998618
 20
-1220.226543589612
 30
0.0
  0
VERTEX
  5
9B
330
6F
100
AcDbEntity
  8
Graypants_Float36
370
    -3
100
AcDbVertex
100
AcDb2dVertex
 10
86.86073214092755
 20
-1220.227004687375
 30
0.0
  0
VERTEX
  5
9C
330
6F
100
AcDbEntity
  8
Graypants_Float36
370
    -3
100
AcDbVertex
100
AcDb2dVertex
 10
86.8605578515113
 20
-1220.227463907644
 30
0.0
  0
VERTEX
  5
9D
330
6F
100
AcDbEntity
  8
Graypants_Float36
370
    -3
100
AcDbVertex
100
AcDb2dVertex
 10
86.8604016017024
 20
-1220.227921240039
 30
0.0
  0
VERTEX
  5
9E
330
6F
100
AcDbEntity
  8
Graypants_Float36
370
    -3
100
AcDbVertex
100
AcDb2dVertex
 10
86.86033025403108
 20
-1220.228149195046
 30
0.0
  0
VERTEX
  5
9F
330
6F
100
AcDbEntity
  8
Graypants_Float36
370
    -3
100
AcDbVertex
100
AcDb2dVertex
 10
86.860263431068
 20
-1220.228376674203
 30
0.0
  0
VERTEX
  5
A0
330
6F
100
AcDbEntity
  8
Graypants_Float36
370
    -3
100
AcDbVertex
100
AcDb2dVertex
 10
86.8602011376964
 20
-1220.228603676219
 30
0.0
  0
VERTEX
  5
A1
330
6F
100
AcDbEntity
  8
Graypants_Float36
370
    -3
100
AcDbVertex
100
AcDb2dVertex
 10
86.8601433787742
 20
-1220.228830199806
 30
0.0
  0
VERTEX
  5
A2
330
6F
100
AcDbEntity
  8
Graypants_Float36
370
    -3
100
AcDbVertex
100
AcDb2dVertex
 10
86.86009015913399
 20
-1220.229056243674
 30
0.0
  0
VERTEX
  5
A3
330
6F
100
AcDbEntity
  8
Graypants_Float36
370
    -3
100
AcDbVertex
100
AcDb2dVertex
 10
86.86004148358286
 20
-1220.22928180654
 30
0.0
  0
VERTEX
  5
A4
330
6F
100
AcDbEntity
  8
Graypants_Float36
370
    -3
100
AcDbVertex
100
AcDb2dVertex
 10
86.85999735690237
 20
-1220.229506887118
 30
0.0
  0
VERTEX
  5
A5
330
6F
100
AcDbEntity
  8
Graypants_Float36
370
    -3
100
AcDbVertex
100
AcDb2dVertex
 10
86.85995778384839
 20
-1220.229731484127
 30
0.0
  0
VERTEX
  5
A6
330
6F
100
AcDbEntity
  8
Graypants_Float36
370
    -3
100
AcDbVertex
100
AcDb2dVertex
 10
86.85992276915107
 20
-1220.229955596285
 30
0.0
  0
VERTEX
  5
A7
330
6F
100
AcDbEntity
  8
Graypants_Float36
370
    -3
100
AcDbVertex
100
AcDb2dVertex
 10
86.85989231751459
 20
-1220.230179222313
 30
0.0
  0
VERTEX
  5
A8
330
6F
100
AcDbEntity
  8
Graypants_Float36
370
    -3
100
AcDbVertex
100
AcDb2dVertex
 10
86.85986643361727
 20
-1220.230402360934
 30
0.0
  0
VERTEX
  5
A9
330
6F
100
AcDbEntity
  8
Graypants_Float36
370
    -3
100
AcDbVertex
100
AcDb2dVertex
 10
86.85984512211138
 20
-1220.230625010873
 30
0.0
  0
VERTEX
  5
AA
330
6F
100
AcDbEntity
  8
Graypants_Float36
370
    -3
100
AcDbVertex
100
AcDb2dVertex
 10
86.85982838762293
 20
-1220.230847170855
 30
0.0
  0
VERTEX
  5
AB
330
6F
100
AcDbEntity
  8
Graypants_Float36
370
    -3
100
AcDbVertex
100
AcDb2dVertex
 10
86.85981623475172
 20
-1220.231068839609
 30
0.0
  0
VERTEX
  5
AC
330
6F
100
AcDbEntity
  8
Graypants_Float36
370
    -3
100
AcDbVertex
100
AcDb2dVertex
 10
86.85980866807124
 20
-1220.231290015864
 30
0.0
  0
VERTEX
  5
AD
330
6F
100
AcDbEntity
  8
Graypants_Float36
370
    -3
100
AcDbVertex
100
AcDb2dVertex
 10
86.85980569212849
 20
-1220.231510698352
 30
0.0
  0
VERTEX
  5
AE
330
6F
100
AcDbEntity
  8
Graypants_Float36
370
    -3
100
AcDbVertex
100
AcDb2dVertex
 10
86.85980731144394
 20
-1220.231730885806
 30
0.0
  0
VERTEX
  5
AF
330
6F
100
AcDbEntity
  8
Graypants_Float36
370
    -3
100
AcDbVertex
100
AcDb2dVertex
 10
86.85981353051136
 20
-1220.231950576961
 30
0.0
  0
VERTEX
  5
B0
330
6F
100
AcDbEntity
  8
Graypants_Float36
370
    -3
100
AcDbVertex
100
AcDb2dVertex
 10
86.85982435379783
 20
-1220.232169770555
 30
0.0
  0
VERTEX
  5
B1
330
6F
100
AcDbEntity
  8
Graypants_Float36
370
    -3
100
AcDbVertex
100
AcDb2dVertex
 10
86.85983978574362
 20
-1220.232388465327
 30
0.0
  0
VERTEX
  5
B2
330
6F
100
AcDbEntity
  8
Graypants_Float36
370
    -3
100
AcDbVertex
100
AcDb2dVertex
 10
86.85985983076195
 20
-1220.232606660017
 30
0.0
  0
VERTEX
  5
B3
330
6F
100
AcDbEntity
  8
Graypants_Float36
370
    -3
100
AcDbVertex
100
AcDb2dVertex
 10
86.85988449323911
 20
-1220.232824353368
 30
0.0
  0
SEQEND
  5
B4
330
6F
100
AcDbEntity
  8
Graypants_Float36
370
    -3
  0
LINE
  5
B5
330
1F
100
AcDbEntity
  8
Graypants_Float36
370
    -3
100
AcDbLine
 10
89.61170148463953
 20
-1219.754389451745
 30
0.0
 11
89.2753874368369
 21
-1219.789162260419
 31
0.0
  0
LINE
  5
B6
330
1F
100
AcDbEntity
  8
Graypants_Float36
100
AcDbLine
 10
27.61522256316562
 20
-722.7108251330452
 30
0.0
 11
89.29298298135132
 21
-1219.931010145938
 31
0.0
  0
LINE
  5
B7
330
1F
100
AcDbEntity
  8
Graypants_Float36
100
AcDbLine
 10
26.81538907949994
 20
-722.7108251330451
 30
0.0
 11
88.50527019441938
 21
-1220.028722109401
 31
0.0
  0
LINE
  5
B8
330
1F
100
AcDbEntity
  8
Graypants_Float36
100
AcDbLine
 10
89.29298298135132
 20
-1219.931010145938
 30
0.0
 11
88.50527019441938
 21
-1220.028722109401
 31
0.0
  0
LINE
  5
B9
330
1F
100
AcDbEntity
  8
Graypants_Float36
100
AcDbLine
 10
-27.61522257167621
 20
-722.7108251330452
 30
0.0
 11
-89.29298298986191
 21
-1219.931010145938
 31
0.0
  0
LINE
  5
BA
330
1F
100
AcDbEntity
  8
Graypants_Float36
100
AcDbLine
 10
-26.81538908801053
 20
-722.7108251330451
 30
0.0
 11
-88.50527020292998
 21
-1220.028722109401
 31
0.0
  0
POLYLINE
  5
BB
330
1F
100
AcDbEntity
  8
Graypants_Float36
370
    -3
100
AcDb2dPolyline
 66
     1
 10
0.0
 20
0.0
 30
0.0
  0
VERTEX
  5
BC
330
BB
100
AcDbEntity
  8
Graypants_Float36
370
    -3
100
AcDbVertex
100
AcDb2dVertex
 10
-89.27538744580221
 20
-1219.789162264084
 30
0.0
  0
VERTEX
  5
BD
330
BB
100
AcDbEntity
  8
Graypants_Float36
370
    -3
100
AcDbVertex
100
AcDb2dVertex
 10
-89.89955132809419
 20
-1219.728489309806
 30
0.0
  0
VERTEX
  5
BE
330
BB
100
AcDbEntity
  8
Graypants_Float36
370
    -3
100
AcDbVertex
100
AcDb2dVertex
 10
-90.19220494801883
 20
-1219.70677664489
 30
0.0
  0
VERTEX
  5
BF
330
BB
100
AcDbEntity
  8
Graypants_Float36
370
    -3
100
AcDbVertex
100
AcDb2dVertex
 10
-90.45106247279394
 20
-1219.693109840149
 30
0.0
  0
VERTEX
  5
C0
330
BB
100
AcDbEntity
  8
Graypants_Float36
370
    -3
100
AcDbVertex
100
AcDb2dVertex
 10
-90.56330601799534
 20
-1219.68964399704
 30
0.0
  0
VERTEX
  5
C1
330
BB
100
AcDbEntity
  8
Graypants_Float36
370
    -3
100
AcDbVertex
100
AcDb2dVertex
 10
-90.66212977603598
 20
-1219.688510346587
 30
0.0
  0
VERTEX
  5
C2
330
BB
100
AcDbEntity
  8
Graypants_Float36
370
    -3
100
AcDbVertex
100
AcDb2dVertex
 10
-90.74645192264848
 20
-1219.689704985044
 30
0.0
  0
VERTEX
  5
C3
330
BB
100
AcDbEntity
  8
Graypants_Float36
370
    -3
100
AcDbVertex
100
AcDb2dVertex
 10
-90.78293536991706
 20
-1219.691159045773
 30
0.0
  0
VERTEX
  5
C4
330
BB
100
AcDbEntity
  8
Graypants_Float36
370
    -3
100
AcDbVertex
100
AcDb2dVertex
 10
-90.8155532630918
 20
-1219.693168943999
 30
0.0
  0
VERTEX
  5
C5
330
BB
100
AcDbEntity
  8
Graypants_Float36
370
    -3
100
AcDbVertex
100
AcDb2dVertex
 10
-90.84427507100334
 20
-1219.695719368748
 30
0.0
  0
VERTEX
  5
C6
330
BB
100
AcDbEntity
  8
Graypants_Float36
370
    -3
100
AcDbVertex
100
AcDb2dVertex
 10
-90.85717183984372
 20
-1219.697191726037
 30
0.0
  0
VERTEX
  5
C7
330
BB
100
AcDbEntity
  8
Graypants_Float36
370
    -3
100
AcDbVertex
100
AcDb2dVertex
 10
-90.86909374468107
 20
-1219.698792226726
 30
0.0
  0
VERTEX
  5
C8
330
BB
100
AcDbEntity
  8
Graypants_Float36
370
    -3
100
AcDbVertex
100
AcDb2dVertex
 10
-90.88004345910052
 20
-1219.70051821793
 30
0.0
  0
VERTEX
  5
C9
330
BB
100
AcDbEntity
  8
Graypants_Float36
370
    -3
100
AcDbVertex
100
AcDb2dVertex
 10
-90.8900250206985
 20
-1219.702366907438
 30
0.0
  0
VERTEX
  5
CA
330
BB
100
AcDbEntity
  8
Graypants_Float36
370
    -3
100
AcDbVertex
100
AcDb2dVertex
 10
-90.89904379355485
 20
-1219.704335373252
 30
0.0
  0
VERTEX
  5
CB
330
BB
100
AcDbEntity
  8
Graypants_Float36
370
    -3
100
AcDbVertex
100
AcDb2dVertex
 10
-90.90319416308974
 20
-1219.705363576061
 30
0.0
  0
VERTEX
  5
CC
330
BB
100
AcDbEntity
  8
Graypants_Float36
370
    -3
100
AcDbVertex
100
AcDb2dVertex
 10
-90.9071064268931
 20
-1219.70642057336
 30
0.0
  0
VERTEX
  5
CD
330
BB
100
AcDbEntity
  8
Graypants_Float36
370
    -3
100
AcDbVertex
100
AcDb2dVertex
 10
-90.9107816095655
 20
-1219.707505967774
 30
0.0
  0
VERTEX
  5
CE
330
BB
100
AcDbEntity
  8
Graypants_Float36
370
    -3
100
AcDbVertex
100
AcDb2dVertex
 10
-90.9142208102498
 20
-1219.708619355681
 30
0.0
  0
VERTEX
  5
CF
330
BB
100
AcDbEntity
  8
Graypants_Float36
370
    -3
100
AcDbVertex
100
AcDb2dVertex
 10
-90.9174252010627
 20
-1219.709760327522
 30
0.0
  0
VERTEX
  5
D0
330
BB
100
AcDbEntity
  8
Graypants_Float36
370
    -3
100
AcDbVertex
100
AcDb2dVertex
 10
-90.92039602548502
 20
-1219.710928468118
 30
0.0
  0
VERTEX
  5
D1
330
BB
100
AcDbEntity
  8
Graypants_Float36
370
    -3
100
AcDbVertex
100
AcDb2dVertex
 10
-90.92179425799611
 20
-1219.711522595499
 30
0.0
  0
VERTEX
  5
D2
330
BB
100
AcDbEntity
  8
Graypants_Float36
370
    -3
100
AcDbVertex
100
AcDb2dVertex
 10
-90.92313459671317
 20
-1219.712123356991
 30
0.0
  0
VERTEX
  5
D3
330
BB
100
AcDbEntity
  8
Graypants_Float36
370
    -3
100
AcDbVertex
100
AcDb2dVertex
 10
-90.92441721640243
 20
-1219.71273069926
 30
0.0
  0
VERTEX
  5
D4
330
BB
100
AcDbEntity
  8
Graypants_Float36
370
    -3
100
AcDbVertex
100
AcDb2dVertex
 10
-90.92564229597514
 20
-1219.713344568676
 30
0.0
  0
VERTEX
  5
D5
330
BB
100
AcDbEntity
  8
Graypants_Float36
370
    -3
100
AcDbVertex
100
AcDb2dVertex
 10
-90.92681001843289
 20
-1219.713964911331
 30
0.0
  0
VERTEX
  5
D6
330
BB
100
AcDbEntity
  8
Graypants_Float36
370
    -3
100
AcDbVertex
100
AcDb2dVertex
 10
-90.9279205708129
 20
-1219.714591673041
 30
0.0
  0
VERTEX
  5
D7
330
BB
100
AcDbEntity
  8
Graypants_Float36
370
    -3
100
AcDbVertex
100
AcDb2dVertex
 10
-90.92897414413274
 20
-1219.715224799361
 30
0.0
  0
VERTEX
  5
D8
330
BB
100
AcDbEntity
  8
Graypants_Float36
370
    -3
100
AcDbVertex
100
AcDb2dVertex
 10
-90.92997093333456
 20
-1219.715864235594
 30
0.0
  0
VERTEX
  5
D9
330
BB
100
AcDbEntity
  8
Graypants_Float36
370
    -3
100
AcDbVertex
100
AcDb2dVertex
 10
-90.93091113722903
 20
-1219.716509926802
 30
0.0
  0
VERTEX
  5
DA
330
BB
100
AcDbEntity
  8
Graypants_Float36
370
    -3
100
AcDbVertex
100
AcDb2dVertex
 10
-90.93179495843887
 20
-1219.71716181781
 30
0.0
  0
VERTEX
  5
DB
330
BB
100
AcDbEntity
  8
Graypants_Float36
370
    -3
100
AcDbVertex
100
AcDb2dVertex
 10
-90.93262260334198
 20
-1219.717819853222
 30
0.0
  0
VERTEX
  5
DC
330
BB
100
AcDbEntity
  8
Graypants_Float36
370
    -3
100
AcDbVertex
100
AcDb2dVertex
 10
-90.93339428201448
 20
-1219.718483977429
 30
0.0
  0
VERTEX
  5
DD
330
BB
100
AcDbEntity
  8
Graypants_Float36
370
    -3
100
AcDbVertex
100
AcDb2dVertex
 10
-90.934110208173
 20
-1219.719154134616
 30
0.0
  0
VERTEX
  5
DE
330
BB
100
AcDbEntity
  8
Graypants_Float36
370
    -3
100
AcDbVertex
100
AcDb2dVertex
 10
-90.93477059911719
 20
-1219.719830268776
 30
0.0
  0
VERTEX
  5
DF
330
BB
100
AcDbEntity
  8
Graypants_Float36
370
    -3
100
AcDbVertex
100
AcDb2dVertex
 10
-90.93537567567151
 20
-1219.720512323714
 30
0.0
  0
VERTEX
  5
E0
330
BB
100
AcDbEntity
  8
Graypants_Float36
370
    -3
100
AcDbVertex
100
AcDb2dVertex
 10
-90.93592566212713
 20
-1219.721200243061
 30
0.0
  0
VERTEX
  5
E1
330
BB
100
AcDbEntity
  8
Graypants_Float36
370
    -3
100
AcDbVertex
100
AcDb2dVertex
 10
-90.93642078618343
 20
-1219.721893970284
 30
0.0
  0
VERTEX
  5
E2
330
BB
100
AcDbEntity
  8
Graypants_Float36
370
    -3
100
AcDbVertex
100
AcDb2dVertex
 10
-90.9368612788893
 20
-1219.72259344869
 30
0.0
  0
VERTEX
  5
E3
330
BB
100
AcDbEntity
  8
Graypants_Float36
370
    -3
100
AcDbVertex
100
AcDb2dVertex
 10
-90.93724737458422
 20
-1219.723298621441
 30
0.0
  0
VERTEX
  5
E4
330
BB
100
AcDbEntity
  8
Graypants_Float36
370
    -3
100
AcDbVertex
100
AcDb2dVertex
 10
-90.93757931083931
 20
-1219.724009431562
 30
0.0
  0
VERTEX
  5
E5
330
BB
100
AcDbEntity
  8
Graypants_Float36
370
    -3
100
AcDbVertex
100
AcDb2dVertex
 10
-90.93785732839817
 20
-1219.724725821945
 30
0.0
  0
VERTEX
  5
E6
330
BB
100
AcDbEntity
  8
Graypants_Float36
370
    -3
100
AcDbVertex
100
AcDb2dVertex
 10
-90.9380816711175
 20
-1219.725447735368
 30
0.0
  0
VERTEX
  5
E7
330
BB
100
AcDbEntity
  8
Graypants_Float36
370
    -3
100
AcDbVertex
100
AcDb2dVertex
 10
-90.93825258590775
 20
-1219.726175114495
 30
0.0
  0
VERTEX
  5
E8
330
BB
100
AcDbEntity
  8
Graypants_Float36
370
    -3
100
AcDbVertex
100
AcDb2dVertex
 10
-90.9383703226735
 20
-1219.726907901889
 30
0.0
  0
SEQEND
  5
E9
330
BB
100
AcDbEntity
  8
Graypants_Float36
370
    -3
  0
POLYLINE
  5
EA
330
1F
100
AcDbEntity
  8
Graypants_Float36
370
    -3
100
AcDb2dPolyline
 66
     1
 10
0.0
 20
0.0
 30
0.0
  0
VERTEX
  5
EB
330
EA
100
AcDbEntity
  8
Graypants_Float36
370
    -3
100
AcDbVertex
100
AcDb2dVertex
 10
-86.85988453443902
 20
-1220.23282435345
 30
0.0
  0
VERTEX
  5
EC
330
EA
100
AcDbEntity
  8
Graypants_Float36
370
    -3
100
AcDbVertex
100
AcDb2dVertex
 10
-86.85986233030711
 20
-1220.232630359991
 30
0.0
  0
VERTEX
  5
ED
330
EA
100
AcDbEntity
  8
Graypants_Float36
370
    -3
100
AcDbVertex
100
AcDb2dVertex
 10
-86.8598437966583
 20
-1220.23243599603
 30
0.0
  0
VERTEX
  5
EE
330
EA
100
AcDbEntity
  8
Graypants_Float36
370
    -3
100
AcDbVertex
100
AcDb2dVertex
 10
-86.85982892881871
 20
-1220.232241262621
 30
0.0
  0
VERTEX
  5
EF
330
EA
100
AcDbEntity
  8
Graypants_Float36
370
    -3
100
AcDbVertex
100
AcDb2dVertex
 10
-86.85981772210083
 20
-1220.232046160817
 30
0.0
  0
VERTEX
  5
F0
330
EA
100
AcDbEntity
  8
Graypants_Float36
370
    -3
100
AcDbVertex
100
AcDb2dVertex
 10
-86.8598101718034
 20
-1220.231850691675
 30
0.0
  0
VERTEX
  5
F1
330
EA
100
AcDbEntity
  8
Graypants_Float36
370
    -3
100
AcDbVertex
100
AcDb2dVertex
 10
-86.8598062732117
 20
-1220.231654856249
 30
0.0
  0
VERTEX
  5
F2
330
EA
100
AcDbEntity
  8
Graypants_Float36
370
    -3
100
AcDbVertex
100
AcDb2dVertex
 10
-86.85980602159744
 20
-1220.231458655595
 30
0.0
  0
VERTEX
  5
F3
330
EA
100
AcDbEntity
  8
Graypants_Float36
370
    -3
100
AcDbVertex
100
AcDb2dVertex
 10
-86.85980941221902
 20
-1220.231262090768
 30
0.0
  0
VERTEX
  5
F4
330
EA
100
AcDbEntity
  8
Graypants_Float36
370
    -3
100
AcDbVertex
100
AcDb2dVertex
 10
-86.85981644032144
 20
-1220.231065162825
 30
0.0
  0
VERTEX
  5
F5
330
EA
100
AcDbEntity
  8
Graypants_Float36
370
    -3
100
AcDbVertex
100
AcDb2dVertex
 10
-86.85982710113642
 20
-1220.230867872823
 30
0.0
  0
VERTEX
  5
F6
330
EA
100
AcDbEntity
  8
Graypants_Float36
370
    -3
100
AcDbVertex
100
AcDb2dVertex
 10
-86.85984138988258
 20
-1220.230670221817
 30
0.0
  0
VERTEX
  5
F7
330
EA
100
AcDbEntity
  8
Graypants_Float36
370
    -3
100
AcDbVertex
100
AcDb2dVertex
 10
-86.8598593017654
 20
-1220.230472210866
 30
0.0
  0
VERTEX
  5
F8
330
EA
100
AcDbEntity
  8
Graypants_Float36
370
    -3
100
AcDbVertex
100
AcDb2dVertex
 10
-86.85988083197728
 20
-1220.230273841026
 30
0.0
  0
VERTEX
  5
F9
330
EA
100
AcDbEntity
  8
Graypants_Float36
370
    -3
100
AcDbVertex
100
AcDb2dVertex
 10
-86.85990597569771
 20
-1220.230075113355
 30
0.0
  0
VERTEX
  5
FA
330
EA
100
AcDbEntity
  8
Graypants_Float36
370
    -3
100
AcDbVertex
100
AcDb2dVertex
 10
-86.859967084318
 20
-1220.229676588754
 30
0.0
  0
VERTEX
  5
FB
330
EA
100
AcDbEntity
  8
Graypants_Float36
370
    -3
100
AcDbVertex
100
AcDb2dVertex
 10
-86.86004258880595
 20
-1220.229276645527
 30
0.0
  0
VERTEX
  5
FC
330
EA
100
AcDbEntity
  8
Graypants_Float36
370
    -3
100
AcDbVertex
100
AcDb2dVertex
 10
-86.86013245013889
 20
-1220.228875292145
 30
0.0
  0
VERTEX
  5
FD
330
EA
100
AcDbEntity
  8
Graypants_Float36
370
    -3
100
AcDbVertex
100
AcDb2dVertex
 10
-86.86023662909417
 20
-1220.22847253708
 30
0.0
  0
VERTEX
  5
FE
330
EA
100
AcDbEntity
  8
Graypants_Float36
370
    -3
100
AcDbVertex
100
AcDb2dVertex
 10
-86.86035508625157
 20
-1220.228068388809
 30
0.0
  0
VERTEX
  5
FF
330
EA
100
AcDbEntity
  8
Graypants_Float36
370
    -3
100
AcDbVertex
100
AcDb2dVertex
 10
-86.86048778199573
 20
-1220.227662855809
 30
0.0
  0
VERTEX
  5
100
330
EA
100
AcDbEntity
  8
Graypants_Float36
370
    -3
100
AcDbVertex
100
AcDb2dVertex
 10
-86.86063467651863
 20
-1220.227255946561
 30
0.0
  0
VERTEX
  5
101
330
EA
100
AcDbEntity
  8
Graypants_Float36
370
    -3
100
AcDbVertex
100
AcDb2dVertex
 10
-86.86079572982186
 20
-1220.226847669547
 30
0.0
  0
VERTEX
  5
102
330
EA
100
AcDbEntity
  8
Graypants_Float36
370
    -3
100
AcDbVertex
100
AcDb2dVertex
 10
-86.86097090171921
 20
-1220.226438033253
 30
0.0
  0
VERTEX
  5
103
330
EA
100
AcDbEntity
  8
Graypants_Float36
370
    -3
100
AcDbVertex
100
AcDb2dVertex
 10
-86.86116015183893
 20
-1220.226027046162
 30
0.0
  0
VERTEX
  5
104
330
EA
100
AcDbEntity
  8
Graypants_Float36
370
    -3
100
AcDbVertex
100
AcDb2dVertex
 10
-86.8613634396263
 20
-1220.225614716761
 30
0.0
  0
VERTEX
  5
105
330
EA
100
AcDbEntity
  8
Graypants_Float36
370
    -3
100
AcDbVertex
100
AcDb2dVertex
 10
-86.8615807243459
 20
-1220.225201053536
 30
0.0
  0
VERTEX
  5
106
330
EA
100
AcDbEntity
  8
Graypants_Float36
370
    -3
100
AcDbVertex
100
AcDb2dVertex
 10
-86.86181196508406
 20
-1220.224786064974
 30
0.0
  0
VERTEX
  5
107
330
EA
100
AcDbEntity
  8
Graypants_Float36
370
    -3
100
AcDbVertex
100
AcDb2dVertex
 10
-86.8620571207513
 20
-1220.224369759562
 30
0.0
  0
VERTEX
  5
108
330
EA
100
AcDbEntity
  8
Graypants_Float36
370
    -3
100
AcDbVertex
100
AcDb2dVertex
 10
-86.86231615008474
 20
-1220.223952145786
 30
0.0
  0
VERTEX
  5
109
330
EA
100
AcDbEntity
  8
Graypants_Float36
370
    -3
100
AcDbVertex
100
AcDb2dVertex
 10
-86.86258901165044
 20
-1220.223533232131
 30
0.0
  0
VERTEX
  5
10A
330
EA
100
AcDbEntity
  8
Graypants_Float36
370
    -3
100
AcDbVertex
100
AcDb2dVertex
 10
-86.8628756638458
 20
-1220.223113027081
 30
0.0
  0
VERTEX
  5
10B
330
EA
100
AcDbEntity
  8
Graypants_Float36
370
    -3
100
AcDbVertex
100
AcDb2dVertex
 10
-86.863176064902
 20
-1220.222691539119
 30
0.0
  0
VERTEX
  5
10C
330
EA
100
AcDbEntity
  8
Graypants_Float36
370
    -3
100
AcDbVertex
100
AcDb2dVertex
 10
-86.86349017288637
 20
-1220.222268776727
 30
0.0
  0
VERTEX
  5
10D
330
EA
100
AcDbEntity
  8
Graypants_Float36
370
    -3
100
AcDbVertex
100
AcDb2dVertex
 10
-86.86381794570477
 20
-1220.221844748382
 30
0.0
  0
VERTEX
  5
10E
330
EA
100
AcDbEntity
  8
Graypants_Float36
370
    -3
100
AcDbVertex
100
AcDb2dVertex
 10
-86.86415934110389
 20
-1220.221419462561
 30
0.0
  0
VERTEX
  5
10F
330
EA
100
AcDbEntity
  8
Graypants_Float36
370
    -3
100
AcDbVertex
100
AcDb2dVertex
 10
-86.8648828298502
 20
-1220.220565152385
 30
0.0
  0
VERTEX
  5
110
330
EA
100
AcDbEntity
  8
Graypants_Float36
370
    -3
100
AcDbVertex
100
AcDb2dVertex
 10
-86.86566029800768
 20
-1220.219705913951
 30
0.0
  0
VERTEX
  5
111
330
EA
100
AcDbEntity
  8
Graypants_Float36
370
    -3
100
AcDbVertex
100
AcDb2dVertex
 10
-86.86649140206474
 20
-1220.21884181495
 30
0.0
  0
VERTEX
  5
112
330
EA
100
AcDbEntity
  8
Graypants_Float36
370
    -3
100
AcDbVertex
100
AcDb2dVertex
 10
-86.86737579619137
 20
-1220.217972923009
 30
0.0
  0
VERTEX
  5
113
330
EA
100
AcDbEntity
  8
Graypants_Float36
370
    -3
100
AcDbVertex
100
AcDb2dVertex
 10
-86.86831313231403
 20
-1220.217099305673
 30
0.0
  0
VERTEX
  5
114
330
EA
100
AcDbEntity
  8
Graypants_Float36
370
    -3
100
AcDbVertex
100
AcDb2dVertex
 10
-86.86930306019043
 20
-1220.216221030403
 30
0.0
  0
VERTEX
  5
115
330
EA
100
AcDbEntity
  8
Graypants_Float36
370
    -3
100
AcDbVertex
100
AcDb2dVertex
 10
-86.87034522748387
 20
-1220.21533816456
 30
0.0
  0
VERTEX
  5
116
330
EA
100
AcDbEntity
  8
Graypants_Float36
370
    -3
100
AcDbVertex
100
AcDb2dVertex
 10
-86.87143927983715
 20
-1220.2144507754
 30
0.0
  0
VERTEX
  5
117
330
EA
100
AcDbEntity
  8
Graypants_Float36
370
    -3
100
AcDbVertex
100
AcDb2dVertex
 10
-86.87258486094608
 20
-1220.213558930063
 30
0.0
  0
VERTEX
  5
118
330
EA
100
AcDbEntity
  8
Graypants_Float36
370
    -3
100
AcDbVertex
100
AcDb2dVertex
 10
-86.87378161263267
 20
-1220.212662695563
 30
0.0
  0
VERTEX
  5
119
330
EA
100
AcDbEntity
  8
Graypants_Float36
370
    -3
100
AcDbVertex
100
AcDb2dVertex
 10
-86.8763271860935
 20
-1220.210857326467
 30
0.0
  0
VERTEX
  5
11A
330
EA
100
AcDbEntity
  8
Graypants_Float36
370
    -3
100
AcDbVertex
100
AcDb2dVertex
 10
-86.87907310006976
 20
-1220.20903520141
 30
0.0
  0
VERTEX
  5
11B
330
EA
100
AcDbEntity
  8
Graypants_Float36
370
    -3
100
AcDbVertex
100
AcDb2dVertex
 10
-86.88201642903323
 20
-1220.20719685114
 30
0.0
  0
VERTEX
  5
11C
330
EA
100
AcDbEntity
  8
Graypants_Float36
370
    -3
100
AcDbVertex
100
AcDb2dVertex
 10
-86.88515422433329
 20
-1220.205342803592
 30
0.0
  0
VERTEX
  5
11D
330
EA
100
AcDbEntity
  8
Graypants_Float36
370
    -3
100
AcDbVertex
100
AcDb2dVertex
 10
-86.89084220698699
 20
-1220.202201065801
 30
0.0
  0
VERTEX
  5
11E
330
EA
100
AcDbEntity
  8
Graypants_Float36
370
    -3
100
AcDbVertex
100
AcDb2dVertex
 10
-86.89714552432834
 20
-1220.198973969737
 30
0.0
  0
VERTEX
  5
11F
330
EA
100
AcDbEntity
  8
Graypants_Float36
370
    -3
100
AcDbVertex
100
AcDb2dVertex
 10
-86.90407362670277
 20
-1220.195661394709
 30
0.0
  0
VERTEX
  5
120
330
EA
100
AcDbEntity
  8
Graypants_Float36
370
    -3
100
AcDbVertex
100
AcDb2dVertex
 10
-86.91163558545779
 20
-1220.192263303792
 30
0.0
  0
VERTEX
  5
121
330
EA
100
AcDbEntity
  8
Graypants_Float36
370
    -3
100
AcDbVertex
100
AcDb2dVertex
 10
-86.91984006462633
 20
-1220.188779746727
 30
0.0
  0
VERTEX
  5
122
330
EA
100
AcDbEntity
  8
Graypants_Float36
370
    -3
100
AcDbVertex
100
AcDb2dVertex
 10
-86.92869529251895
 20
-1220.185210862712
 30
0.0
  0
VERTEX
  5
123
330
EA
100
AcDbEntity
  8
Graypants_Float36
370
    -3
100
AcDbVertex
100
AcDb2dVertex
 10
-86.94838855881191
 20
-1220.177818133765
 30
0.0
  0
VERTEX
  5
124
330
EA
100
AcDbEntity
  8
Graypants_Float36
370
    -3
100
AcDbVertex
100
AcDb2dVertex
 10
-86.97077142079542
 20
-1220.170088117471
 30
0.0
  0
VERTEX
  5
125
330
EA
100
AcDbEntity
  8
Graypants_Float36
370
    -3
100
AcDbVertex
100
AcDb2dVertex
 10
-86.99589114705242
 20
-1220.162025400782
 30
0.0
  0
VERTEX
  5
126
330
EA
100
AcDbEntity
  8
Graypants_Float36
370
    -3
100
AcDbVertex
100
AcDb2dVertex
 10
-87.05448129997406
 20
-1220.144928501184
 30
0.0
  0
VERTEX
  5
127
330
EA
100
AcDbEntity
  8
Graypants_Float36
370
    -3
100
AcDbVertex
100
AcDb2dVertex
 10
-87.1243302978327
 20
-1220.126597838177
 30
0.0
  0
VERTEX
  5
128
330
EA
100
AcDbEntity
  8
Graypants_Float36
370
    -3
100
AcDbVertex
100
AcDb2dVertex
 10
-87.20542003231056
 20
-1220.107131556275
 30
0.0
  0
VERTEX
  5
129
330
EA
100
AcDbEntity
  8
Graypants_Float36
370
    -3
100
AcDbVertex
100
AcDb2dVertex
 10
-87.4002093795064
 20
-1220.065319462944
 30
0.0
  0
VERTEX
  5
12A
330
EA
100
AcDbEntity
  8
Graypants_Float36
370
    -3
100
AcDbVertex
100
AcDb2dVertex
 10
-87.63448397525144
 20
-1220.020782741367
 30
0.0
  0
VERTEX
  5
12B
330
EA
100
AcDbEntity
  8
Graypants_Float36
370
    -3
100
AcDbVertex
100
AcDb2dVertex
 10
-87.9006807545711
 20
-1219.975094264311
 30
0.0
  0
VERTEX
  5
12C
330
EA
100
AcDbEntity
  8
Graypants_Float36
370
    -3
100
AcDbVertex
100
AcDb2dVertex
 10
-88.48767466181774
 20
-1219.886874251306
 30
0.0
  0
SEQEND
  5
12D
330
EA
100
AcDbEntity
  8
Graypants_Float36
370
    -3
  0
LINE
  5
12E
330
1F
100
AcDbEntity
  8
Graypants_Float36
100
AcDbLine
 10
-89.29298298986191
 20
-1219.931010145938
 30
0.0
 11
-88.50527020292998
 21
-1220.028722109401
 31
0.0
  0
LINE
  5
12F
330
1F
100
AcDbEntity
  8
Graypants_Float36
100
AcDbLine
 10
-0.3968750061633273
 20
-1219.693995870495
 30
0.0
 11
-0.3968750042611191
 21
-722.7108251330426
 31
0.0
  0
LINE
  5
130
330
1F
100
AcDbEntity
  8
Graypants_Float36
100
AcDbLine
 10
0.3968749938364908
 20
-1219.693995870111
 30
0.0
 11
0.396874995738699
 21
-722.7108251330458
 31
0.0
  0
LINE
  5
131
330
1F
100
AcDbEntity
  8
Graypants_Float36
100
AcDbLine
 10
-3.0
 20
-722.7108251330448
 30
0.0
 11
-3.0
 21
-1222.461570384004
 31
0.0
  0
LINE
  5
132
330
1F
100
AcDbEntity
  8
Graypants_Float36
100
AcDbLine
 10
2.999999999999773
 20
-722.7108251330449
 30
0.0
 11
2.999999999999773
 21
-1222.461570384005
 31
0.0
  0
CIRCLE
  5
133
330
1F
100
AcDbEntity
  8
Graypants_Float36
100
AcDbCircle
 10
0.0
 20
0.0
 30
0.0
 40
3.0
  0
CIRCLE
  5
134
330
1F
100
AcDbEntity
  8
Graypants_Float36
370
    -3
100
AcDbCircle
 10
-0.0000000008092131
 20
0.000000001426076
 30
0.0
 40
413.9019005330629
  0
CIRCLE
  5
135
330
1F
100
AcDbEntity
  8
Graypants_Float36
370
    -3
100
AcDbCircle
 10
-0.0000000008092131
 20
0.000000001426076
 30
0.0
 40
421.0636745486554
  0
CIRCLE
  5
136
330
1F
100
AcDbEntity
  8
Graypants_Float36
370
    -3
100
AcDbCircle
 10
-0.0000000008092131
 20
0.000000001426076
 30
0.0
 40
429.8481260559929
  0
CIRCLE
  5
137
330
1F
100
AcDbEntity
  8
Graypants_Float36
370
    -3
100
AcDbCircle
 10
-0.0000000008092332
 20
0.0000000014260961
 30
0.0
 40
426.3560649199935
  0
CIRCLE
  5
138
330
1F
100
AcDbEntity
  8
Graypants_Float36
370
    -3
100
AcDbCircle
 10
-0.0000000008092231
 20
0.0000000014260861
 30
0.0
 40
295.9680669120862
  0
CIRCLE
  5
139
330
1F
100
AcDbEntity
  8
Graypants_Float36
370
    -3
100
AcDbCircle
 10
-0.0000000008092332
 20
0.0000000014260961
 30
0.0
 40
428.3238524997287
  0
CIRCLE
  5
13A
330
1F
100
AcDbEntity
  8
Graypants_Float36
370
    -3
100
AcDbCircle
 10
-0.0000000008092131
 20
0.000000001426076
 30
0.0
 40
399.4270691653946
  0
CIRCLE
  5
13B
330
1F
100
AcDbEntity
  8
Graypants_Float36
370
    -3
100
AcDbCircle
 10
-0.0000000008092131
 20
0.000000001426076
 30
0.0
 40
363.9311161854712
  0
CIRCLE
  5
13C
330
1F
100
AcDbEntity
  8
Graypants_Float36
370
    -3
100
AcDbCircle
 10
-0.0000000008092332
 20
0.0000000014260961
 30
0.0
 40
423.9385874103318
  0
CIRCLE
  5
13D
330
1F
100
AcDbEntity
  8
Graypants_Float36
370
    -3
100
AcDbCircle
 10
-0.0000000008092231
 20
0.0000000014260861
 30
0.0
 40
334.2204444763338
  0
CIRCLE
  5
13E
330
1F
100
AcDbEntity
  8
Graypants_Float36
370
    -3
100
AcDbCircle
 10
-0.0000000008092332
 20
0.0000000014260559
 30
0.0
 40
430.9335919315636
  0
CIRCLE
  5
13F
330
1F
100
AcDbEntity
  8
Graypants_Float36
370
    -3
100
AcDbCircle
 10
-0.0000000008092231
 20
0.0000000014261062
 30
0.0
 40
263.9272482203087
  0
CIRCLE
  5
140
330
1F
100
AcDbEntity
  8
Graypants_Float36
370
    -3
100
AcDbCircle
 10
-0.0000000008092231
 20
0.000000001426066
 30
0.0
 40
245.2085453347245
  0
CIRCLE
  5
141
330
1F
100
AcDbEntity
  8
Graypants_Float36
370
    -3
100
AcDbCircle
 10
-0.0000000008092131
 20
0.000000001426076
 30
0.0
 40
380.0072720975731
  0
CIRCLE
  5
142
330
1F
100
AcDbEntity
  8
Graypants_Float36
370
    -3
100
AcDbCircle
 10
-0.0000000008092131
 20
0.000000001426076
 30
0.0
 40
387.0720244319527
  0
CIRCLE
  5
143
330
1F
100
AcDbEntity
  8
Graypants_Float36
370
    -3
100
AcDbCircle
 10
-0.0000000008092332
 20
0.0000000014260961
 30
0.0
 40
417.7218817357789
  0
CIRCLE
  5
144
330
1F
100
AcDbEntity
  8
Graypants_Float36
370
    -3
100
AcDbCircle
 10
-0.0000000008092332
 20
0.0000000014260961
 30
0.0
 40
409.5903519083513
  0
CIRCLE
  5
145
330
1F
100
AcDbEntity
  8
Graypants_Float36
370
    -3
100
AcDbCircle
 10
-0.0000000008092332
 20
0.0000000014260961
 30
0.0
 40
393.5355608788086
  0
CIRCLE
  5
146
330
1F
100
AcDbEntity
  8
Graypants_Float36
370
    -3
100
AcDbCircle
 10
-0.0000000008092131
 20
0.000000001426076
 30
0.0
 40
431.5835610443901
  0
CIRCLE
  5
147
330
1F
100
AcDbEntity
  8
Graypants_Float36
370
    -3
100
AcDbCircle
 10
-0.0000000008092332
 20
0.0000000014260961
 30
0.0
 40
344.9510532221902
  0
CIRCLE
  5
148
330
1F
100
AcDbEntity
  8
Graypants_Float36
370
    -3
100
AcDbCircle
 10
-0.0000000008092332
 20
0.0000000014260961
 30
0.0
 40
354.8315277139045
  0
CIRCLE
  5
149
330
1F
100
AcDbEntity
  8
Graypants_Float36
370
    -3
100
AcDbCircle
 10
-0.0000000008092332
 20
0.0000000014260961
 30
0.0
 40
372.3070801418653
  0
CIRCLE
  5
14A
330
1F
100
AcDbEntity
  8
Graypants_Float36
370
    -3
100
AcDbCircle
 10
-0.0000000008092332
 20
0.0000000014260961
 30
0.0
 40
404.771527920966
  0
CIRCLE
  5
14B
330
1F
100
AcDbEntity
  8
Graypants_Float36
370
    -3
100
AcDbCircle
 10
-0.0000000008092231
 20
0.0000000014261062
 30
0.0
 40
309.8487360991421
  0
CIRCLE
  5
14C
330
1F
100
AcDbEntity
  8
Graypants_Float36
370
    -3
100
AcDbCircle
 10
-0.0000000008092231
 20
0.0000000014260861
 30
0.0
 40
322.5548669921554
  0
CIRCLE
  5
14D
330
1F
100
AcDbEntity
  8
Graypants_Float36
370
    -3
100
AcDbCircle
 10
-0.0000000008092231
 20
0.0000000014260861
 30
0.0
 40
280.7386940352881
  0
LINE
  5
14E
330
1F
100
AcDbEntity
  8
Graypants_Float36
370
    -3
100
AcDbLine
 10
-413.9019005370301
 20
-1371.811570383978
 30
0.0
 11
-0.0000000039676706
 21
-1371.811570383981
 31
0.0
  0
LINE
  5
14F
330
1F
100
AcDbEntity
  8
Graypants_Float36
370
    -3
100
AcDbLine
 10
-0.0000000039676706
 20
-1371.811570383981
 30
0.0
 11
413.9019005290957
 21
-1371.811570383978
 31
0.0
  0
LINE
  5
150
330
1F
100
AcDbEntity
  8
Graypants_Float36
370
    -3
100
AcDbLine
 10
-404.7715279249333
 20
-1357.611570383984
 30
0.0
 11
-0.0000000039676706
 21
-1357.611570383984
 31
0.0
  0
LINE
  5
151
330
1F
100
AcDbEntity
  8
Graypants_Float36
370
    -3
100
AcDbLine
 10
-0.0000000039676706
 20
-1357.611570383984
 30
0.0
 11
404.7715279169988
 21
-1357.611570383984
 31
0.0
  0
LINE
  5
152
330
1F
100
AcDbEntity
  8
Graypants_Float36
370
    -3
100
AcDbLine
 10
-334.220444480301
 20
-1293.711570384005
 30
0.0
 11
-0.0000000039676706
 21
-1293.711570384005
 31
0.0
  0
LINE
  5
153
330
1F
100
AcDbEntity
  8
Graypants_Float36
370
    -3
100
AcDbLine
 10
-0.0000000039676706
 20
-1293.711570384005
 30
0.0
 11
334.2204444723666
 21
-1293.711570384005
 31
0.0
  0
LINE
  5
154
330
1F
100
AcDbEntity
  8
Graypants_Float36
370
    -3
100
AcDbLine
 10
-309.8487361031093
 20
-1279.511570384007
 30
0.0
 11
-0.0000000039676706
 21
-1279.511570384007
 31
0.0
  0
LINE
  5
155
330
1F
100
AcDbEntity
  8
Graypants_Float36
370
    -3
100
AcDbLine
 10
-0.0000000039676706
 20
-1279.511570384007
 30
0.0
 11
309.8487360951749
 21
-1279.511570384007
 31
0.0
  0
LINE
  5
156
330
1F
100
AcDbEntity
  8
Graypants_Float36
370
    -3
100
AcDbLine
 10
-135.160598510507
 20
-1222.711570384014
 30
0.0
 11
135.1605985025726
 21
-1222.711570384014
 31
0.0
  0
LINE
  5
157
330
1F
100
AcDbEntity
  8
Graypants_Float36
370
    -3
100
AcDbLine
 10
-280.7386940392553
 20
-1265.311570384001
 30
0.0
 11
280.7386940313208
 21
-1265.311570384001
 31
0.0
  0
LINE
  5
158
330
1F
100
AcDbEntity
  8
Graypants_Float36
370
    -3
100
AcDbLine
 10
224.1051748241619
 20
-1244.011570384014
 30
0.0
 11
-224.1051748321018
 21
-1244.011570384014
 31
0.0
  0
LINE
  5
159
330
1F
100
AcDbEntity
  8
Graypants_Float36
370
    -3
100
AcDbLine
 10
-199.8631741803347
 20
-1236.911570384013
 30
0.0
 11
199.8631741724002
 21
-1236.911570384013
 31
0.0
  0
LINE
  5
15A
330
1F
100
AcDbEntity
  8
Graypants_Float36
370
    -3
100
AcDbLine
 10
-171.1540467761315
 20
-1229.811570384013
 30
0.0
 11
171.1540467681971
 21
-1229.811570384013
 31
0.0
  0
LINE
  5
15B
330
1F
100
AcDbEntity
  8
Graypants_Float36
370
    -3
100
AcDbLine
 10
-55.65000000426653
 20
-722.7108251330446
 30
0.0
 11
55.64999999574275
 21
-722.7108251330446
 31
0.0
  0
LINE
  5
15C
330
1F
100
AcDbEntity
  8
Graypants_Float36
370
    -3
100
AcDbLine
 10
-423.938587414299
 20
-1393.111570383984
 30
0.0
 11
-0.0000000039676706
 21
-1393.111570383984
 31
0.0
  0
LINE
  5
15D
330
1F
100
AcDbEntity
  8
Graypants_Float36
370
    -3
100
AcDbLine
 10
-0.0000000039676706
 20
-1393.111570383984
 30
0.0
 11
423.9385874063646
 21
-1393.111570383984
 31
0.0
  0
LINE
  5
15E
330
1F
100
AcDbEntity
  8
Graypants_Float36
370
    -3
100
AcDbLine
 10
-417.7218817397461
 20
-1378.911570383987
 30
0.0
 11
-0.0000000039676706
 21
-1378.911570383987
 31
0.0
  0
LINE
  5
15F
330
1F
100
AcDbEntity
  8
Graypants_Float36
370
    -3
100
AcDbLine
 10
-0.0000000039676706
 20
-1378.911570383987
 30
0.0
 11
417.7218817318117
 21
-1378.911570383987
 31
0.0
  0
LINE
  5
160
330
1F
100
AcDbEntity
  8
Graypants_Float36
370
    -3
100
AcDbLine
 10
-409.5903519123185
 20
-1364.71157038399
 30
0.0
 11
-0.0000000039676706
 21
-1364.71157038399
 31
0.0
  0
LINE
  5
161
330
1F
100
AcDbEntity
  8
Graypants_Float36
370
    -3
100
AcDbLine
 10
-0.0000000039676706
 20
-1364.71157038399
 30
0.0
 11
409.5903519043841
 21
-1364.71157038399
 31
0.0
  0
LINE
  5
162
330
1F
100
AcDbEntity
  8
Graypants_Float36
370
    -3
100
AcDbLine
 10
-363.9311161894384
 20
-1315.011570383993
 30
0.0
 11
-0.0000000039676706
 21
-1315.011570383993
 31
0.0
  0
LINE
  5
163
330
1F
100
AcDbEntity
  8
Graypants_Float36
370
    -3
100
AcDbLine
 10
-0.0000000039676706
 20
-1315.011570383993
 30
0.0
 11
363.931116181504
 21
-1315.011570383993
 31
0.0
  0
LINE
  5
164
330
1F
100
AcDbEntity
  8
Graypants_Float36
370
    -3
100
AcDbLine
 10
-393.5355608827758
 20
-1343.411570383987
 30
0.0
 11
-0.0000000039667611
 21
-1343.411570383987
 31
0.0
  0
LINE
  5
165
330
1F
100
AcDbEntity
  8
Graypants_Float36
370
    -3
100
AcDbLine
 10
-0.0000000039667611
 20
-1343.411570383987
 30
0.0
 11
393.5355608748414
 21
-1343.411570383987
 31
0.0
  0
LINE
  5
166
330
1F
100
AcDbEntity
  8
Graypants_Float36
370
    -3
100
AcDbLine
 10
-426.3560649239607
 20
-1400.211570383975
 30
0.0
 11
-0.0000000039676706
 21
-1400.211570383975
 31
0.0
  0
LINE
  5
167
330
1F
100
AcDbEntity
  8
Graypants_Float36
370
    -3
100
AcDbLine
 10
-0.0000000039676706
 20
-1400.211570383975
 30
0.0
 11
426.3560649160263
 21
-1400.211570383975
 31
0.0
  0
LINE
  5
168
330
1F
100
AcDbEntity
  8
Graypants_Float36
370
    -3
100
AcDbLine
 10
-399.4270691693619
 20
-1350.511570383993
 30
0.0
 11
-0.0000000039672159
 21
-1350.511570383993
 31
0.0
  0
LINE
  5
169
330
1F
100
AcDbEntity
  8
Graypants_Float36
370
    -3
100
AcDbLine
 10
-0.0000000039672159
 20
-1350.511570383993
 30
0.0
 11
399.4270691614274
 21
-1350.511570383993
 31
0.0
  0
LINE
  5
16A
330
1F
100
AcDbEntity
  8
Graypants_Float36
370
    -3
100
AcDbLine
 10
-428.3238525036959
 20
-1407.311570383981
 30
0.0
 11
-0.0000000039676706
 21
-1407.311570383981
 31
0.0
  0
LINE
  5
16B
330
1F
100
AcDbEntity
  8
Graypants_Float36
370
    -3
100
AcDbLine
 10
-0.0000000039676706
 20
-1407.311570383981
 30
0.0
 11
428.3238524957615
 21
-1407.311570383981
 31
0.0
  0
LINE
  5
16C
330
1F
100
AcDbEntity
  8
Graypants_Float36
370
    -3
100
AcDbLine
 10
-430.9335919355308
 20
-1421.511570383978
 30
0.0
 11
-0.0000000039681254
 21
-1421.511570383978
 31
0.0
  0
LINE
  5
16D
330
1F
100
AcDbEntity
  8
Graypants_Float36
370
    -3
100
AcDbLine
 10
-0.0000000039681254
 20
-1421.511570383978
 30
0.0
 11
430.9335919275964
 21
-1421.511570383978
 31
0.0
  0
LINE
  5
16E
330
1F
100
AcDbEntity
  8
Graypants_Float36
370
    -3
100
AcDbLine
 10
-263.9272482242759
 20
-1258.211570384002
 30
0.0
 11
263.9272482163415
 21
-1258.211570384002
 31
0.0
  0
POLYLINE
  5
16F
330
1F
100
AcDbEntity
  8
Graypants_Float36
370
    -3
100
AcDb2dPolyline
 66
     1
 10
0.0
 20
0.0
 30
0.0
  0
VERTEX
  5
170
330
16F
100
AcDbEntity
  8
Graypants_Float36
370
    -3
100
AcDbVertex
100
AcDb2dVertex
 10
-2.054872123087306
 20
-1219.979866127669
 30
0.0
  0
VERTEX
  5
171
330
16F
100
AcDbEntity
  8
Graypants_Float36
370
    -3
100
AcDbVertex
100
AcDb2dVertex
 10
-2.054863838693838
 20
-1219.979038801868
 30
0.0
  0
VERTEX
  5
172
330
16F
100
AcDbEntity
  8
Graypants_Float36
370
    -3
100
AcDbVertex
100
AcDb2dVertex
 10
-2.054838990401135
 20
-1219.978211603102
 30
0.0
  0
VERTEX
  5
173
330
16F
100
AcDbEntity
  8
Graypants_Float36
370
    -3
100
AcDbVertex
100
AcDb2dVertex
 10
-2.054797585838703
 20
-1219.977384541342
 30
0.0
  0
VERTEX
  5
174
330
16F
100
AcDbEntity
  8
Graypants_Float36
370
    -3
100
AcDbVertex
100
AcDb2dVertex
 10
-2.054739633032788
 20
-1219.976557626548
 30
0.0
  0
VERTEX
  5
175
330
16F
100
AcDbEntity
  8
Graypants_Float36
370
    -3
100
AcDbVertex
100
AcDb2dVertex
 10
-2.054665140405746
 20
-1219.975730868673
 30
0.0
  0
VERTEX
  5
176
330
16F
100
AcDbEntity
  8
Graypants_Float36
370
    -3
100
AcDbVertex
100
AcDb2dVertex
 10
-2.0545741167754
 20
-1219.974904277657
 30
0.0
  0
VERTEX
  5
177
330
16F
100
AcDbEntity
  8
Graypants_Float36
370
    -3
100
AcDbVertex
100
AcDb2dVertex
 10
-2.054466571354367
 20
-1219.974077863432
 30
0.0
  0
VERTEX
  5
178
330
16F
100
AcDbEntity
  8
Graypants_Float36
370
    -3
100
AcDbVertex
100
AcDb2dVertex
 10
-2.054342513749364
 20
-1219.973251635917
 30
0.0
  0
VERTEX
  5
179
330
16F
100
AcDbEntity
  8
Graypants_Float36
370
    -3
100
AcDbVertex
100
AcDb2dVertex
 10
-2.054201953960487
 20
-1219.972425605021
 30
0.0
  0
VERTEX
  5
17A
330
16F
100
AcDbEntity
  8
Graypants_Float36
370
    -3
100
AcDbVertex
100
AcDb2dVertex
 10
-2.054044902380477
 20
-1219.971599780642
 30
0.0
  0
VERTEX
  5
17B
330
16F
100
AcDbEntity
  8
Graypants_Float36
370
    -3
100
AcDbVertex
100
AcDb2dVertex
 10
-2.053871369793947
 20
-1219.970774172665
 30
0.0
  0
VERTEX
  5
17C
330
16F
100
AcDbEntity
  8
Graypants_Float36
370
    -3
100
AcDbVertex
100
AcDb2dVertex
 10
-2.0536813673766
 20
-1219.969948790962
 30
0.0
  0
VERTEX
  5
17D
330
16F
100
AcDbEntity
  8
Graypants_Float36
370
    -3
100
AcDbVertex
100
AcDb2dVertex
 10
-2.053474906694423
 20
-1219.969123645393
 30
0.0
  0
VERTEX
  5
17E
330
16F
100
AcDbEntity
  8
Graypants_Float36
370
    -3
100
AcDbVertex
100
AcDb2dVertex
 10
-2.053251999702848
 20
-1219.968298745805
 30
0.0
  0
VERTEX
  5
17F
330
16F
100
AcDbEntity
  8
Graypants_Float36
370
    -3
100
AcDbVertex
100
AcDb2dVertex
 10
-2.053012658745899
 20
-1219.967474102031
 30
0.0
  0
VERTEX
  5
180
330
16F
100
AcDbEntity
  8
Graypants_Float36
370
    -3
100
AcDbVertex
100
AcDb2dVertex
 10
-2.052756896555318
 20
-1219.96664972389
 30
0.0
  0
VERTEX
  5
181
330
16F
100
AcDbEntity
  8
Graypants_Float36
370
    -3
100
AcDbVertex
100
AcDb2dVertex
 10
-2.052484726249662
 20
-1219.965825621187
 30
0.0
  0
VERTEX
  5
182
330
16F
100
AcDbEntity
  8
Graypants_Float36
370
    -3
100
AcDbVertex
100
AcDb2dVertex
 10
-2.052196161333379
 20
-1219.965001803713
 30
0.0
  0
VERTEX
  5
183
330
16F
100
AcDbEntity
  8
Graypants_Float36
370
    -3
100
AcDbVertex
100
AcDb2dVertex
 10
-2.05189121569587
 20
-1219.964178281242
 30
0.0
  0
VERTEX
  5
184
330
16F
100
AcDbEntity
  8
Graypants_Float36
370
    -3
100
AcDbVertex
100
AcDb2dVertex
 10
-2.051569903610517
 20
-1219.963355063534
 30
0.0
  0
VERTEX
  5
185
330
16F
100
AcDbEntity
  8
Graypants_Float36
370
    -3
100
AcDbVertex
100
AcDb2dVertex
 10
-2.050878239103763
 20
-1219.961709581365
 30
0.0
  0
VERTEX
  5
186
330
16F
100
AcDbEntity
  8
Graypants_Float36
370
    -3
100
AcDbVertex
100
AcDb2dVertex
 10
-2.050121289641727
 20
-1219.960065434958
 30
0.0
  0
VERTEX
  5
187
330
16F
100
AcDbEntity
  8
Graypants_Float36
370
    -3
100
AcDbVertex
100
AcDb2dVertex
 10
-2.049299183131228
 20
-1219.958422701795
 30
0.0
  0
VERTEX
  5
188
330
16F
100
AcDbEntity
  8
Graypants_Float36
370
    -3
100
AcDbVertex
100
AcDb2dVertex
 10
-2.04841205352256
 20
-1219.956781459075
 30
0.0
  0
VERTEX
  5
189
330
16F
100
AcDbEntity
  8
Graypants_Float36
370
    -3
100
AcDbVertex
100
AcDb2dVertex
 10
-2.047460040773387
 20
-1219.955141783699
 30
0.0
  0
VERTEX
  5
18A
330
16F
100
AcDbEntity
  8
Graypants_Float36
370
    -3
100
AcDbVertex
100
AcDb2dVertex
 10
-2.046443290811318
 20
-1219.953503752264
 30
0.0
  0
VERTEX
  5
18B
330
16F
100
AcDbEntity
  8
Graypants_Float36
370
    -3
100
AcDbVertex
100
AcDb2dVertex
 10
-2.045361955495131
 20
-1219.951867441047
 30
0.0
  0
VERTEX
  5
18C
330
16F
100
AcDbEntity
  8
Graypants_Float36
370
    -3
100
AcDbVertex
100
AcDb2dVertex
 10
-2.044216192574717
 20
-1219.950232925997
 30
0.0
  0
VERTEX
  5
18D
330
16F
100
AcDbEntity
  8
Graypants_Float36
370
    -3
100
AcDbVertex
100
AcDb2dVertex
 10
-2.043006165649718
 20
-1219.948600282721
 30
0.0
  0
VERTEX
  5
18E
330
16F
100
AcDbEntity
  8
Graypants_Float36
370
    -3
100
AcDbVertex
100
AcDb2dVertex
 10
-2.041732044126902
 20
-1219.946969586475
 30
0.0
  0
VERTEX
  5
18F
330
16F
100
AcDbEntity
  8
Graypants_Float36
370
    -3
100
AcDbVertex
100
AcDb2dVertex
 10
-2.04039400317629
 20
-1219.945340912151
 30
0.0
  0
VERTEX
  5
190
330
16F
100
AcDbEntity
  8
Graypants_Float36
370
    -3
100
AcDbVertex
100
AcDb2dVertex
 10
-2.038992223686051
 20
-1219.943714334267
 30
0.0
  0
VERTEX
  5
191
330
16F
100
AcDbEntity
  8
Graypants_Float36
370
    -3
100
AcDbVertex
100
AcDb2dVertex
 10
-2.037526892216189
 20
-1219.942089926956
 30
0.0
  0
VERTEX
  5
192
330
16F
100
AcDbEntity
  8
Graypants_Float36
370
    -3
100
AcDbVertex
100
AcDb2dVertex
 10
-2.035998200951035
 20
-1219.940467763956
 30
0.0
  0
VERTEX
  5
193
330
16F
100
AcDbEntity
  8
Graypants_Float36
370
    -3
100
AcDbVertex
100
AcDb2dVertex
 10
-2.034406347650582
 20
-1219.938847918601
 30
0.0
  0
VERTEX
  5
194
330
16F
100
AcDbEntity
  8
Graypants_Float36
370
    -3
100
AcDbVertex
100
AcDb2dVertex
 10
-2.032751535600664
 20
-1219.937230463805
 30
0.0
  0
VERTEX
  5
195
330
16F
100
AcDbEntity
  8
Graypants_Float36
370
    -3
100
AcDbVertex
100
AcDb2dVertex
 10
-2.031033973562014
 20
-1219.935615472057
 30
0.0
  0
VERTEX
  5
196
330
16F
100
AcDbEntity
  8
Graypants_Float36
370
    -3
100
AcDbVertex
100
AcDb2dVertex
 10
-2.02925387571822
 20
-1219.93400301541
 30
0.0
  0
VERTEX
  5
197
330
16F
100
AcDbEntity
  8
Graypants_Float36
370
    -3
100
AcDbVertex
100
AcDb2dVertex
 10
-2.025506956144042
 20
-1219.930785993387
 30
0.0
  0
VERTEX
  5
198
330
16F
100
AcDbEntity
  8
Graypants_Float36
370
    -3
100
AcDbVertex
100
AcDb2dVertex
 10
-2.021512596759044
 20
-1219.92757996505
 30
0.0
  0
VERTEX
  5
199
330
16F
100
AcDbEntity
  8
Graypants_Float36
370
    -3
100
AcDbVertex
100
AcDb2dVertex
 10
-2.017272700702152
 20
-1219.924385490101
 30
0.0
  0
VERTEX
  5
19A
330
16F
100
AcDbEntity
  8
Graypants_Float36
370
    -3
100
AcDbVertex
100
AcDb2dVertex
 10
-2.012789252524686
 20
-1219.921203120346
 30
0.0
  0
VERTEX
  5
19B
330
16F
100
AcDbEntity
  8
Graypants_Float36
370
    -3
100
AcDbVertex
100
AcDb2dVertex
 10
-2.008064316284845
 20
-1219.918033399394
 30
0.0
  0
VERTEX
  5
19C
330
16F
100
AcDbEntity
  8
Graypants_Float36
370
    -3
100
AcDbVertex
100
AcDb2dVertex
 10
-2.003100033585469
 20
-1219.914876862395
 30
0.0
  0
VERTEX
  5
19D
330
16F
100
AcDbEntity
  8
Graypants_Float36
370
    -3
100
AcDbVertex
100
AcDb2dVertex
 10
-1.997898621558341
 20
-1219.911734035764
 30
0.0
  0
VERTEX
  5
19E
330
16F
100
AcDbEntity
  8
Graypants_Float36
370
    -3
100
AcDbVertex
100
AcDb2dVertex
 10
-1.992462370798335
 20
-1219.908605436937
 30
0.0
  0
VERTEX
  5
19F
330
16F
100
AcDbEntity
  8
Graypants_Float36
370
    -3
100
AcDbVertex
100
AcDb2dVertex
 10
-1.986793643250749
 20
-1219.905491574123
 30
0.0
  0
VERTEX
  5
1A0
330
16F
100
AcDbEntity
  8
Graypants_Float36
370
    -3
100
AcDbVertex
100
AcDb2dVertex
 10
-1.980894870055212
 20
-1219.902392946074
 30
0.0
  0
VERTEX
  5
1A1
330
16F
100
AcDbEntity
  8
Graypants_Float36
370
    -3
100
AcDbVertex
100
AcDb2dVertex
 10
-1.968417244037138
 20
-1219.896243340695
 30
0.0
  0
VERTEX
  5
1A2
330
16F
100
AcDbEntity
  8
Graypants_Float36
370
    -3
100
AcDbVertex
100
AcDb2dVertex
 10
-1.955050241407696
 20
-1219.890160413642
 30
0.0
  0
VERTEX
  5
1A3
330
16F
100
AcDbEntity
  8
Graypants_Float36
370
    -3
100
AcDbVertex
100
AcDb2dVertex
 10
-1.940815573883848
 20
-1219.884147793629
 30
0.0
  0
VERTEX
  5
1A4
330
16F
100
AcDbEntity
  8
Graypants_Float36
370
    -3
100
AcDbVertex
100
AcDb2dVertex
 10
-1.925735841622778
 20
-1219.878208939921
 30
0.0
  0
VERTEX
  5
1A5
330
16F
100
AcDbEntity
  8
Graypants_Float36
370
    -3
100
AcDbVertex
100
AcDb2dVertex
 10
-1.909834457359952
 20
-1219.872347137783
 30
0.0
  0
VERTEX
  5
1A6
330
16F
100
AcDbEntity
  8
Graypants_Float36
370
    -3
100
AcDbVertex
100
AcDb2dVertex
 10
-1.893135569726554
 20
-1219.866565494682
 30
0.0
  0
VERTEX
  5
1A7
330
16F
100
AcDbEntity
  8
Graypants_Float36
370
    -3
100
AcDbVertex
100
AcDb2dVertex
 10
-1.857445095839048
 20
-1219.855254209076
 30
0.0
  0
VERTEX
  5
1A8
330
16F
100
AcDbEntity
  8
Graypants_Float36
370
    -3
100
AcDbVertex
100
AcDb2dVertex
 10
-1.818869400778141
 20
-1219.84429629036
 30
0.0
  0
VERTEX
  5
1A9
330
16F
100
AcDbEntity
  8
Graypants_Float36
370
    -3
100
AcDbVertex
100
AcDb2dVertex
 10
-1.777620339609985
 20
-1219.833709983189
 30
0.0
  0
VERTEX
  5
1AA
330
16F
100
AcDbEntity
  8
Graypants_Float36
370
    -3
100
AcDbVertex
100
AcDb2dVertex
 10
-1.733914274736333
 20
-1219.823510574706
 30
0.0
  0
VERTEX
  5
1AB
330
16F
100
AcDbEntity
  8
Graypants_Float36
370
    -3
100
AcDbVertex
100
AcDb2dVertex
 10
-1.687969818271719
 20
-1219.813710439781
 30
0.0
  0
VERTEX
  5
1AC
330
16F
100
AcDbEntity
  8
Graypants_Float36
370
    -3
100
AcDbVertex
100
AcDb2dVertex
 10
-1.590238905831939
 20
-1219.795343446171
 30
0.0
  0
VERTEX
  5
1AD
330
16F
100
AcDbEntity
  8
Graypants_Float36
370
    -3
100
AcDbVertex
100
AcDb2dVertex
 10
-1.466869757865918
 20
-1219.775829777306
 30
0.0
  0
VERTEX
  5
1AE
330
16F
100
AcDbEntity
  8
Graypants_Float36
370
    -3
100
AcDbVertex
100
AcDb2dVertex
 10
-1.326883897172452
 20
-1219.757395560158
 30
0.0
  0
VERTEX
  5
1AF
330
16F
100
AcDbEntity
  8
Graypants_Float36
370
    -3
100
AcDbVertex
100
AcDb2dVertex
 10
-1.170763369095683
 20
-1219.740424454278
 30
0.0
  0
VERTEX
  5
1B0
330
16F
100
AcDbEntity
  8
Graypants_Float36
370
    -3
100
AcDbVertex
100
AcDb2dVertex
 10
-0.9995473999861196
 20
-1219.725302325594
 30
0.0
  0
VERTEX
  5
1B1
330
16F
100
AcDbEntity
  8
Graypants_Float36
370
    -3
100
AcDbVertex
100
AcDb2dVertex
 10
-0.6188845352109146
 20
-1219.70203843531
 30
0.0
  0
VERTEX
  5
1B2
330
16F
100
AcDbEntity
  8
Graypants_Float36
370
    -3
100
AcDbVertex
100
AcDb2dVertex
 10
-0.204240572180864
 20
-1219.689952801754
 30
0.0
  0
VERTEX
  5
1B3
330
16F
100
AcDbEntity
  8
Graypants_Float36
370
    -3
100
AcDbVertex
100
AcDb2dVertex
 10
0.2190709812205159
 20
-1219.690170551
 30
0.0
  0
VERTEX
  5
1B4
330
16F
100
AcDbEntity
  8
Graypants_Float36
370
    -3
100
AcDbVertex
100
AcDb2dVertex
 10
0.6246671475503823
 20
-1219.702298729379
 30
0.0
  0
VERTEX
  5
1B5
330
16F
100
AcDbEntity
  8
Graypants_Float36
370
    -3
100
AcDbVertex
100
AcDb2dVertex
 10
0.9903080147628568
 20
-1219.724577391416
 30
0.0
  0
VERTEX
  5
1B6
330
16F
100
AcDbEntity
  8
Graypants_Float36
370
    -3
100
AcDbVertex
100
AcDb2dVertex
 10
1.153244817651357
 20
-1219.73872134368
 30
0.0
  0
VERTEX
  5
1B7
330
16F
100
AcDbEntity
  8
Graypants_Float36
370
    -3
100
AcDbVertex
100
AcDb2dVertex
 10
1.301399119087364
 20
-1219.754389451746
 30
0.0
  0
SEQEND
  5
1B8
330
16F
100
AcDbEntity
  8
Graypants_Float36
370
    -3
  0
LINE
  5
1B9
330
1F
100
AcDbEntity
  8
Graypants_Float36
370
    -3
100
AcDbLine
 10
2.054872124525623
 20
-1219.979866127669
 30
0.0
 11
2.054872124525623
 21
-1222.711570384013
 31
0.0
  0
LINE
  5
1BA
330
1F
100
AcDbEntity
  8
Graypants_Float36
370
    -3
100
AcDbLine
 10
-2.054872123087784
 20
-1222.711570384014
 30
0.0
 11
-2.054872123088581
 21
-1219.979866127669
 31
0.0
  0
LINE
  5
1BB
330
1F
100
AcDbEntity
  8
Graypants_Float36
370
    -3
100
AcDbLine
 10
-387.07202443592
 20
-1336.311570383996
 30
0.0
 11
-0.0000000039676706
 21
-1336.311570383996
 31
0.0
  0
LINE
  5
1BC
330
1F
100
AcDbEntity
  8
Graypants_Float36
370
    -3
100
AcDbLine
 10
-0.0000000039676706
 20
-1336.311570383996
 30
0.0
 11
387.0720244279855
 21
-1336.311570383996
 31
0.0
  0
LINE
  5
1BD
330
1F
100
AcDbEntity
  8
Graypants_Float36
370
    -3
100
AcDbLine
 10
-429.8481260599601
 20
-1414.411570383973
 30
0.0
 11
-0.0000000039681254
 21
-1414.411570383973
 31
0.0
  0
LINE
  5
1BE
330
1F
100
AcDbEntity
  8
Graypants_Float36
370
    -3
100
AcDbLine
 10
-0.0000000039681254
 20
-1414.411570383973
 30
0.0
 11
429.8481260520257
 21
-1414.411570383973
 31
0.0
  0
LINE
  5
1BF
330
1F
100
AcDbEntity
  8
Graypants_Float36
370
    -3
100
AcDbLine
 10
-344.9510532261575
 20
-1300.811570383996
 30
0.0
 11
-0.0000000039663064
 21
-1300.811570383996
 31
0.0
  0
LINE
  5
1C0
330
1F
100
AcDbEntity
  8
Graypants_Float36
370
    -3
100
AcDbLine
 10
-0.0000000039663064
 20
-1300.811570383996
 30
0.0
 11
344.951053218223
 21
-1300.811570383996
 31
0.0
  0
LINE
  5
1C1
330
1F
100
AcDbEntity
  8
Graypants_Float36
370
    -3
100
AcDbLine
 10
-354.8315277178717
 20
-1307.911570383987
 30
0.0
 11
-0.0000000039663064
 21
-1307.911570383987
 31
0.0
  0
LINE
  5
1C2
330
1F
100
AcDbEntity
  8
Graypants_Float36
370
    -3
100
AcDbLine
 10
-0.0000000039663064
 20
-1307.911570383987
 30
0.0
 11
354.8315277099373
 21
-1307.911570383987
 31
0.0
  0
LINE
  5
1C3
330
1F
100
AcDbEntity
  8
Graypants_Float36
370
    -3
100
AcDbLine
 10
-372.3070801458325
 20
-1322.111570383999
 30
0.0
 11
-0.0000000039676706
 21
-1322.111570383999
 31
0.0
  0
LINE
  5
1C4
330
1F
100
AcDbEntity
  8
Graypants_Float36
370
    -3
100
AcDbLine
 10
-0.0000000039676706
 20
-1322.111570383999
 30
0.0
 11
372.3070801378981
 21
-1322.111570383999
 31
0.0
  0
LINE
  5
1C5
330
1F
100
AcDbEntity
  8
Graypants_Float36
370
    -3
100
AcDbLine
 10
-421.0636745526226
 20
-1386.011570383978
 30
0.0
 11
-0.0000000039676706
 21
-1386.011570383978
 31
0.0
  0
LINE
  5
1C6
330
1F
100
AcDbEntity
  8
Graypants_Float36
370
    -3
100
AcDbLine
 10
-0.0000000039676706
 20
-1386.011570383978
 30
0.0
 11
421.0636745446882
 21
-1386.011570383978
 31
0.0
  0
LINE
  5
1C7
330
1F
100
AcDbEntity
  8
Graypants_Float36
370
    -3
100
AcDbLine
 10
-431.5835610483573
 20
-1428.611570383973
 30
0.0
 11
-0.0000000039676706
 21
-1428.61157038397
 31
0.0
  0
LINE
  5
1C8
330
1F
100
AcDbEntity
  8
Graypants_Float36
370
    -3
100
AcDbLine
 10
-0.0000000039676706
 20
-1428.61157038397
 30
0.0
 11
431.5835610404229
 21
-1428.611570383973
 31
0.0
  0
LINE
  5
1C9
330
1F
100
AcDbEntity
  8
Graypants_Float36
370
    -3
100
AcDbLine
 10
-380.0072721015404
 20
-1329.21157038399
 30
0.0
 11
-0.0000000039667611
 21
-1329.21157038399
 31
0.0
  0
LINE
  5
1CA
330
1F
100
AcDbEntity
  8
Graypants_Float36
370
    -3
100
AcDbLine
 10
-0.0000000039667611
 20
-1329.21157038399
 30
0.0
 11
380.0072720936059
 21
-1329.21157038399
 31
0.0
  0
LINE
  5
1CB
330
1F
100
AcDbEntity
  8
Graypants_Float36
370
    -3
100
AcDbLine
 10
-295.9680669160534
 20
-1272.411570384002
 30
0.0
 11
-0.0000000039676706
 21
-1272.411570384002
 31
0.0
  0
LINE
  5
1CC
330
1F
100
AcDbEntity
  8
Graypants_Float36
370
    -3
100
AcDbLine
 10
-0.0000000039676706
 20
-1272.411570384002
 30
0.0
 11
295.968066908119
 21
-1272.411570384002
 31
0.0
  0
LINE
  5
1CD
330
1F
100
AcDbEntity
  8
Graypants_Float36
370
    -3
100
AcDbLine
 10
-322.5548669961227
 20
-1286.611570383999
 30
0.0
 11
-0.0000000039676706
 21
-1286.611570383999
 31
0.0
  0
LINE
  5
1CE
330
1F
100
AcDbEntity
  8
Graypants_Float36
370
    -3
100
AcDbLine
 10
-0.0000000039676706
 20
-1286.611570383999
 30
0.0
 11
322.5548669881882
 21
-1286.611570383999
 31
0.0
  0
LINE
  5
1CF
330
1F
100
AcDbEntity
  8
Graypants_Float36
370
    -3
100
AcDbLine
 10
-245.2085453386917
 20
-1251.111570384001
 30
0.0
 11
245.2085453307573
 21
-1251.111570384001
 31
0.0
  0
ARC
  5
1D0
330
1F
100
AcDbEntity
  8
Graypants_Float36
370
    -3
100
AcDbCircle
 10
74.19936617930358
 20
-1224.462204210921
 30
0.0
 40
2.000633826916101
210
0.0
220
0.0
230
-1.0
100
AcDbArc
 50
61.06118877489264
 51
89.9999999999886
  0
ARC
  5
1D1
330
1F
100
AcDbEntity
  8
Graypants_Float36
370
    -3
100
AcDbCircle
 10
74.19936616689026
 20
-1224.462204210896
 30
0.0
 40
2.000633826891803
100
AcDbArc
 50
61.04966281334075
 51
90.00000000007732
  0
LINE
  5
1D2
330
1F
100
AcDbEntity
  8
Graypants_Float36
370
    -3
100
AcDbLine
 10
87.16731150250509
 20
-1222.711171686699
 30
0.0
 11
86.85988449323902
 21
-1220.232824353368
 31
0.0
  0
LINE
  5
1D3
330
1F
100
AcDbEntity
  8
Graypants_Float36
370
    -3
100
AcDbLine
 10
-91.30860327933013
 20
-1222.711570384013
 30
0.0
 11
-90.93837032267432
 21
-1219.726907901888
 31
0.0
  0
LINE
  5
1D4
330
1F
100
AcDbEntity
  8
Graypants_Float36
370
    -3
100
AcDbLine
 10
-90.9383703226735
 20
-1219.726907901889
 30
0.0
 11
-90.91310063277933
 21
-1219.754389451745
 31
0.0
  0
LINE
  5
1D5
330
1F
100
AcDbEntity
  8
Graypants_Float36
370
    -3
100
AcDbLine
 10
-86.85988453443858
 20
-1220.232824353449
 30
0.0
 11
-87.16736100026759
 21
-1222.711570384012
 31
0.0
  0
POLYLINE
  5
1D6
330
1F
100
AcDbEntity
  8
Graypants_Float36
370
    -3
100
AcDb2dPolyline
 66
     1
 10
0.0
 20
0.0
 30
0.0
  0
VERTEX
  5
1D7
330
1D6
100
AcDbEntity
  8
Graypants_Float36
370
    -3
100
AcDbVertex
100
AcDb2dVertex
 10
-90.91310063277933
 20
-1219.754389451745
 30
0.0
  0
VERTEX
  5
1D8
330
1D6
100
AcDbEntity
  8
Graypants_Float36
370
    -3
100
AcDbVertex
100
AcDb2dVertex
 10
-90.90942764869352
 20
-1219.756446596471
 30
0.0
  0
VERTEX
  5
1D9
330
1D6
100
AcDbEntity
  8
Graypants_Float36
370
    -3
100
AcDbVertex
100
AcDb2dVertex
 10
-90.90548980883526
 20
-1219.758540655309
 30
0.0
  0
VERTEX
  5
1DA
330
1D6
100
AcDbEntity
  8
Graypants_Float36
370
    -3
100
AcDbVertex
100
AcDb2dVertex
 10
-90.90128437010006
 20
-1219.76067167459
 30
0.0
  0
VERTEX
  5
1DB
330
1D6
100
AcDbEntity
  8
Graypants_Float36
370
    -3
100
AcDbVertex
100
AcDb2dVertex
 10
-90.89680865674381
 20
-1219.762839685336
 30
0.0
  0
VERTEX
  5
1DC
330
1D6
100
AcDbEntity
  8
Graypants_Float36
370
    -3
100
AcDbVertex
100
AcDb2dVertex
 10
-90.88703606083375
 20
-1219.767286726582
 30
0.0
  0
VERTEX
  5
1DD
330
1D6
100
AcDbEntity
  8
Graypants_Float36
370
    -3
100
AcDbVertex
100
AcDb2dVertex
 10
-90.87615209459207
 20
-1219.77188170733
 30
0.0
  0
VERTEX
  5
1DE
330
1D6
100
AcDbEntity
  8
Graypants_Float36
370
    -3
100
AcDbVertex
100
AcDb2dVertex
 10
-90.86413813254964
 20
-1219.776624288303
 30
0.0
  0
VERTEX
  5
1DF
330
1D6
100
AcDbEntity
  8
Graypants_Float36
370
    -3
100
AcDbVertex
100
AcDb2dVertex
 10
-90.8509769621523
 20
-1219.781513852216
 30
0.0
  0
VERTEX
  5
1E0
330
1D6
100
AcDbEntity
  8
Graypants_Float36
370
    -3
100
AcDbVertex
100
AcDb2dVertex
 10
-90.82115187602774
 20
-1219.791730012145
 30
0.0
  0
VERTEX
  5
1E1
330
1D6
100
AcDbEntity
  8
Graypants_Float36
370
    -3
100
AcDbVertex
100
AcDb2dVertex
 10
-90.78657157405588
 20
-1219.802519340871
 30
0.0
  0
VERTEX
  5
1E2
330
1D6
100
AcDbEntity
  8
Graypants_Float36
370
    -3
100
AcDbVertex
100
AcDb2dVertex
 10
-90.74716028850966
 20
-1219.81386601798
 30
0.0
  0
VERTEX
  5
1E3
330
1D6
100
AcDbEntity
  8
Graypants_Float36
370
    -3
100
AcDbVertex
100
AcDb2dVertex
 10
-90.65370752081391
 20
-1219.838142375086
 30
0.0
  0
VERTEX
  5
1E4
330
1D6
100
AcDbEntity
  8
Graypants_Float36
370
    -3
100
AcDbVertex
100
AcDb2dVertex
 10
-90.54088588434479
 20
-1219.864329072441
 30
0.0
  0
VERTEX
  5
1E5
330
1D6
100
AcDbEntity
  8
Graypants_Float36
370
    -3
100
AcDbVertex
100
AcDb2dVertex
 10
-90.40941200965354
 20
-1219.892115773073
 30
0.0
  0
VERTEX
  5
1E6
330
1D6
100
AcDbEntity
  8
Graypants_Float36
370
    -3
100
AcDbVertex
100
AcDb2dVertex
 10
-90.0965663885115
 20
-1219.950907280494
 30
0.0
  0
VERTEX
  5
1E7
330
1D6
100
AcDbEntity
  8
Graypants_Float36
370
    -3
100
AcDbVertex
100
AcDb2dVertex
 10
-89.73290368312287
 20
-1220.010927747575
 30
0.0
  0
VERTEX
  5
1E8
330
1D6
100
AcDbEntity
  8
Graypants_Float36
370
    -3
100
AcDbVertex
100
AcDb2dVertex
 10
-89.3424270960963
 20
-1220.06843638667
 30
0.0
  0
VERTEX
  5
1E9
330
1D6
100
AcDbEntity
  8
Graypants_Float36
370
    -3
100
AcDbVertex
100
AcDb2dVertex
 10
-88.57858864161608
 20
-1220.164388809168
 30
0.0
  0
VERTEX
  5
1EA
330
1D6
100
AcDbEntity
  8
Graypants_Float36
370
    -3
100
AcDbVertex
100
AcDb2dVertex
 10
-87.93995469274878
 20
-1220.227778805216
 30
0.0
  0
VERTEX
  5
1EB
330
1D6
100
AcDbEntity
  8
Graypants_Float36
370
    -3
100
AcDbVertex
100
AcDb2dVertex
 10
-87.63758191766686
 20
-1220.250887912032
 30
0.0
  0
VERTEX
  5
1EC
330
1D6
100
AcDbEntity
  8
Graypants_Float36
370
    -3
100
AcDbVertex
100
AcDb2dVertex
 10
-87.368724030717
 20
-1220.265753756619
 30
0.0
  0
VERTEX
  5
1ED
330
1D6
100
AcDbEntity
  8
Graypants_Float36
370
    -3
100
AcDbVertex
100
AcDb2dVertex
 10
-87.25177435545868
 20
-1220.269696318689
 30
0.0
  0
VERTEX
  5
1EE
330
1D6
100
AcDbEntity
  8
Graypants_Float36
370
    -3
100
AcDbVertex
100
AcDb2dVertex
 10
-87.14864366020895
 20
-1220.271205461652
 30
0.0
  0
VERTEX
  5
1EF
330
1D6
100
AcDbEntity
  8
Graypants_Float36
370
    -3
100
AcDbVertex
100
AcDb2dVertex
 10
-87.06054199905694
 20
-1220.270276584012
 30
0.0
  0
VERTEX
  5
1F0
330
1D6
100
AcDbEntity
  8
Graypants_Float36
370
    -3
100
AcDbVertex
100
AcDb2dVertex
 10
-87.0223988145059
 20
-1220.268913080766
 30
0.0
  0
VERTEX
  5
1F1
330
1D6
100
AcDbEntity
  8
Graypants_Float36
370
    -3
100
AcDbVertex
100
AcDb2dVertex
 10
-86.98828755231176
 20
-1220.266965584612
 30
0.0
  0
VERTEX
  5
1F2
330
1D6
100
AcDbEntity
  8
Graypants_Float36
370
    -3
100
AcDbVertex
100
AcDb2dVertex
 10
-86.95824571251042
 20
-1220.26444986377
 30
0.0
  0
VERTEX
  5
1F3
330
1D6
100
AcDbEntity
  8
Graypants_Float36
370
    -3
100
AcDbVertex
100
AcDb2dVertex
 10
-86.94475548219437
 20
-1220.262984699256
 30
0.0
  0
VERTEX
  5
1F4
330
1D6
100
AcDbEntity
  8
Graypants_Float36
370
    -3
100
AcDbVertex
100
AcDb2dVertex
 10
-86.93228502920559
 20
-1220.261384776268
 30
0.0
  0
VERTEX
  5
1F5
330
1D6
100
AcDbEntity
  8
Graypants_Float36
370
    -3
100
AcDbVertex
100
AcDb2dVertex
 10
-86.92083191241741
 20
-1220.259652887112
 30
0.0
  0
VERTEX
  5
1F6
330
1D6
100
AcDbEntity
  8
Graypants_Float36
370
    -3
100
AcDbVertex
100
AcDb2dVertex
 10
-86.91039218939962
 20
-1220.257791979167
 30
0.0
  0
VERTEX
  5
1F7
330
1D6
100
AcDbEntity
  8
Graypants_Float36
370
    -3
100
AcDbVertex
100
AcDb2dVertex
 10
-86.9009604572017
 20
-1220.255805144284
 30
0.0
  0
VERTEX
  5
1F8
330
1D6
100
AcDbEntity
  8
Graypants_Float36
370
    -3
100
AcDbVertex
100
AcDb2dVertex
 10
-86.89662051092212
 20
-1220.25476550728
 30
0.0
  0
VERTEX
  5
1F9
330
1D6
100
AcDbEntity
  8
Graypants_Float36
370
    -3
100
AcDbVertex
100
AcDb2dVertex
 10
-86.89252989758036
 20
-1220.253695607923
 30
0.0
  0
VERTEX
  5
1FA
330
1D6
100
AcDbEntity
  8
Graypants_Float36
370
    -3
100
AcDbVertex
100
AcDb2dVertex
 10
-86.88868755184605
 20
-1220.252595868456
 30
0.0
  0
VERTEX
  5
1FB
330
1D6
100
AcDbEntity
  8
Graypants_Float36
370
    -3
100
AcDbVertex
100
AcDb2dVertex
 10
-86.88509232630047
 20
-1220.251466718078
 30
0.0
  0
VERTEX
  5
1FC
330
1D6
100
AcDbEntity
  8
Graypants_Float36
370
    -3
100
AcDbVertex
100
AcDb2dVertex
 10
-86.88174299317267
 20
-1220.250308592593
 30
0.0
  0
VERTEX
  5
1FD
330
1D6
100
AcDbEntity
  8
Graypants_Float36
370
    -3
100
AcDbVertex
100
AcDb2dVertex
 10
-86.87863824612391
 20
-1220.249121934056
 30
0.0
  0
VERTEX
  5
1FE
330
1D6
100
AcDbEntity
  8
Graypants_Float36
370
    -3
100
AcDbVertex
100
AcDb2dVertex
 10
-86.87717716311431
 20
-1220.248518044657
 30
0.0
  0
VERTEX
  5
1FF
330
1D6
100
AcDbEntity
  8
Graypants_Float36
370
    -3
100
AcDbVertex
100
AcDb2dVertex
 10
-86.87577670207729
 20
-1220.247907190419
 30
0.0
  0
VERTEX
  5
200
330
1D6
100
AcDbEntity
  8
Graypants_Float36
370
    -3
100
AcDbVertex
100
AcDb2dVertex
 10
-86.87443667844488
 20
-1220.247289428198
 30
0.0
  0
VERTEX
  5
201
330
1D6
100
AcDbEntity
  8
Graypants_Float36
370
    -3
100
AcDbVertex
100
AcDb2dVertex
 10
-86.87315690308918
 20
-1220.246664815176
 30
0.0
  0
VERTEX
  5
202
330
1D6
100
AcDbEntity
  8
Graypants_Float36
370
    -3
100
AcDbVertex
100
AcDb2dVertex
 10
-86.8719371823827
 20
-1220.246033408847
 30
0.0
  0
VERTEX
  5
203
330
1D6
100
AcDbEntity
  8
Graypants_Float36
370
    -3
100
AcDbVertex
100
AcDb2dVertex
 10
-86.8707773182596
 20
-1220.245395267011
 30
0.0
  0
VERTEX
  5
204
330
1D6
100
AcDbEntity
  8
Graypants_Float36
370
    -3
100
AcDbVertex
100
AcDb2dVertex
 10
-86.86967710827716
 20
-1220.244750447753
 30
0.0
  0
VERTEX
  5
205
330
1D6
100
AcDbEntity
  8
Graypants_Float36
370
    -3
100
AcDbVertex
100
AcDb2dVertex
 10
-86.86863634567797
 20
-1220.244099009445
 30
0.0
  0
VERTEX
  5
206
330
1D6
100
AcDbEntity
  8
Graypants_Float36
370
    -3
100
AcDbVertex
100
AcDb2dVertex
 10
-86.86765481945231
 20
-1220.243441010723
 30
0.0
  0
VERTEX
  5
207
330
1D6
100
AcDbEntity
  8
Graypants_Float36
370
    -3
100
AcDbVertex
100
AcDb2dVertex
 10
-86.86673231440129
 20
-1220.242776510486
 30
0.0
  0
VERTEX
  5
208
330
1D6
100
AcDbEntity
  8
Graypants_Float36
370
    -3
100
AcDbVertex
100
AcDb2dVertex
 10
-86.86586861120003
 20
-1220.242105567877
 30
0.0
  0
VERTEX
  5
209
330
1D6
100
AcDbEntity
  8
Graypants_Float36
370
    -3
100
AcDbVertex
100
AcDb2dVertex
 10
-86.86506348646157
 20
-1220.241428242277
 30
0.0
  0
VERTEX
  5
20A
330
1D6
100
AcDbEntity
  8
Graypants_Float36
370
    -3
100
AcDbVertex
100
AcDb2dVertex
 10
-86.86431671280091
 20
-1220.240744593297
 30
0.0
  0
VERTEX
  5
20B
330
1D6
100
AcDbEntity
  8
Graypants_Float36
370
    -3
100
AcDbVertex
100
AcDb2dVertex
 10
-86.86362805889937
 20
-1220.240054680756
 30
0.0
  0
VERTEX
  5
20C
330
1D6
100
AcDbEntity
  8
Graypants_Float36
370
    -3
100
AcDbVertex
100
AcDb2dVertex
 10
-86.86299728956955
 20
-1220.239358564684
 30
0.0
  0
VERTEX
  5
20D
330
1D6
100
AcDbEntity
  8
Graypants_Float36
370
    -3
100
AcDbVertex
100
AcDb2dVertex
 10
-86.86242416582014
 20
-1220.238656305303
 30
0.0
  0
VERTEX
  5
20E
330
1D6
100
AcDbEntity
  8
Graypants_Float36
370
    -3
100
AcDbVertex
100
AcDb2dVertex
 10
-86.86190844492144
 20
-1220.237947963017
 30
0.0
  0
VERTEX
  5
20F
330
1D6
100
AcDbEntity
  8
Graypants_Float36
370
    -3
100
AcDbVertex
100
AcDb2dVertex
 10
-86.8614498804707
 20
-1220.237233598405
 30
0.0
  0
VERTEX
  5
210
330
1D6
100
AcDbEntity
  8
Graypants_Float36
370
    -3
100
AcDbVertex
100
AcDb2dVertex
 10
-86.86104822245807
 20
-1220.236513272209
 30
0.0
  0
VERTEX
  5
211
330
1D6
100
AcDbEntity
  8
Graypants_Float36
370
    -3
100
AcDbVertex
100
AcDb2dVertex
 10
-86.86070321733229
 20
-1220.23578704532
 30
0.0
  0
VERTEX
  5
212
330
1D6
100
AcDbEntity
  8
Graypants_Float36
370
    -3
100
AcDbVertex
100
AcDb2dVertex
 10
-86.8604146080672
 20
-1220.235054978773
 30
0.0
  0
VERTEX
  5
213
330
1D6
100
AcDbEntity
  8
Graypants_Float36
370
    -3
100
AcDbVertex
100
AcDb2dVertex
 10
-86.86018213422766
 20
-1220.234317133736
 30
0.0
  0
VERTEX
  5
214
330
1D6
100
AcDbEntity
  8
Graypants_Float36
370
    -3
100
AcDbVertex
100
AcDb2dVertex
 10
-86.86000553203608
 20
-1220.233573571495
 30
0.0
  0
VERTEX
  5
215
330
1D6
100
AcDbEntity
  8
Graypants_Float36
370
    -3
100
AcDbVertex
100
AcDb2dVertex
 10
-86.85988453443902
 20
-1220.23282435345
 30
0.0
  0
SEQEND
  5
216
330
1D6
100
AcDbEntity
  8
Graypants_Float36
370
    -3
  0
LINE
  5
217
330
1F
100
AcDbEntity
  8
Graypants_Float36
370
    -3
100
AcDbLine
 10
-413.9019005370301
 20
-1378.911570383987
 30
0.0
 11
-413.9019005370301
 21
-1371.811570383981
 31
0.0
  0
LINE
  5
218
330
1F
100
AcDbEntity
  8
Graypants_Float36
370
    -3
100
AcDbLine
 10
413.9019005290957
 20
-1371.811570383981
 30
0.0
 11
413.9019005290957
 21
-1378.911570383987
 31
0.0
  0
LINE
  5
219
330
1F
100
AcDbEntity
  8
Graypants_Float36
370
    -3
100
AcDbLine
 10
-404.7715279249333
 20
-1364.71157038399
 30
0.0
 11
-404.7715279249333
 21
-1357.611570383984
 31
0.0
  0
LINE
  5
21A
330
1F
100
AcDbEntity
  8
Graypants_Float36
370
    -3
100
AcDbLine
 10
404.7715279169988
 20
-1357.611570383984
 30
0.0
 11
404.7715279169988
 21
-1364.71157038399
 31
0.0
  0
LINE
  5
21B
330
1F
100
AcDbEntity
  8
Graypants_Float36
370
    -3
100
AcDbLine
 10
-334.220444480301
 20
-1300.811570383996
 30
0.0
 11
-334.220444480301
 21
-1293.711570384005
 31
0.0
  0
LINE
  5
21C
330
1F
100
AcDbEntity
  8
Graypants_Float36
370
    -3
100
AcDbLine
 10
334.2204444723666
 20
-1293.711570384005
 30
0.0
 11
334.2204444723666
 21
-1300.811570383996
 31
0.0
  0
LINE
  5
21D
330
1F
100
AcDbEntity
  8
Graypants_Float36
370
    -3
100
AcDbLine
 10
-309.8487361031093
 20
-1286.611570383999
 30
0.0
 11
-309.8487361031093
 21
-1279.511570384007
 31
0.0
  0
LINE
  5
21E
330
1F
100
AcDbEntity
  8
Graypants_Float36
370
    -3
100
AcDbLine
 10
309.8487360951749
 20
-1279.511570384007
 30
0.0
 11
309.8487360951749
 21
-1286.611570383999
 31
0.0
  0
LINE
  5
21F
330
1F
100
AcDbEntity
  8
Graypants_Float36
370
    -3
100
AcDbLine
 10
135.1605985025726
 20
-1222.711570384014
 30
0.0
 11
135.1605985025726
 21
-1229.811570384013
 31
0.0
  0
LINE
  5
220
330
1F
100
AcDbEntity
  8
Graypants_Float36
370
    -3
100
AcDbLine
 10
-135.160598510507
 20
-1229.811570384013
 30
0.0
 11
-135.160598510507
 21
-1222.711570384014
 31
0.0
  0
LINE
  5
221
330
1F
100
AcDbEntity
  8
Graypants_Float36
370
    -3
100
AcDbLine
 10
280.7386940313208
 20
-1265.311570384001
 30
0.0
 11
280.7386940313208
 21
-1272.411570384002
 31
0.0
  0
LINE
  5
222
330
1F
100
AcDbEntity
  8
Graypants_Float36
370
    -3
100
AcDbLine
 10
-280.7386940392553
 20
-1272.411570384002
 30
0.0
 11
-280.7386940392553
 21
-1265.311570384001
 31
0.0
  0
POLYLINE
  5
223
330
1F
100
AcDbEntity
  8
Graypants_Float36
370
    -3
100
AcDb2dPolyline
 66
     1
 10
0.0
 20
0.0
 30
0.0
  0
VERTEX
  5
224
330
223
100
AcDbEntity
  8
Graypants_Float36
370
    -3
100
AcDbVertex
100
AcDb2dVertex
 10
86.85988449323911
 20
-1220.232824353368
 30
0.0
  0
VERTEX
  5
225
330
223
100
AcDbEntity
  8
Graypants_Float36
370
    -3
100
AcDbVertex
100
AcDb2dVertex
 10
86.8599910153427
 20
-1220.2334995396
 30
0.0
  0
VERTEX
  5
226
330
223
100
AcDbEntity
  8
Graypants_Float36
370
    -3
100
AcDbVertex
100
AcDb2dVertex
 10
86.86014255382024
 20
-1220.234169806867
 30
0.0
  0
VERTEX
  5
227
330
223
100
AcDbEntity
  8
Graypants_Float36
370
    -3
100
AcDbVertex
100
AcDb2dVertex
 10
86.86033923630715
 20
-1220.234835117492
 30
0.0
  0
VERTEX
  5
228
330
223
100
AcDbEntity
  8
Graypants_Float36
370
    -3
100
AcDbVertex
100
AcDb2dVertex
 10
86.86058118781615
 20
-1220.235495433993
 30
0.0
  0
VERTEX
  5
229
330
223
100
AcDbEntity
  8
Graypants_Float36
370
    -3
100
AcDbVertex
100
AcDb2dVertex
 10
86.86086853071001
 20
-1220.236150719089
 30
0.0
  0
VERTEX
  5
22A
330
223
100
AcDbEntity
  8
Graypants_Float36
370
    -3
100
AcDbVertex
100
AcDb2dVertex
 10
86.86120138467469
 20
-1220.236800935703
 30
0.0
  0
VERTEX
  5
22B
330
223
100
AcDbEntity
  8
Graypants_Float36
370
    -3
100
AcDbVertex
100
AcDb2dVertex
 10
86.86157986669264
 20
-1220.237446046969
 30
0.0
  0
VERTEX
  5
22C
330
223
100
AcDbEntity
  8
Graypants_Float36
370
    -3
100
AcDbVertex
100
AcDb2dVertex
 10
86.86200409101667
 20
-1220.238086016241
 30
0.0
  0
VERTEX
  5
22D
330
223
100
AcDbEntity
  8
Graypants_Float36
370
    -3
100
AcDbVertex
100
AcDb2dVertex
 10
86.86247416914394
 20
-1220.238720807091
 30
0.0
  0
VERTEX
  5
22E
330
223
100
AcDbEntity
  8
Graypants_Float36
370
    -3
100
AcDbVertex
100
AcDb2dVertex
 10
86.86299020979033
 20
-1220.239350383318
 30
0.0
  0
VERTEX
  5
22F
330
223
100
AcDbEntity
  8
Graypants_Float36
370
    -3
100
AcDbVertex
100
AcDb2dVertex
 10
86.86355231886517
 20
-1220.239974708955
 30
0.0
  0
VERTEX
  5
230
330
223
100
AcDbEntity
  8
Graypants_Float36
370
    -3
100
AcDbVertex
100
AcDb2dVertex
 10
86.86416059944642
 20
-1220.240593748272
 30
0.0
  0
VERTEX
  5
231
330
223
100
AcDbEntity
  8
Graypants_Float36
370
    -3
100
AcDbVertex
100
AcDb2dVertex
 10
86.86481515175595
 20
-1220.241207465781
 30
0.0
  0
VERTEX
  5
232
330
223
100
AcDbEntity
  8
Graypants_Float36
370
    -3
100
AcDbVertex
100
AcDb2dVertex
 10
86.8655160731355
 20
-1220.24181582624
 30
0.0
  0
VERTEX
  5
233
330
223
100
AcDbEntity
  8
Graypants_Float36
370
    -3
100
AcDbVertex
100
AcDb2dVertex
 10
86.86626345802279
 20
-1220.242418794664
 30
0.0
  0
VERTEX
  5
234
330
223
100
AcDbEntity
  8
Graypants_Float36
370
    -3
100
AcDbVertex
100
AcDb2dVertex
 10
86.8670573979281
 20
-1220.243016336321
 30
0.0
  0
VERTEX
  5
235
330
223
100
AcDbEntity
  8
Graypants_Float36
370
    -3
100
AcDbVertex
100
AcDb2dVertex
 10
86.86789798141126
 20
-1220.243608416746
 30
0.0
  0
VERTEX
  5
236
330
223
100
AcDbEntity
  8
Graypants_Float36
370
    -3
100
AcDbVertex
100
AcDb2dVertex
 10
86.86878529405901
 20
-1220.244195001741
 30
0.0
  0
VERTEX
  5
237
330
223
100
AcDbEntity
  8
Graypants_Float36
370
    -3
100
AcDbVertex
100
AcDb2dVertex
 10
86.86971941846274
 20
-1220.244776057382
 30
0.0
  0
VERTEX
  5
238
330
223
100
AcDbEntity
  8
Graypants_Float36
370
    -3
100
AcDbVertex
100
AcDb2dVertex
 10
86.87070043419675
 20
-1220.245351550023
 30
0.0
  0
VERTEX
  5
239
330
223
100
AcDbEntity
  8
Graypants_Float36
370
    -3
100
AcDbVertex
100
AcDb2dVertex
 10
86.87172841779679
 20
-1220.245921446302
 30
0.0
  0
VERTEX
  5
23A
330
223
100
AcDbEntity
  8
Graypants_Float36
370
    -3
100
AcDbVertex
100
AcDb2dVertex
 10
86.87280344273914
 20
-1220.246485713143
 30
0.0
  0
VERTEX
  5
23B
330
223
100
AcDbEntity
  8
Graypants_Float36
370
    -3
100
AcDbVertex
100
AcDb2dVertex
 10
86.8739255794201
 20
-1220.247044317768
 30
0.0
  0
VERTEX
  5
23C
330
223
100
AcDbEntity
  8
Graypants_Float36
370
    -3
100
AcDbVertex
100
AcDb2dVertex
 10
86.8750948951359
 20
-1220.247597227694
 30
0.0
  0
VERTEX
  5
23D
330
223
100
AcDbEntity
  8
Graypants_Float36
370
    -3
100
AcDbVertex
100
AcDb2dVertex
 10
86.87631145406313
 20
-1220.248144410742
 30
0.0
  0
VERTEX
  5
23E
330
223
100
AcDbEntity
  8
Graypants_Float36
370
    -3
100
AcDbVertex
100
AcDb2dVertex
 10
86.87757531723952
 20
-1220.248685835044
 30
0.0
  0
VERTEX
  5
23F
330
223
100
AcDbEntity
  8
Graypants_Float36
370
    -3
100
AcDbVertex
100
AcDb2dVertex
 10
86.88024518468511
 20
-1220.249751281497
 30
0.0
  0
VERTEX
  5
240
330
223
100
AcDbEntity
  8
Graypants_Float36
370
    -3
100
AcDbVertex
100
AcDb2dVertex
 10
86.88310492230003
 20
-1220.250793318446
 30
0.0
  0
VERTEX
  5
241
330
223
100
AcDbEntity
  8
Graypants_Float36
370
    -3
100
AcDbVertex
100
AcDb2dVertex
 10
86.88615490354475
 20
-1220.251811702525
 30
0.0
  0
VERTEX
  5
242
330
223
100
AcDbEntity
  8
Graypants_Float36
370
    -3
100
AcDbVertex
100
AcDb2dVertex
 10
86.88939544998507
 20
-1220.252806195763
 30
0.0
  0
VERTEX
  5
243
330
223
100
AcDbEntity
  8
Graypants_Float36
370
    -3
100
AcDbVertex
100
AcDb2dVertex
 10
86.89282683079712
 20
-1220.253776565728
 30
0.0
  0
VERTEX
  5
244
330
223
100
AcDbEntity
  8
Graypants_Float36
370
    -3
100
AcDbVertex
100
AcDb2dVertex
 10
86.89644926230557
 20
-1220.254722585677
 30
0.0
  0
VERTEX
  5
245
330
223
100
AcDbEntity
  8
Graypants_Float36
370
    -3
100
AcDbVertex
100
AcDb2dVertex
 10
86.90026290755591
 20
-1220.255644034695
 30
0.0
  0
VERTEX
  5
246
330
223
100
AcDbEntity
  8
Graypants_Float36
370
    -3
100
AcDbVertex
100
AcDb2dVertex
 10
86.90846422274726
 20
-1220.257412366259
 30
0.0
  0
VERTEX
  5
247
330
223
100
AcDbEntity
  8
Graypants_Float36
370
    -3
100
AcDbVertex
100
AcDb2dVertex
 10
86.9174310011173
 20
-1220.2590799149
 30
0.0
  0
VERTEX
  5
248
330
223
100
AcDbEntity
  8
Graypants_Float36
370
    -3
100
AcDbVertex
100
AcDb2dVertex
 10
86.92716259355035
 20
-1220.260645136924
 30
0.0
  0
VERTEX
  5
249
330
223
100
AcDbEntity
  8
Graypants_Float36
370
    -3
100
AcDbVertex
100
AcDb2dVertex
 10
86.9376574697711
 20
-1220.262106594412
 30
0.0
  0
VERTEX
  5
24A
330
223
100
AcDbEntity
  8
Graypants_Float36
370
    -3
100
AcDbVertex
100
AcDb2dVertex
 10
86.9609265200626
 20
-1220.264713014776
 30
0.0
  0
VERTEX
  5
24B
330
223
100
AcDbEntity
  8
Graypants_Float36
370
    -3
100
AcDbVertex
100
AcDb2dVertex
 10
86.98720816491623
 20
-1220.266889920964
 30
0.0
  0
VERTEX
  5
24C
330
223
100
AcDbEntity
  8
Graypants_Float36
370
    -3
100
AcDbVertex
100
AcDb2dVertex
 10
87.01645827048854
 20
-1220.268629955765
 30
0.0
  0
VERTEX
  5
24D
330
223
100
AcDbEntity
  8
Graypants_Float36
370
    -3
100
AcDbVertex
100
AcDb2dVertex
 10
87.08361801988895
 20
-1220.270779892011
 30
0.0
  0
VERTEX
  5
24E
330
223
100
AcDbEntity
  8
Graypants_Float36
370
    -3
100
AcDbVertex
100
AcDb2dVertex
 10
87.16178177739405
 20
-1220.271144166115
 30
0.0
  0
VERTEX
  5
24F
330
223
100
AcDbEntity
  8
Graypants_Float36
370
    -3
100
AcDbVertex
100
AcDb2dVertex
 10
87.25012899721527
 20
-1220.269736843895
 30
0.0
  0
VERTEX
  5
250
330
223
100
AcDbEntity
  8
Graypants_Float36
370
    -3
100
AcDbVertex
100
AcDb2dVertex
 10
87.45328297682947
 20
-1220.261820196133
 30
0.0
  0
VERTEX
  5
251
330
223
100
AcDbEntity
  8
Graypants_Float36
370
    -3
100
AcDbVertex
100
AcDb2dVertex
 10
87.68379366477562
 20
-1220.247727730453
 30
0.0
  0
VERTEX
  5
252
330
223
100
AcDbEntity
  8
Graypants_Float36
370
    -3
100
AcDbVertex
100
AcDb2dVertex
 10
88.18655329009471
 20
-1220.205342803592
 30
0.0
  0
VERTEX
  5
253
330
223
100
AcDbEntity
  8
Graypants_Float36
370
    -3
100
AcDbVertex
100
AcDb2dVertex
 10
88.9399314827405
 20
-1220.121589880251
 30
0.0
  0
VERTEX
  5
254
330
223
100
AcDbEntity
  8
Graypants_Float36
370
    -3
100
AcDbVertex
100
AcDb2dVertex
 10
89.74638526499618
 20
-1220.008824974843
 30
0.0
  0
VERTEX
  5
255
330
223
100
AcDbEntity
  8
Graypants_Float36
370
    -3
100
AcDbVertex
100
AcDb2dVertex
 10
90.10851223129089
 20
-1219.948804507763
 30
0.0
  0
VERTEX
  5
256
330
223
100
AcDbEntity
  8
Graypants_Float36
370
    -3
100
AcDbVertex
100
AcDb2dVertex
 10
90.41345136352363
 20
-1219.891295868668
 30
0.0
  0
VERTEX
  5
257
330
223
100
AcDbEntity
  8
Graypants_Float36
370
    -3
100
AcDbVertex
100
AcDb2dVertex
 10
90.54007644039078
 20
-1219.864507973551
 30
0.0
  0
VERTEX
  5
258
330
223
100
AcDbEntity
  8
Graypants_Float36
370
    -3
100
AcDbVertex
100
AcDb2dVertex
 10
90.64834317881757
 20
-1219.839452408556
 30
0.0
  0
VERTEX
  5
259
330
223
100
AcDbEntity
  8
Graypants_Float36
370
    -3
100
AcDbVertex
100
AcDb2dVertex
 10
90.73814785070839
 20
-1219.816349937254
 30
0.0
  0
VERTEX
  5
25A
330
223
100
AcDbEntity
  8
Graypants_Float36
370
    -3
100
AcDbVertex
100
AcDb2dVertex
 10
90.77623865642435
 20
-1219.805578702645
 30
0.0
  0
VERTEX
  5
25B
330
223
100
AcDbEntity
  8
Graypants_Float36
370
    -3
100
AcDbVertex
100
AcDb2dVertex
 10
90.80990506600983
 20
-1219.795343446171
 30
0.0
  0
VERTEX
  5
25C
330
223
100
AcDbEntity
  8
Graypants_Float36
370
    -3
100
AcDbVertex
100
AcDb2dVertex
 10
90.8389735652193
 20
-1219.785751250128
 30
0.0
  0
VERTEX
  5
25D
330
223
100
AcDbEntity
  8
Graypants_Float36
370
    -3
100
AcDbVertex
100
AcDb2dVertex
 10
90.86480557309544
 20
-1219.776368431155
 30
0.0
  0
VERTEX
  5
25E
330
223
100
AcDbEntity
  8
Graypants_Float36
370
    -3
100
AcDbVertex
100
AcDb2dVertex
 10
90.87642859517906
 20
-1219.771768813252
 30
0.0
  0
VERTEX
  5
25F
330
223
100
AcDbEntity
  8
Graypants_Float36
370
    -3
100
AcDbVertex
100
AcDb2dVertex
 10
90.8871481175485
 20
-1219.767237622309
 30
0.0
  0
VERTEX
  5
260
330
223
100
AcDbEntity
  8
Graypants_Float36
370
    -3
100
AcDbVertex
100
AcDb2dVertex
 10
90.89693367855423
 20
-1219.762780356515
 30
0.0
  0
VERTEX
  5
261
330
223
100
AcDbEntity
  8
Graypants_Float36
370
    -3
100
AcDbVertex
100
AcDb2dVertex
 10
90.90146688416866
 20
-1219.760581175838
 30
0.0
  0
VERTEX
  5
262
330
223
100
AcDbEntity
  8
Graypants_Float36
370
    -3
100
AcDbVertex
100
AcDb2dVertex
 10
90.9057554855864
 20
-1219.758402556906
 30
0.0
  0
VERTEX
  5
263
330
223
100
AcDbEntity
  8
Graypants_Float36
370
    -3
100
AcDbVertex
100
AcDb2dVertex
 10
90.90979588166047
 20
-1219.756245196677
 30
0.0
  0
VERTEX
  5
264
330
223
100
AcDbEntity
  8
Graypants_Float36
370
    -3
100
AcDbVertex
100
AcDb2dVertex
 10
90.91358452716642
 20
-1219.75410979294
 30
0.0
  0
VERTEX
  5
265
330
223
100
AcDbEntity
  8
Graypants_Float36
370
    -3
100
AcDbVertex
100
AcDb2dVertex
 10
90.91711793638729
 20
-1219.751997043818
 30
0.0
  0
VERTEX
  5
266
330
223
100
AcDbEntity
  8
Graypants_Float36
370
    -3
100
AcDbVertex
100
AcDb2dVertex
 10
90.92039268671013
 20
-1219.749907647273
 30
0.0
  0
VERTEX
  5
267
330
223
100
AcDbEntity
  8
Graypants_Float36
370
    -3
100
AcDbVertex
100
AcDb2dVertex
 10
90.92193201335984
 20
-1219.748871924157
 30
0.0
  0
VERTEX
  5
268
330
223
100
AcDbEntity
  8
Graypants_Float36
370
    -3
100
AcDbVertex
100
AcDb2dVertex
 10
90.92340542222885
 20
-1219.747842300584
 30
0.0
  0
VERTEX
  5
269
330
223
100
AcDbEntity
  8
Graypants_Float36
370
    -3
100
AcDbVertex
100
AcDb2dVertex
 10
90.92481250484308
 20
-1219.74681886352
 30
0.0
  0
VERTEX
  5
26A
330
223
100
AcDbEntity
  8
Graypants_Float36
370
    -3
100
AcDbVertex
100
AcDb2dVertex
 10
90.92615285734786
 20
-1219.745801699825
 30
0.0
  0
VERTEX
  5
26B
330
223
100
AcDbEntity
  8
Graypants_Float36
370
    -3
100
AcDbVertex
100
AcDb2dVertex
 10
90.92742608062028
 20
-1219.744790896233
 30
0.0
  0
VERTEX
  5
26C
330
223
100
AcDbEntity
  8
Graypants_Float36
370
    -3
100
AcDbVertex
100
AcDb2dVertex
 10
90.9286317803812
 20
-1219.743786539335
 30
0.0
  0
VERTEX
  5
26D
330
223
100
AcDbEntity
  8
Graypants_Float36
370
    -3
100
AcDbVertex
100
AcDb2dVertex
 10
90.92976956730698
 20
-1219.742788715562
 30
0.0
  0
VERTEX
  5
26E
330
223
100
AcDbEntity
  8
Graypants_Float36
370
    -3
100
AcDbVertex
100
AcDb2dVertex
 10
90.9308390571412
 20
-1219.74179751117
 30
0.0
  0
VERTEX
  5
26F
330
223
100
AcDbEntity
  8
Graypants_Float36
370
    -3
100
AcDbVertex
100
AcDb2dVertex
 10
90.93183987080562
 20
-1219.740813012219
 30
0.0
  0
VERTEX
  5
270
330
223
100
AcDbEntity
  8
Graypants_Float36
370
    -3
100
AcDbVertex
100
AcDb2dVertex
 10
90.93277163451117
 20
-1219.739835304558
 30
0.0
  0
VERTEX
  5
271
330
223
100
AcDbEntity
  8
Graypants_Float36
370
    -3
100
AcDbVertex
100
AcDb2dVertex
 10
90.93321150729363
 20
-1219.739349024226
 30
0.0
  0
VERTEX
  5
272
330
223
100
AcDbEntity
  8
Graypants_Float36
370
    -3
100
AcDbVertex
100
AcDb2dVertex
 10
90.93363397986802
 20
-1219.738864473805
 30
0.0
  0
VERTEX
  5
273
330
223
100
AcDbEntity
  8
Graypants_Float36
370
    -3
100
AcDbVertex
100
AcDb2dVertex
 10
90.93403900704733
 20
-1219.738381663959
 30
0.0
  0
VERTEX
  5
274
330
223
100
AcDbEntity
  8
Graypants_Float36
370
    -3
100
AcDbVertex
100
AcDb2dVertex
 10
90.93442654399567
 20
-1219.737900605335
 30
0.0
  0
VERTEX
  5
275
330
223
100
AcDbEntity
  8
Graypants_Float36
370
    -3
100
AcDbVertex
100
AcDb2dVertex
 10
90.93479654623172
 20
-1219.737421308563
 30
0.0
  0
VERTEX
  5
276
330
223
100
AcDbEntity
  8
Graypants_Float36
370
    -3
100
AcDbVertex
100
AcDb2dVertex
 10
90.93514896963214
 20
-1219.736943784255
 30
0.0
  0
VERTEX
  5
277
330
223
100
AcDbEntity
  8
Graypants_Float36
370
    -3
100
AcDbVertex
100
AcDb2dVertex
 10
90.93548377043493
 20
-1219.736468043006
 30
0.0
  0
VERTEX
  5
278
330
223
100
AcDbEntity
  8
Graypants_Float36
370
    -3
100
AcDbVertex
100
AcDb2dVertex
 10
90.9358009052428
 20
-1219.735994095391
 30
0.0
  0
VERTEX
  5
279
330
223
100
AcDbEntity
  8
Graypants_Float36
370
    -3
100
AcDbVertex
100
AcDb2dVertex
 10
90.93610033102652
 20
-1219.735521951965
 30
0.0
  0
VERTEX
  5
27A
330
223
100
AcDbEntity
  8
Graypants_Float36
370
    -3
100
AcDbVertex
100
AcDb2dVertex
 10
90.93638200512831
 20
-1219.735051623266
 30
0.0
  0
VERTEX
  5
27B
330
223
100
AcDbEntity
  8
Graypants_Float36
370
    -3
100
AcDbVertex
100
AcDb2dVertex
 10
90.9366458852652
 20
-1219.734583119809
 30
0.0
  0
VERTEX
  5
27C
330
223
100
AcDbEntity
  8
Graypants_Float36
370
    -3
100
AcDbVertex
100
AcDb2dVertex
 10
90.93689192953218
 20
-1219.734116452089
 30
0.0
  0
VERTEX
  5
27D
330
223
100
AcDbEntity
  8
Graypants_Float36
370
    -3
100
AcDbVertex
100
AcDb2dVertex
 10
90.93712009640583
 20
-1219.733651630577
 30
0.0
  0
VERTEX
  5
27E
330
223
100
AcDbEntity
  8
Graypants_Float36
370
    -3
100
AcDbVertex
100
AcDb2dVertex
 10
90.93733034474734
 20
-1219.733188665726
 30
0.0
  0
VERTEX
  5
27F
330
223
100
AcDbEntity
  8
Graypants_Float36
370
    -3
100
AcDbVertex
100
AcDb2dVertex
 10
90.93752263380595
 20
-1219.732727567964
 30
0.0
  0
VERTEX
  5
280
330
223
100
AcDbEntity
  8
Graypants_Float36
370
    -3
100
AcDbVertex
100
AcDb2dVertex
 10
90.93769692322219
 20
-1219.732268347695
 30
0.0
  0
VERTEX
  5
281
330
223
100
AcDbEntity
  8
Graypants_Float36
370
    -3
100
AcDbVertex
100
AcDb2dVertex
 10
90.93785317303106
 20
-1219.731811015299
 30
0.0
  0
VERTEX
  5
282
330
223
100
AcDbEntity
  8
Graypants_Float36
370
    -3
100
AcDbVertex
100
AcDb2dVertex
 10
90.93792452070238
 20
-1219.731583060292
 30
0.0
  0
VERTEX
  5
283
330
223
100
AcDbEntity
  8
Graypants_Float36
370
    -3
100
AcDbVertex
100
AcDb2dVertex
 10
90.93799134366543
 20
-1219.731355581135
 30
0.0
  0
VERTEX
  5
284
330
223
100
AcDbEntity
  8
Graypants_Float36
370
    -3
100
AcDbVertex
100
AcDb2dVertex
 10
90.93805363703706
 20
-1219.731128579119
 30
0.0
  0
VERTEX
  5
285
330
223
100
AcDbEntity
  8
Graypants_Float36
370
    -3
100
AcDbVertex
100
AcDb2dVertex
 10
90.93811139595925
 20
-1219.730902055533
 30
0.0
  0
VERTEX
  5
286
330
223
100
AcDbEntity
  8
Graypants_Float36
370
    -3
100
AcDbVertex
100
AcDb2dVertex
 10
90.93816461559946
 20
-1219.730676011664
 30
0.0
  0
VERTEX
  5
287
330
223
100
AcDbEntity
  8
Graypants_Float36
370
    -3
100
AcDbVertex
100
AcDb2dVertex
 10
90.93821329115056
 20
-1219.730450448799
 30
0.0
  0
VERTEX
  5
288
330
223
100
AcDbEntity
  8
Graypants_Float36
370
    -3
100
AcDbVertex
100
AcDb2dVertex
 10
90.93825741783103
 20
-1219.73022536822
 30
0.0
  0
VERTEX
  5
289
330
223
100
AcDbEntity
  8
Graypants_Float36
370
    -3
100
AcDbVertex
100
AcDb2dVertex
 10
90.938296990885
 20
-1219.730000771212
 30
0.0
  0
VERTEX
  5
28A
330
223
100
AcDbEntity
  8
Graypants_Float36
370
    -3
100
AcDbVertex
100
AcDb2dVertex
 10
90.93833200558232
 20
-1219.729776659054
 30
0.0
  0
VERTEX
  5
28B
330
223
100
AcDbEntity
  8
Graypants_Float36
370
    -3
100
AcDbVertex
100
AcDb2dVertex
 10
90.93836245721879
 20
-1219.729553033026
 30
0.0
  0
VERTEX
  5
28C
330
223
100
AcDbEntity
  8
Graypants_Float36
370
    -3
100
AcDbVertex
100
AcDb2dVertex
 10
90.93838834111608
 20
-1219.729329894404
 30
0.0
  0
VERTEX
  5
28D
330
223
100
AcDbEntity
  8
Graypants_Float36
370
    -3
100
AcDbVertex
100
AcDb2dVertex
 10
90.93840965262201
 20
-1219.729107244466
 30
0.0
  0
VERTEX
  5
28E
330
223
100
AcDbEntity
  8
Graypants_Float36
370
    -3
100
AcDbVertex
100
AcDb2dVertex
 10
90.93842638711047
 20
-1219.728885084484
 30
0.0
  0
VERTEX
  5
28F
330
223
100
AcDbEntity
  8
Graypants_Float36
370
    -3
100
AcDbVertex
100
AcDb2dVertex
 10
90.93843853998165
 20
-1219.72866341573
 30
0.0
  0
VERTEX
  5
290
330
223
100
AcDbEntity
  8
Graypants_Float36
370
    -3
100
AcDbVertex
100
AcDb2dVertex
 10
90.9384461066621
 20
-1219.728442239475
 30
0.0
  0
VERTEX
  5
291
330
223
100
AcDbEntity
  8
Graypants_Float36
370
    -3
100
AcDbVertex
100
AcDb2dVertex
 10
90.93844908260483
 20
-1219.728221556987
 30
0.0
  0
VERTEX
  5
292
330
223
100
AcDbEntity
  8
Graypants_Float36
370
    -3
100
AcDbVertex
100
AcDb2dVertex
 10
90.93844746328938
 20
-1219.728001369533
 30
0.0
  0
VERTEX
  5
293
330
223
100
AcDbEntity
  8
Graypants_Float36
370
    -3
100
AcDbVertex
100
AcDb2dVertex
 10
90.93844124422193
 20
-1219.727781678377
 30
0.0
  0
VERTEX
  5
294
330
223
100
AcDbEntity
  8
Graypants_Float36
370
    -3
100
AcDbVertex
100
AcDb2dVertex
 10
90.93843042093543
 20
-1219.727562484783
 30
0.0
  0
VERTEX
  5
295
330
223
100
AcDbEntity
  8
Graypants_Float36
370
    -3
100
AcDbVertex
100
AcDb2dVertex
 10
90.93841498898965
 20
-1219.727343790011
 30
0.0
  0
VERTEX
  5
296
330
223
100
AcDbEntity
  8
Graypants_Float36
370
    -3
100
AcDbVertex
100
AcDb2dVertex
 10
90.93839494397132
 20
-1219.727125595321
 30
0.0
  0
VERTEX
  5
297
330
223
100
AcDbEntity
  8
Graypants_Float36
370
    -3
100
AcDbVertex
100
AcDb2dVertex
 10
90.93837028149413
 20
-1219.72690790197
 30
0.0
  0
SEQEND
  5
298
330
223
100
AcDbEntity
  8
Graypants_Float36
370
    -3
  0
LINE
  5
299
330
1F
100
AcDbEntity
  8
Graypants_Float36
370
    -3
100
AcDbLine
 10
-224.1051748321016
 20
-1251.111570384014
 30
0.0
 11
-224.1051748321016
 21
-1244.011570384014
 31
0.0
  0
LINE
  5
29A
330
1F
100
AcDbEntity
  8
Graypants_Float36
370
    -3
100
AcDbLine
 10
224.105174824161
 20
-1244.011570384012
 30
0.0
 11
224.105174824161
 21
-1251.111570384012
 31
0.0
  0
LINE
  5
29B
330
1F
100
AcDbEntity
  8
Graypants_Float36
370
    -3
100
AcDbLine
 10
199.8631741724002
 20
-1236.911570384013
 30
0.0
 11
199.8631741724002
 21
-1244.011570384013
 31
0.0
  0
LINE
  5
29C
330
1F
100
AcDbEntity
  8
Graypants_Float36
370
    -3
100
AcDbLine
 10
-199.8631741803347
 20
-1244.011570384013
 30
0.0
 11
-199.8631741803347
 21
-1236.911570384013
 31
0.0
  0
LINE
  5
29D
330
1F
100
AcDbEntity
  8
Graypants_Float36
370
    -3
100
AcDbLine
 10
171.1540467681971
 20
-1229.811570384013
 30
0.0
 11
171.1540467681971
 21
-1236.911570384013
 31
0.0
  0
LINE
  5
29E
330
1F
100
AcDbEntity
  8
Graypants_Float36
370
    -3
100
AcDbLine
 10
-171.1540467761315
 20
-1236.911570384013
 30
0.0
 11
-171.1540467761315
 21
-1229.811570384013
 31
0.0
  0
POLYLINE
  5
29F
330
1F
100
AcDbEntity
  8
Graypants_Float36
370
    -3
100
AcDb2dPolyline
 66
     1
 10
0.0
 20
0.0
 30
0.0
  0
VERTEX
  5
2A0
330
29F
100
AcDbEntity
  8
Graypants_Float36
370
    -3
100
AcDbVertex
100
AcDb2dVertex
 10
90.93837028149413
 20
-1219.72690790197
 30
0.0
  0
VERTEX
  5
2A1
330
29F
100
AcDbEntity
  8
Graypants_Float36
370
    -3
100
AcDbVertex
100
AcDb2dVertex
 10
90.93826375939055
 20
-1219.726232715739
 30
0.0
  0
VERTEX
  5
2A2
330
29F
100
AcDbEntity
  8
Graypants_Float36
370
    -3
100
AcDbVertex
100
AcDb2dVertex
 10
90.93811222091304
 20
-1219.725562448472
 30
0.0
  0
VERTEX
  5
2A3
330
29F
100
AcDbEntity
  8
Graypants_Float36
370
    -3
100
AcDbVertex
100
AcDb2dVertex
 10
90.93791553842614
 20
-1219.724897137846
 30
0.0
  0
VERTEX
  5
2A4
330
29F
100
AcDbEntity
  8
Graypants_Float36
370
    -3
100
AcDbVertex
100
AcDb2dVertex
 10
90.93767358691714
 20
-1219.724236821345
 30
0.0
  0
VERTEX
  5
2A5
330
29F
100
AcDbEntity
  8
Graypants_Float36
370
    -3
100
AcDbVertex
100
AcDb2dVertex
 10
90.93738624402327
 20
-1219.72358153625
 30
0.0
  0
VERTEX
  5
2A6
330
29F
100
AcDbEntity
  8
Graypants_Float36
370
    -3
100
AcDbVertex
100
AcDb2dVertex
 10
90.93705339005861
 20
-1219.722931319636
 30
0.0
  0
VERTEX
  5
2A7
330
29F
100
AcDbEntity
  8
Graypants_Float36
370
    -3
100
AcDbVertex
100
AcDb2dVertex
 10
90.93667490804066
 20
-1219.722286208369
 30
0.0
  0
VERTEX
  5
2A8
330
29F
100
AcDbEntity
  8
Graypants_Float36
370
    -3
100
AcDbVertex
100
AcDb2dVertex
 10
90.93625068371665
 20
-1219.721646239098
 30
0.0
  0
VERTEX
  5
2A9
330
29F
100
AcDbEntity
  8
Graypants_Float36
370
    -3
100
AcDbVertex
100
AcDb2dVertex
 10
90.93578060558937
 20
-1219.721011448248
 30
0.0
  0
VERTEX
  5
2AA
330
29F
100
AcDbEntity
  8
Graypants_Float36
370
    -3
100
AcDbVertex
100
AcDb2dVertex
 10
90.935264564943
 20
-1219.720381872021
 30
0.0
  0
VERTEX
  5
2AB
330
29F
100
AcDbEntity
  8
Graypants_Float36
370
    -3
100
AcDbVertex
100
AcDb2dVertex
 10
90.93470245586816
 20
-1219.719757546383
 30
0.0
  0
VERTEX
  5
2AC
330
29F
100
AcDbEntity
  8
Graypants_Float36
370
    -3
100
AcDbVertex
100
AcDb2dVertex
 10
90.93409417528693
 20
-1219.719138507066
 30
0.0
  0
VERTEX
  5
2AD
330
29F
100
AcDbEntity
  8
Graypants_Float36
370
    -3
100
AcDbVertex
100
AcDb2dVertex
 10
90.9334396229774
 20
-1219.718524789558
 30
0.0
  0
VERTEX
  5
2AE
330
29F
100
AcDbEntity
  8
Graypants_Float36
370
    -3
100
AcDbVertex
100
AcDb2dVertex
 10
90.93273870159784
 20
-1219.717916429099
 30
0.0
  0
VERTEX
  5
2AF
330
29F
100
AcDbEntity
  8
Graypants_Float36
370
    -3
100
AcDbVertex
100
AcDb2dVertex
 10
90.93199131671057
 20
-1219.717313460676
 30
0.0
  0
VERTEX
  5
2B0
330
29F
100
AcDbEntity
  8
Graypants_Float36
370
    -3
100
AcDbVertex
100
AcDb2dVertex
 10
90.93119737680529
 20
-1219.716715919018
 30
0.0
  0
VERTEX
  5
2B1
330
29F
100
AcDbEntity
  8
Graypants_Float36
370
    -3
100
AcDbVertex
100
AcDb2dVertex
 10
90.93035679332216
 20
-1219.716123838593
 30
0.0
  0
VERTEX
  5
2B2
330
29F
100
AcDbEntity
  8
Graypants_Float36
370
    -3
100
AcDbVertex
100
AcDb2dVertex
 10
90.92946948067438
 20
-1219.715537253598
 30
0.0
  0
VERTEX
  5
2B3
330
29F
100
AcDbEntity
  8
Graypants_Float36
370
    -3
100
AcDbVertex
100
AcDb2dVertex
 10
90.92853535627064
 20
-1219.714956197957
 30
0.0
  0
VERTEX
  5
2B4
330
29F
100
AcDbEntity
  8
Graypants_Float36
370
    -3
100
AcDbVertex
100
AcDb2dVertex
 10
90.92755434053664
 20
-1219.714380705316
 30
0.0
  0
VERTEX
  5
2B5
330
29F
100
AcDbEntity
  8
Graypants_Float36
370
    -3
100
AcDbVertex
100
AcDb2dVertex
 10
90.9265263569366
 20
-1219.713810809037
 30
0.0
  0
VERTEX
  5
2B6
330
29F
100
AcDbEntity
  8
Graypants_Float36
370
    -3
100
AcDbVertex
100
AcDb2dVertex
 10
90.92545133199427
 20
-1219.713246542196
 30
0.0
  0
VERTEX
  5
2B7
330
29F
100
AcDbEntity
  8
Graypants_Float36
370
    -3
100
AcDbVertex
100
AcDb2dVertex
 10
90.92432919531332
 20
-1219.712687937571
 30
0.0
  0
VERTEX
  5
2B8
330
29F
100
AcDbEntity
  8
Graypants_Float36
370
    -3
100
AcDbVertex
100
AcDb2dVertex
 10
90.92315987959752
 20
-1219.712135027645
 30
0.0
  0
VERTEX
  5
2B9
330
29F
100
AcDbEntity
  8
Graypants_Float36
370
    -3
100
AcDbVertex
100
AcDb2dVertex
 10
90.9219433206703
 20
-1219.711587844597
 30
0.0
  0
VERTEX
  5
2BA
330
29F
100
AcDbEntity
  8
Graypants_Float36
370
    -3
100
AcDbVertex
100
AcDb2dVertex
 10
90.92067945749389
 20
-1219.711046420295
 30
0.0
  0
VERTEX
  5
2BB
330
29F
100
AcDbEntity
  8
Graypants_Float36
370
    -3
100
AcDbVertex
100
AcDb2dVertex
 10
90.91800959004836
 20
-1219.709980973841
 30
0.0
  0
VERTEX
  5
2BC
330
29F
100
AcDbEntity
  8
Graypants_Float36
370
    -3
100
AcDbVertex
100
AcDb2dVertex
 10
90.91514985243346
 20
-1219.708938936893
 30
0.0
  0
VERTEX
  5
2BD
330
29F
100
AcDbEntity
  8
Graypants_Float36
370
    -3
100
AcDbVertex
100
AcDb2dVertex
 10
90.91209987118876
 20
-1219.707920552813
 30
0.0
  0
VERTEX
  5
2BE
330
29F
100
AcDbEntity
  8
Graypants_Float36
370
    -3
100
AcDbVertex
100
AcDb2dVertex
 10
90.90885932474843
 20
-1219.706926059575
 30
0.0
  0
VERTEX
  5
2BF
330
29F
100
AcDbEntity
  8
Graypants_Float36
370
    -3
100
AcDbVertex
100
AcDb2dVertex
 10
90.90542794393639
 20
-1219.70595568961
 30
0.0
  0
VERTEX
  5
2C0
330
29F
100
AcDbEntity
  8
Graypants_Float36
370
    -3
100
AcDbVertex
100
AcDb2dVertex
 10
90.90180551242794
 20
-1219.705009669661
 30
0.0
  0
VERTEX
  5
2C1
330
29F
100
AcDbEntity
  8
Graypants_Float36
370
    -3
100
AcDbVertex
100
AcDb2dVertex
 10
90.89799186717762
 20
-1219.704088220643
 30
0.0
  0
VERTEX
  5
2C2
330
29F
100
AcDbEntity
  8
Graypants_Float36
370
    -3
100
AcDbVertex
100
AcDb2dVertex
 10
90.88979055198634
 20
-1219.702319889079
 30
0.0
  0
VERTEX
  5
2C3
330
29F
100
AcDbEntity
  8
Graypants_Float36
370
    -3
100
AcDbVertex
100
AcDb2dVertex
 10
90.88082377361631
 20
-1219.700652340438
 30
0.0
  0
VERTEX
  5
2C4
330
29F
100
AcDbEntity
  8
Graypants_Float36
370
    -3
100
AcDbVertex
100
AcDb2dVertex
 10
90.87109218118327
 20
-1219.699087118413
 30
0.0
  0
VERTEX
  5
2C5
330
29F
100
AcDbEntity
  8
Graypants_Float36
370
    -3
100
AcDbVertex
100
AcDb2dVertex
 10
90.86059730496257
 20
-1219.697625660926
 30
0.0
  0
VERTEX
  5
2C6
330
29F
100
AcDbEntity
  8
Graypants_Float36
370
    -3
100
AcDbVertex
100
AcDb2dVertex
 10
90.83732825467112
 20
-1219.695019240562
 30
0.0
  0
VERTEX
  5
2C7
330
29F
100
AcDbEntity
  8
Graypants_Float36
370
    -3
100
AcDbVertex
100
AcDb2dVertex
 10
90.81104660981754
 20
-1219.692842334375
 30
0.0
  0
VERTEX
  5
2C8
330
29F
100
AcDbEntity
  8
Graypants_Float36
370
    -3
100
AcDbVertex
100
AcDb2dVertex
 10
90.78179650424526
 20
-1219.691102299573
 30
0.0
  0
VERTEX
  5
2C9
330
29F
100
AcDbEntity
  8
Graypants_Float36
370
    -3
100
AcDbVertex
100
AcDb2dVertex
 10
90.71463675484495
 20
-1219.688952363327
 30
0.0
  0
VERTEX
  5
2CA
330
29F
100
AcDbEntity
  8
Graypants_Float36
370
    -3
100
AcDbVertex
100
AcDb2dVertex
 10
90.63647299733992
 20
-1219.688588089223
 30
0.0
  0
VERTEX
  5
2CB
330
29F
100
AcDbEntity
  8
Graypants_Float36
370
    -3
100
AcDbVertex
100
AcDb2dVertex
 10
90.54812577751879
 20
-1219.689995411442
 30
0.0
  0
VERTEX
  5
2CC
330
29F
100
AcDbEntity
  8
Graypants_Float36
370
    -3
100
AcDbVertex
100
AcDb2dVertex
 10
90.3449717979047
 20
-1219.697912059205
 30
0.0
  0
VERTEX
  5
2CD
330
29F
100
AcDbEntity
  8
Graypants_Float36
370
    -3
100
AcDbVertex
100
AcDb2dVertex
 10
90.11446110995864
 20
-1219.712004524885
 30
0.0
  0
VERTEX
  5
2CE
330
29F
100
AcDbEntity
  8
Graypants_Float36
370
    -3
100
AcDbVertex
100
AcDb2dVertex
 10
89.61170148463953
 20
-1219.754389451745
 30
0.0
  0
SEQEND
  5
2CF
330
29F
100
AcDbEntity
  8
Graypants_Float36
370
    -3
  0
LINE
  5
2D0
330
1F
100
AcDbEntity
  8
Graypants_Float36
370
    -3
100
AcDbLine
 10
90.93837028149446
 20
-1219.726907901969
 30
0.0
 11
91.30860323802277
 21
-1222.711570384012
 31
0.0
  0
LINE
  5
2D1
330
1F
100
AcDbEntity
  8
Graypants_Float36
370
    -3
100
AcDbLine
 10
-57.15000000425442
 20
-715.0908251330457
 30
0.0
 11
57.1499999957441
 21
-715.0908251330435
 31
0.0
  0
ARC
  5
2D2
330
1F
100
AcDbEntity
  8
Graypants_Float36
370
    -3
100
AcDbCircle
 10
55.65000000426471
 20
-721.2108251330436
 30
0.0
 40
1.500000000001023
210
0.0
220
0.0
230
-1.0
100
AcDbArc
 50
270.0000000000869
 51
359.9999999999522
  0
ARC
  5
2D3
330
1F
100
AcDbEntity
  8
Graypants_Float36
370
    -3
100
AcDbCircle
 10
-55.64999999574333
 20
-721.2108251330452
 30
0.0
 40
1.499999999998373
210
0.0
220
0.0
230
-1.0
100
AcDbArc
 50
180.0000000000043
 51
269.9999999999986
  0
LINE
  5
2D4
330
1F
100
AcDbEntity
  8
Graypants_Float36
370
    -3
100
AcDbLine
 10
57.14999999574378
 20
-715.0908251330457
 30
0.0
 11
57.14999999574378
 21
-721.2108251330448
 31
0.0
  0
LINE
  5
2D5
330
1F
100
AcDbEntity
  8
Graypants_Float36
370
    -3
100
AcDbLine
 10
-57.1500000042551
 20
-721.210825133044
 30
0.0
 11
-57.1500000042551
 21
-715.0908251330438
 31
0.0
  0
LINE
  5
2D6
330
1F
100
AcDbEntity
  8
Graypants_Float36
370
    -3
100
AcDbLine
 10
-423.938587414299
 20
-1400.211570383975
 30
0.0
 11
-423.938587414299
 21
-1393.111570383984
 31
0.0
  0
LINE
  5
2D7
330
1F
100
AcDbEntity
  8
Graypants_Float36
370
    -3
100
AcDbLine
 10
423.9385874063646
 20
-1393.111570383984
 30
0.0
 11
423.9385874063646
 21
-1400.211570383975
 31
0.0
  0
LINE
  5
2D8
330
1F
100
AcDbEntity
  8
Graypants_Float36
370
    -3
100
AcDbLine
 10
-417.7218817397461
 20
-1386.011570383978
 30
0.0
 11
-417.7218817397461
 21
-1378.911570383987
 31
0.0
  0
LINE
  5
2D9
330
1F
100
AcDbEntity
  8
Graypants_Float36
370
    -3
100
AcDbLine
 10
417.7218817318117
 20
-1378.911570383987
 30
0.0
 11
417.7218817318117
 21
-1386.011570383978
 31
0.0
  0
LINE
  5
2DA
330
1F
100
AcDbEntity
  8
Graypants_Float36
370
    -3
100
AcDbLine
 10
-409.5903519123185
 20
-1371.811570383981
 30
0.0
 11
-409.5903519123185
 21
-1364.71157038399
 31
0.0
  0
LINE
  5
2DB
330
1F
100
AcDbEntity
  8
Graypants_Float36
370
    -3
100
AcDbLine
 10
409.5903519043841
 20
-1364.71157038399
 30
0.0
 11
409.5903519043841
 21
-1371.811570383981
 31
0.0
  0
LINE
  5
2DC
330
1F
100
AcDbEntity
  8
Graypants_Float36
370
    -3
100
AcDbLine
 10
-363.9311161894384
 20
-1322.111570383999
 30
0.0
 11
-363.9311161894384
 21
-1315.011570383993
 31
0.0
  0
LINE
  5
2DD
330
1F
100
AcDbEntity
  8
Graypants_Float36
370
    -3
100
AcDbLine
 10
363.931116181504
 20
-1315.011570383993
 30
0.0
 11
363.931116181504
 21
-1322.111570383999
 31
0.0
  0
LINE
  5
2DE
330
1F
100
AcDbEntity
  8
Graypants_Float36
370
    -3
100
AcDbLine
 10
-393.5355608827758
 20
-1350.511570383978
 30
0.0
 11
-393.5355608827758
 21
-1343.411570383987
 31
0.0
  0
LINE
  5
2DF
330
1F
100
AcDbEntity
  8
Graypants_Float36
370
    -3
100
AcDbLine
 10
393.5355608748414
 20
-1343.411570383987
 30
0.0
 11
393.5355608748414
 21
-1350.511570383978
 31
0.0
  0
LINE
  5
2E0
330
1F
100
AcDbEntity
  8
Graypants_Float36
370
    -3
100
AcDbLine
 10
-426.3560649239607
 20
-1407.311570383981
 30
0.0
 11
-426.3560649239607
 21
-1400.211570383975
 31
0.0
  0
LINE
  5
2E1
330
1F
100
AcDbEntity
  8
Graypants_Float36
370
    -3
100
AcDbLine
 10
426.3560649160263
 20
-1400.211570383975
 30
0.0
 11
426.3560649160263
 21
-1407.311570383981
 31
0.0
  0
LINE
  5
2E2
330
1F
100
AcDbEntity
  8
Graypants_Float36
370
    -3
100
AcDbLine
 10
-399.4270691693619
 20
-1357.611570383999
 30
0.0
 11
-399.4270691693619
 21
-1350.511570383993
 31
0.0
  0
LINE
  5
2E3
330
1F
100
AcDbEntity
  8
Graypants_Float36
370
    -3
100
AcDbLine
 10
399.4270691614274
 20
-1350.511570383993
 30
0.0
 11
399.4270691614274
 21
-1357.611570383999
 31
0.0
  0
LINE
  5
2E4
330
1F
100
AcDbEntity
  8
Graypants_Float36
370
    -3
100
AcDbLine
 10
-428.3238525036959
 20
-1414.411570383973
 30
0.0
 11
-428.3238525036959
 21
-1407.311570383981
 31
0.0
  0
LINE
  5
2E5
330
1F
100
AcDbEntity
  8
Graypants_Float36
370
    -3
100
AcDbLine
 10
428.3238524957615
 20
-1407.311570383981
 30
0.0
 11
428.3238524957615
 21
-1414.411570383973
 31
0.0
  0
LINE
  5
2E6
330
1F
100
AcDbEntity
  8
Graypants_Float36
370
    -3
100
AcDbLine
 10
-430.9335919355308
 20
-1428.61157038397
 30
0.0
 11
-430.9335919355308
 21
-1421.511570383978
 31
0.0
  0
LINE
  5
2E7
330
1F
100
AcDbEntity
  8
Graypants_Float36
370
    -3
100
AcDbLine
 10
430.9335919275964
 20
-1421.511570383978
 30
0.0
 11
430.9335919275964
 21
-1428.61157038397
 31
0.0
  0
LINE
  5
2E8
330
1F
100
AcDbEntity
  8
Graypants_Float36
370
    -3
100
AcDbLine
 10
263.9272482163415
 20
-1258.211570384002
 30
0.0
 11
263.9272482163415
 21
-1265.311570384001
 31
0.0
  0
LINE
  5
2E9
330
1F
100
AcDbEntity
  8
Graypants_Float36
370
    -3
100
AcDbLine
 10
-263.9272482242759
 20
-1265.311570384001
 30
0.0
 11
-263.9272482242759
 21
-1258.211570384002
 31
0.0
  0
LINE
  5
2EA
330
1F
100
AcDbEntity
  8
Graypants_Float36
370
    -3
100
AcDbLine
 10
2.055109964783187
 20
-1222.461570384005
 30
0.0
 11
74.19936616688756
 21
-1222.461570384005
 31
0.0
  0
POLYLINE
  5
2EB
330
1F
100
AcDbEntity
  8
Graypants_Float36
370
    -3
100
AcDb2dPolyline
 66
     1
 10
0.0
 20
0.0
 30
0.0
  0
VERTEX
  5
2EC
330
2EB
100
AcDbEntity
  8
Graypants_Float36
370
    -3
100
AcDbVertex
100
AcDb2dVertex
 10
1.301399119087364
 20
-1219.754389451746
 30
0.0
  0
VERTEX
  5
2ED
330
2EB
100
AcDbEntity
  8
Graypants_Float36
370
    -3
100
AcDbVertex
100
AcDb2dVertex
 10
1.455117686285043
 20
-1219.774144992534
 30
0.0
  0
VERTEX
  5
2EE
330
2EB
100
AcDbEntity
  8
Graypants_Float36
370
    -3
100
AcDbVertex
100
AcDb2dVertex
 10
1.598876121147072
 20
-1219.796850120171
 30
0.0
  0
VERTEX
  5
2EF
330
2EB
100
AcDbEntity
  8
Graypants_Float36
370
    -3
100
AcDbVertex
100
AcDb2dVertex
 10
1.665829542110014
 20
-1219.809277434188
 30
0.0
  0
VERTEX
  5
2F0
330
2EB
100
AcDbEntity
  8
Graypants_Float36
370
    -3
100
AcDbVertex
100
AcDb2dVertex
 10
1.72885833480498
 20
-1219.822389056283
 30
0.0
  0
VERTEX
  5
2F1
330
2EB
100
AcDbEntity
  8
Graypants_Float36
370
    -3
100
AcDbVertex
100
AcDb2dVertex
 10
1.787491475076396
 20
-1219.836150675537
 30
0.0
  0
VERTEX
  5
2F2
330
2EB
100
AcDbEntity
  8
Graypants_Float36
370
    -3
100
AcDbVertex
100
AcDb2dVertex
 10
1.841275473548147
 20
-1219.850519780366
 30
0.0
  0
VERTEX
  5
2F3
330
2EB
100
AcDbEntity
  8
Graypants_Float36
370
    -3
100
AcDbVertex
100
AcDb2dVertex
 10
1.866214233455163
 20
-1219.857916651196
 30
0.0
  0
VERTEX
  5
2F4
330
2EB
100
AcDbEntity
  8
Graypants_Float36
370
    -3
100
AcDbVertex
100
AcDb2dVertex
 10
1.889782950954248
 20
-1219.865445832786
 30
0.0
  0
VERTEX
  5
2F5
330
2EB
100
AcDbEntity
  8
Graypants_Float36
370
    -3
100
AcDbVertex
100
AcDb2dVertex
 10
1.911933686527028
 20
-1219.873099817146
 30
0.0
  0
VERTEX
  5
2F6
330
2EB
100
AcDbEntity
  8
Graypants_Float36
370
    -3
100
AcDbVertex
100
AcDb2dVertex
 10
1.932621185358148
 20
-1219.880870654742
 30
0.0
  0
VERTEX
  5
2F7
330
2EB
100
AcDbEntity
  8
Graypants_Float36
370
    -3
100
AcDbVertex
100
AcDb2dVertex
 10
1.951803121538534
 20
-1219.8887499783
 30
0.0
  0
VERTEX
  5
2F8
330
2EB
100
AcDbEntity
  8
Graypants_Float36
370
    -3
100
AcDbVertex
100
AcDb2dVertex
 10
1.960817134983137
 20
-1219.892727599891
 30
0.0
  0
VERTEX
  5
2F9
330
2EB
100
AcDbEntity
  8
Graypants_Float36
370
    -3
100
AcDbVertex
100
AcDb2dVertex
 10
1.969440329798607
 20
-1219.896729029783
 30
0.0
  0
VERTEX
  5
2FA
330
2EB
100
AcDbEntity
  8
Graypants_Float36
370
    -3
100
AcDbVertex
100
AcDb2dVertex
 10
1.977668339767674
 20
-1219.900753117089
 30
0.0
  0
VERTEX
  5
2FB
330
2EB
100
AcDbEntity
  8
Graypants_Float36
370
    -3
100
AcDbVertex
100
AcDb2dVertex
 10
1.985497022407459
 20
-1219.904798690409
 30
0.0
  0
VERTEX
  5
2FC
330
2EB
100
AcDbEntity
  8
Graypants_Float36
370
    -3
100
AcDbVertex
100
AcDb2dVertex
 10
1.992922464778919
 20
-1219.908864558918
 30
0.0
  0
VERTEX
  5
2FD
330
2EB
100
AcDbEntity
  8
Graypants_Float36
370
    -3
100
AcDbVertex
100
AcDb2dVertex
 10
1.999940988980116
 20
-1219.912949513493
 30
0.0
  0
VERTEX
  5
2FE
330
2EB
100
AcDbEntity
  8
Graypants_Float36
370
    -3
100
AcDbVertex
100
AcDb2dVertex
 10
2.00654915730852
 20
-1219.917052327884
 30
0.0
  0
VERTEX
  5
2FF
330
2EB
100
AcDbEntity
  8
Graypants_Float36
370
    -3
100
AcDbVertex
100
AcDb2dVertex
 10
2.012743777078402
 20
-1219.921171759903
 30
0.0
  0
VERTEX
  5
300
330
2EB
100
AcDbEntity
  8
Graypants_Float36
370
    -3
100
AcDbVertex
100
AcDb2dVertex
 10
2.015685076641366
 20
-1219.923237315286
 30
0.0
  0
VERTEX
  5
301
330
2EB
100
AcDbEntity
  8
Graypants_Float36
370
    -3
100
AcDbVertex
100
AcDb2dVertex
 10
2.018521905080263
 20
-1219.925306552665
 30
0.0
  0
VERTEX
  5
302
330
2EB
100
AcDbEntity
  8
Graypants_Float36
370
    -3
100
AcDbVertex
100
AcDb2dVertex
 10
2.021253934145507
 20
-1219.927379312839
 30
0.0
  0
VERTEX
  5
303
330
2EB
100
AcDbEntity
  8
Graypants_Float36
370
    -3
100
AcDbVertex
100
AcDb2dVertex
 10
2.02388085167018
 20
-1219.929455435847
 30
0.0
  0
VERTEX
  5
304
330
2EB
100
AcDbEntity
  8
Graypants_Float36
370
    -3
100
AcDbVertex
100
AcDb2dVertex
 10
2.026402361676818
 20
-1219.93153476101
 30
0.0
  0
VERTEX
  5
305
330
2EB
100
AcDbEntity
  8
Graypants_Float36
370
    -3
100
AcDbVertex
100
AcDb2dVertex
 10
2.028818184478004
 20
-1219.933617126969
 30
0.0
  0
VERTEX
  5
306
330
2EB
100
AcDbEntity
  8
Graypants_Float36
370
    -3
100
AcDbVertex
100
AcDb2dVertex
 10
2.031128056770712
 20
-1219.935702371734
 30
0.0
  0
VERTEX
  5
307
330
2EB
100
AcDbEntity
  8
Graypants_Float36
370
    -3
100
AcDbVertex
100
AcDb2dVertex
 10
2.03333173172433
 20
-1219.937790332715
 30
0.0
  0
VERTEX
  5
308
330
2EB
100
AcDbEntity
  8
Graypants_Float36
370
    -3
100
AcDbVertex
100
AcDb2dVertex
 10
2.035428979062297
 20
-1219.939880846773
 30
0.0
  0
VERTEX
  5
309
330
2EB
100
AcDbEntity
  8
Graypants_Float36
370
    -3
100
AcDbVertex
100
AcDb2dVertex
 10
2.037419585137326
 20
-1219.941973750259
 30
0.0
  0
VERTEX
  5
30A
330
2EB
100
AcDbEntity
  8
Graypants_Float36
370
    -3
100
AcDbVertex
100
AcDb2dVertex
 10
2.039303353000127
 20
-1219.944068879055
 30
0.0
  0
VERTEX
  5
30B
330
2EB
100
AcDbEntity
  8
Graypants_Float36
370
    -3
100
AcDbVertex
100
AcDb2dVertex
 10
2.041080102461612
 20
-1219.946166068619
 30
0.0
  0
VERTEX
  5
30C
330
2EB
100
AcDbEntity
  8
Graypants_Float36
370
    -3
100
AcDbVertex
100
AcDb2dVertex
 10
2.042749670148538
 20
-1219.94826515403
 30
0.0
  0
VERTEX
  5
30D
330
2EB
100
AcDbEntity
  8
Graypants_Float36
370
    -3
100
AcDbVertex
100
AcDb2dVertex
 10
2.04431190955254
 20
-1219.950365970026
 30
0.0
  0
VERTEX
  5
30E
330
2EB
100
AcDbEntity
  8
Graypants_Float36
370
    -3
100
AcDbVertex
100
AcDb2dVertex
 10
2.045052739986644
 20
-1219.951416975268
 30
0.0
  0
VERTEX
  5
30F
330
2EB
100
AcDbEntity
  8
Graypants_Float36
370
    -3
100
AcDbVertex
100
AcDb2dVertex
 10
2.045766691072539
 20
-1219.952468351052
 30
0.0
  0
VERTEX
  5
310
330
2EB
100
AcDbEntity
  8
Graypants_Float36
370
    -3
100
AcDbVertex
100
AcDb2dVertex
 10
2.046453749257719
 20
-1219.953520076645
 30
0.0
  0
VERTEX
  5
311
330
2EB
100
AcDbEntity
  8
Graypants_Float36
370
    -3
100
AcDbVertex
100
AcDb2dVertex
 10
2.047113902050485
 20
-1219.954572131301
 30
0.0
  0
VERTEX
  5
312
330
2EB
100
AcDbEntity
  8
Graypants_Float36
370
    -3
100
AcDbVertex
100
AcDb2dVertex
 10
2.047747138020699
 20
-1219.955624494261
 30
0.0
  0
VERTEX
  5
313
330
2EB
100
AcDbEntity
  8
Graypants_Float36
370
    -3
100
AcDbVertex
100
AcDb2dVertex
 10
2.048353446800431
 20
-1219.956677144758
 30
0.0
  0
VERTEX
  5
314
330
2EB
100
AcDbEntity
  8
Graypants_Float36
370
    -3
100
AcDbVertex
100
AcDb2dVertex
 10
2.048932819084498
 20
-1219.957730062014
 30
0.0
  0
VERTEX
  5
315
330
2EB
100
AcDbEntity
  8
Graypants_Float36
370
    -3
100
AcDbVertex
100
AcDb2dVertex
 10
2.049485246630907
 20
-1219.958783225245
 30
0.0
  0
VERTEX
  5
316
330
2EB
100
AcDbEntity
  8
Graypants_Float36
370
    -3
100
AcDbVertex
100
AcDb2dVertex
 10
2.050010722261181
 20
-1219.959836613659
 30
0.0
  0
VERTEX
  5
317
330
2EB
100
AcDbEntity
  8
Graypants_Float36
370
    -3
100
AcDbVertex
100
AcDb2dVertex
 10
2.050509239860591
 20
-1219.960890206462
 30
0.0
  0
VERTEX
  5
318
330
2EB
100
AcDbEntity
  8
Graypants_Float36
370
    -3
100
AcDbVertex
100
AcDb2dVertex
 10
2.050980794378277
 20
-1219.961943982855
 30
0.0
  0
VERTEX
  5
319
330
2EB
100
AcDbEntity
  8
Graypants_Float36
370
    -3
100
AcDbVertex
100
AcDb2dVertex
 10
2.051425381827269
 20
-1219.962997922035
 30
0.0
  0
VERTEX
  5
31A
330
2EB
100
AcDbEntity
  8
Graypants_Float36
370
    -3
100
AcDbVertex
100
AcDb2dVertex
 10
2.051842999284392
 20
-1219.964052003202
 30
0.0
  0
VERTEX
  5
31B
330
2EB
100
AcDbEntity
  8
Graypants_Float36
370
    -3
100
AcDbVertex
100
AcDb2dVertex
 10
2.052233644890084
 20
-1219.965106205554
 30
0.0
  0
VERTEX
  5
31C
330
2EB
100
AcDbEntity
  8
Graypants_Float36
370
    -3
100
AcDbVertex
100
AcDb2dVertex
 10
2.052597317848092
 20
-1219.966160508293
 30
0.0
  0
VERTEX
  5
31D
330
2EB
100
AcDbEntity
  8
Graypants_Float36
370
    -3
100
AcDbVertex
100
AcDb2dVertex
 10
2.052934018425077
 20
-1219.967214890623
 30
0.0
  0
VERTEX
  5
31E
330
2EB
100
AcDbEntity
  8
Graypants_Float36
370
    -3
100
AcDbVertex
100
AcDb2dVertex
 10
2.053243747950102
 20
-1219.968269331753
 30
0.0
  0
VERTEX
  5
31F
330
2EB
100
AcDbEntity
  8
Graypants_Float36
370
    -3
100
AcDbVertex
100
AcDb2dVertex
 10
2.053526508814031
 20
-1219.969323810898
 30
0.0
  0
VERTEX
  5
320
330
2EB
100
AcDbEntity
  8
Graypants_Float36
370
    -3
100
AcDbVertex
100
AcDb2dVertex
 10
2.053782304468804
 20
-1219.970378307281
 30
0.0
  0
VERTEX
  5
321
330
2EB
100
AcDbEntity
  8
Graypants_Float36
370
    -3
100
AcDbVertex
100
AcDb2dVertex
 10
2.054011139426628
 20
-1219.971432800134
 30
0.0
  0
VERTEX
  5
322
330
2EB
100
AcDbEntity
  8
Graypants_Float36
370
    -3
100
AcDbVertex
100
AcDb2dVertex
 10
2.054213019259053
 20
-1219.972487268698
 30
0.0
  0
VERTEX
  5
323
330
2EB
100
AcDbEntity
  8
Graypants_Float36
370
    -3
100
AcDbVertex
100
AcDb2dVertex
 10
2.054387950595943
 20
-1219.973541692228
 30
0.0
  0
VERTEX
  5
324
330
2EB
100
AcDbEntity
  8
Graypants_Float36
370
    -3
100
AcDbVertex
100
AcDb2dVertex
 10
2.054535941124352
 20
-1219.97459604999
 30
0.0
  0
VERTEX
  5
325
330
2EB
100
AcDbEntity
  8
Graypants_Float36
370
    -3
100
AcDbVertex
100
AcDb2dVertex
 10
2.054656999587289
 20
-1219.975650321264
 30
0.0
  0
VERTEX
  5
326
330
2EB
100
AcDbEntity
  8
Graypants_Float36
370
    -3
100
AcDbVertex
100
AcDb2dVertex
 10
2.054751135782385
 20
-1219.976704485346
 30
0.0
  0
VERTEX
  5
327
330
2EB
100
AcDbEntity
  8
Graypants_Float36
370
    -3
100
AcDbVertex
100
AcDb2dVertex
 10
2.054818360560456
 20
-1219.97775852155
 30
0.0
  0
VERTEX
  5
328
330
2EB
100
AcDbEntity
  8
Graypants_Float36
370
    -3
100
AcDbVertex
100
AcDb2dVertex
 10
2.054858685823962
 20
-1219.978812409207
 30
0.0
  0
VERTEX
  5
329
330
2EB
100
AcDbEntity
  8
Graypants_Float36
370
    -3
100
AcDbVertex
100
AcDb2dVertex
 10
2.054872124525367
 20
-1219.97986612767
 30
0.0
  0
SEQEND
  5
32A
330
2EB
100
AcDbEntity
  8
Graypants_Float36
370
    -3
  0
LINE
  5
32B
330
1F
100
AcDbEntity
  8
Graypants_Float36
370
    -3
100
AcDbLine
 10
-387.07202443592
 20
-1343.411570383987
 30
0.0
 11
-387.07202443592
 21
-1336.311570383996
 31
0.0
  0
LINE
  5
32C
330
1F
100
AcDbEntity
  8
Graypants_Float36
370
    -3
100
AcDbLine
 10
387.0720244279855
 20
-1336.311570383996
 30
0.0
 11
387.0720244279855
 21
-1343.411570383987
 31
0.0
  0
LINE
  5
32D
330
1F
100
AcDbEntity
  8
Graypants_Float36
370
    -3
100
AcDbLine
 10
-429.8481260599601
 20
-1421.511570383978
 30
0.0
 11
-429.8481260599601
 21
-1414.411570383973
 31
0.0
  0
LINE
  5
32E
330
1F
100
AcDbEntity
  8
Graypants_Float36
370
    -3
100
AcDbLine
 10
429.8481260520257
 20
-1414.411570383973
 30
0.0
 11
429.8481260520257
 21
-1421.511570383978
 31
0.0
  0
LINE
  5
32F
330
1F
100
AcDbEntity
  8
Graypants_Float36
370
    -3
100
AcDbLine
 10
-344.9510532261575
 20
-1307.911570384002
 30
0.0
 11
-344.9510532261575
 21
-1300.811570383996
 31
0.0
  0
LINE
  5
330
330
1F
100
AcDbEntity
  8
Graypants_Float36
370
    -3
100
AcDbLine
 10
344.951053218223
 20
-1300.811570383996
 30
0.0
 11
344.951053218223
 21
-1307.911570384002
 31
0.0
  0
LINE
  5
331
330
1F
100
AcDbEntity
  8
Graypants_Float36
370
    -3
100
AcDbLine
 10
-354.8315277178717
 20
-1315.011570383993
 30
0.0
 11
-354.8315277178717
 21
-1307.911570383987
 31
0.0
  0
LINE
  5
332
330
1F
100
AcDbEntity
  8
Graypants_Float36
370
    -3
100
AcDbLine
 10
354.8315277099373
 20
-1307.911570383987
 30
0.0
 11
354.8315277099373
 21
-1315.011570383993
 31
0.0
  0
LINE
  5
333
330
1F
100
AcDbEntity
  8
Graypants_Float36
370
    -3
100
AcDbLine
 10
-372.3070801458325
 20
-1329.21157038399
 30
0.0
 11
-372.3070801458325
 21
-1322.111570383999
 31
0.0
  0
LINE
  5
334
330
1F
100
AcDbEntity
  8
Graypants_Float36
370
    -3
100
AcDbLine
 10
372.3070801378981
 20
-1322.111570383999
 30
0.0
 11
372.3070801378981
 21
-1329.21157038399
 31
0.0
  0
LINE
  5
335
330
1F
100
AcDbEntity
  8
Graypants_Float36
370
    -3
100
AcDbLine
 10
-421.0636745526226
 20
-1393.111570383984
 30
0.0
 11
-421.0636745526226
 21
-1386.011570383978
 31
0.0
  0
LINE
  5
336
330
1F
100
AcDbEntity
  8
Graypants_Float36
370
    -3
100
AcDbLine
 10
421.0636745446882
 20
-1386.011570383978
 30
0.0
 11
421.0636745446882
 21
-1393.111570383984
 31
0.0
  0
LINE
  5
337
330
1F
100
AcDbEntity
  8
Graypants_Float36
370
    -3
100
AcDbLine
 10
431.5835610404229
 20
-1435.711570383975
 30
0.0
 11
-0.0000000039676706
 21
-1435.711570383975
 31
0.0
  0
LINE
  5
338
330
1F
100
AcDbEntity
  8
Graypants_Float36
370
    -3
100
AcDbLine
 10
-431.5835610483573
 20
-1435.711570383975
 30
0.0
 11
-431.5835610483573
 21
-1428.61157038397
 31
0.0
  0
LINE
  5
339
330
1F
100
AcDbEntity
  8
Graypants_Float36
370
    -3
100
AcDbLine
 10
431.5835610404229
 20
-1428.61157038397
 30
0.0
 11
431.5835610404229
 21
-1435.711570383975
 31
0.0
  0
LINE
  5
33A
330
1F
100
AcDbEntity
  8
Graypants_Float36
370
    -3
100
AcDbLine
 10
-0.0000000039676706
 20
-1435.711570383975
 30
0.0
 11
-431.5835610483573
 21
-1435.711570383975
 31
0.0
  0
LINE
  5
33B
330
1F
100
AcDbEntity
  8
Graypants_Float36
370
    -3
100
AcDbLine
 10
-380.0072721015404
 20
-1336.311570383996
 30
0.0
 11
-380.0072721015404
 21
-1329.21157038399
 31
0.0
  0
LINE
  5
33C
330
1F
100
AcDbEntity
  8
Graypants_Float36
370
    -3
100
AcDbLine
 10
380.0072720936059
 20
-1329.21157038399
 30
0.0
 11
380.0072720936059
 21
-1336.311570383996
 31
0.0
  0
LINE
  5
33D
330
1F
100
AcDbEntity
  8
Graypants_Float36
370
    -3
100
AcDbLine
 10
-74.19936617930398
 20
-1222.461570384005
 30
0.0
 11
-2.054741499948191
 21
-1222.461570384004
 31
0.0
  0
LINE
  5
33E
330
1F
100
AcDbEntity
  8
Graypants_Float36
370
    -3
100
AcDbLine
 10
-295.9680669160534
 20
-1279.511570384007
 30
0.0
 11
-295.9680669160534
 21
-1272.411570384002
 31
0.0
  0
LINE
  5
33F
330
1F
100
AcDbEntity
  8
Graypants_Float36
370
    -3
100
AcDbLine
 10
295.968066908119
 20
-1272.411570384002
 30
0.0
 11
295.968066908119
 21
-1279.511570384007
 31
0.0
  0
LINE
  5
340
330
1F
100
AcDbEntity
  8
Graypants_Float36
370
    -3
100
AcDbLine
 10
-322.5548669961227
 20
-1293.711570384005
 30
0.0
 11
-322.5548669961227
 21
-1286.611570383999
 31
0.0
  0
LINE
  5
341
330
1F
100
AcDbEntity
  8
Graypants_Float36
370
    -3
100
AcDbLine
 10
322.5548669881882
 20
-1286.611570383999
 30
0.0
 11
322.5548669881882
 21
-1293.711570384005
 31
0.0
  0
LINE
  5
342
330
1F
100
AcDbEntity
  8
Graypants_Float36
370
    -3
100
AcDbLine
 10
245.2085453307573
 20
-1251.111570384001
 30
0.0
 11
245.2085453307573
 21
-1258.211570384002
 31
0.0
  0
LINE
  5
343
330
1F
100
AcDbEntity
  8
Graypants_Float36
370
    -3
100
AcDbLine
 10
-245.2085453386917
 20
-1258.211570384002
 30
0.0
 11
-245.2085453386917
 21
-1251.111570384001
 31
0.0
  0
ARC
  5
344
330
1F
100
AcDbEntity
  8
Graypants_Float36
370
    -3
100
AcDbCircle
 10
-0.0000000000006363
 20
0.0000000000000179
 30
0.0
 40
76.20000000000022
210
0.0
220
0.0
230
-1.0
100
AcDbArc
 50
123.0000003202903
 51
33.00000032028989
  0
ARC
  5
345
330
1F
100
AcDbEntity
  8
Graypants_Float36
370
    -3
100
AcDbCircle
 10
89.67396828292293
 20
51.77328906706069
 30
0.0
 40
3.810196426791644
100
AcDbArc
 50
120.5817895762191
 51
299.4182097832013
  0
ARC
  5
346
330
1F
100
AcDbEntity
  8
Graypants_Float36
370
    -3
100
AcDbCircle
 10
89.63328470952482
 20
51.72768916800305
 30
0.0
 40
3.790900471084261
100
AcDbArc
 50
300.292371548707
 51
30.28941770722523
  0
ARC
  5
347
330
1F
100
AcDbEntity
  8
Graypants_Float36
370
    -3
100
AcDbCircle
 10
89.61413582509122
 20
51.76085600918003
 30
0.0
 40
3.790900471083492
100
AcDbArc
 50
29.7105816521954
 51
119.7076278107249
  0
ARC
  5
348
330
1F
100
AcDbEntity
  8
Graypants_Float36
370
    -3
100
AcDbCircle
 10
-0.0000000017002719
 20
-102.6727361610946
 30
0.0
 40
2.054978063948259
100
AcDbArc
 50
0.5817898936347503
 51
179.4182101006666
  0
ARC
  5
349
330
1F
100
AcDbEntity
  8
Graypants_Float36
370
    -3
100
AcDbCircle
 10
0.0016935684570125
 20
-102.6321110509157
 30
0.0
 40
2.056660610868041
100
AcDbArc
 50
180.5504650742112
 51
309.1940965395302
  0
ARC
  5
34A
330
1F
100
AcDbEntity
  8
Graypants_Float36
370
    -3
100
AcDbCircle
 10
0.0016935684151438
 20
-103.4881315696124
 30
0.0
 40
2.056660610867637
100
AcDbArc
 50
180.5504650742727
 51
309.1940965395409
  0
ARC
  5
34B
330
1F
100
AcDbEntity
  8
Graypants_Float36
370
    -3
100
AcDbCircle
 10
0.0284352870945497
 20
-103.505352870291
 30
0.0
 40
2.026438423839058
100
AcDbArc
 50
308.9158187259133
 51
359.9282511519607
  0
ARC
  5
34C
330
1F
100
AcDbEntity
  8
Graypants_Float36
370
    -3
100
AcDbCircle
 10
-0.0000000017439845
 20
-103.5465791227386
 30
0.0
 40
3.810196426791507
100
AcDbArc
 50
0.5817898935867372
 51
179.4182101005631
  0
ARC
  5
34D
330
1F
100
AcDbEntity
  8
Graypants_Float36
370
    -3
100
AcDbCircle
 10
-0.0191488863594529
 20
-103.4885461652356
 30
0.0
 40
3.790900471085014
100
AcDbArc
 50
180.2923718660804
 51
270.2894180245787
  0
ARC
  5
34E
330
1F
100
AcDbEntity
  8
Graypants_Float36
370
    -3
100
AcDbCircle
 10
0.019148882878639
 20
-103.4885461652388
 30
0.0
 40
3.790900471083742
100
AcDbArc
 50
269.7105819695679
 51
359.7076281280882
  0
ARC
  5
34F
330
1F
100
AcDbEntity
  8
Graypants_Float36
370
    -3
100
AcDbCircle
 10
-88.91719725401025
 20
51.33636901943426
 30
0.0
 40
2.054978063948343
100
AcDbArc
 50
240.5817892906911
 51
59.4182094976747
  0
CIRCLE
  5
350
330
1F
100
AcDbEntity
  8
Graypants_Float36
370
    -3
100
AcDbCircle
 10
-0.0000000011046808
 20
0.0000000019497995
 30
0.0
 40
199.8631741763675
  0
ARC
  5
351
330
1F
100
AcDbEntity
  8
Graypants_Float36
370
    -3
100
AcDbCircle
 10
-89.67396745309479
 20
51.77329050825925
 30
0.0
 40
3.81019642679156
100
AcDbArc
 50
240.5817892908067
 51
59.41820949777877
  0
ARC
  5
352
330
1F
100
AcDbEntity
  8
Graypants_Float36
370
    -3
100
AcDbCircle
 10
88.91719807677717
 20
51.33636759046834
 30
0.0
 40
2.054978063947304
100
AcDbArc
 50
120.5817895762221
 51
299.4182097832019
  0
ARC
  5
353
330
1F
100
AcDbEntity
  8
Graypants_Float36
370
    -3
100
AcDbCircle
 10
89.62250443189396
 20
51.74553196556363
 30
0.0
 40
2.056660610867222
100
AcDbArc
 50
300.5504647566815
 51
69.19409622219399
  0
ARC
  5
354
330
1F
100
AcDbEntity
  8
Graypants_Float36
370
    -3
100
AcDbCircle
 10
89.62404765660311
 20
51.77730162361196
 30
0.0
 40
2.02643842383868
100
AcDbArc
 50
68.91581840853682
 51
119.9282508344909
  0
ARC
  5
355
330
1F
100
AcDbEntity
  8
Graypants_Float36
370
    -3
100
AcDbCircle
 10
-0.0000000000001669
 20
0.0000000000005999
 30
0.0
 40
76.1999999999995
210
0.0
220
0.0
230
-1.0
100
AcDbArc
 50
33.00000032028972
 51
123.0000003202915
  0
ARC
  5
356
330
1F
100
AcDbEntity
  8
Graypants_Float36
370
    -3
100
AcDbCircle
 10
92.70308335953546
 20
53.50003822206401
 30
0.0
 40
3.790900471084417
100
AcDbArc
 50
300.2923715487094
 51
30.28941770722286
  0
LINE
  5
357
330
1F
100
AcDbEntity
  8
Graypants_Float36
370
    -3
100
AcDbLine
 10
87.73546295762458
 20
55.05350154714879
 30
0.0
 11
90.80526160763543
 21
56.82585060120969
 31
0.0
  0
LINE
  5
358
330
1F
100
AcDbEntity
  8
Graypants_Float36
370
    -3
100
AcDbLine
 10
94.61526157074559
 20
50.22673700307403
 30
0.0
 11
91.54546292073474
 21
48.45438794901313
 31
0.0
  0
ARC
  5
359
330
1F
100
AcDbEntity
  8
Graypants_Float36
370
    -3
100
AcDbCircle
 10
92.68393447510206
 20
53.53320506324084
 30
0.0
 40
3.790900471083546
100
AcDbArc
 50
29.71058165219641
 51
119.7076278107242
  0
ARC
  5
35A
330
1F
100
AcDbEntity
  8
Graypants_Float36
370
    -3
100
AcDbCircle
 10
0.0284352871369341
 20
-102.6493323515949
 30
0.0
 40
2.026438423838725
100
AcDbArc
 50
308.915818725901
 51
359.9282511518924
  0
LINE
  5
35B
330
1F
100
AcDbEntity
  8
Graypants_Float36
370
    -3
100
AcDbLine
 10
2.054872122106545
 20
-102.65186996581
 30
0.0
 11
2.05487212206403
 21
-103.5078904845063
 31
0.0
  0
LINE
  5
35C
330
1F
100
AcDbEntity
  8
Graypants_Float36
370
    -3
100
AcDbLine
 10
-2.054872125549299
 20
-103.5078904843037
 30
0.0
 11
-2.05487212550758
 21
-102.6518699656075
 31
0.0
  0
ARC
  5
35D
330
1F
100
AcDbEntity
  8
Graypants_Float36
370
    -3
100
AcDbCircle
 10
-0.0191488865407763
 20
-107.0332443076801
 30
0.0
 40
3.790900471085592
100
AcDbArc
 50
180.292371866089
 51
270.2894180245735
  0
LINE
  5
35E
330
1F
100
AcDbEntity
  8
Graypants_Float36
370
    -3
100
AcDbLine
 10
3.809999998257808
 20
-103.5078904845989
 30
0.0
 11
3.809999998076137
 21
-107.0525886270439
 31
0.0
  0
LINE
  5
35F
330
1F
100
AcDbEntity
  8
Graypants_Float36
370
    -3
100
AcDbLine
 10
-3.810000001923754
 20
-107.052588626655
 30
0.0
 11
-3.810000001741855
 21
-103.5078904842099
 31
0.0
  0
ARC
  5
360
330
1F
100
AcDbEntity
  8
Graypants_Float36
370
    -3
100
AcDbCircle
 10
0.019148882697742
 20
-107.0332443076847
 30
0.0
 40
3.790900471082965
100
AcDbArc
 50
269.7105819695561
 51
359.7076281281017
  0
ARC
  5
361
330
1F
100
AcDbEntity
  8
Graypants_Float36
370
    -3
100
AcDbCircle
 10
-88.88286166187187
 20
51.31458978920477
 30
0.0
 40
2.056660610867679
100
AcDbArc
 50
60.55046447120455
 51
189.1940959367834
  0
ARC
  5
362
330
1F
100
AcDbEntity
  8
Graypants_Float36
370
    -3
100
AcDbCircle
 10
-88.91114660523482
 20
51.30004143212511
 30
0.0
 40
2.026438423842846
100
AcDbArc
 50
188.9158181231595
 51
239.9282505488772
  0
ARC
  5
363
330
1F
100
AcDbEntity
  8
Graypants_Float36
370
    -3
100
AcDbCircle
 10
-89.6241971727002
 20
51.74260005639263
 30
0.0
 40
2.056660610867656
100
AcDbArc
 50
60.55046447120327
 51
189.1940959367819
  0
LINE
  5
364
330
1F
100
AcDbEntity
  8
Graypants_Float36
370
    -3
100
AcDbLine
 10
-89.92656267955665
 20
49.54636447166904
 30
0.0
 11
-90.66789819038475
 21
49.97437473885633
 31
0.0
  0
LINE
  5
365
330
1F
100
AcDbEntity
  8
Graypants_Float36
370
    -3
100
AcDbLine
 10
-88.61302602894396
 20
53.53351763861889
 30
0.0
 11
-87.8716905181156
 21
53.10550737143027
 31
0.0
  0
ARC
  5
366
330
1F
100
AcDbEntity
  8
Graypants_Float36
370
    -3
100
AcDbCircle
 10
-89.65248211606428
 20
51.72805169931237
 30
0.0
 40
2.026438423841622
100
AcDbArc
 50
188.9158181231462
 51
239.928250548876
  0
CIRCLE
  5
367
330
1F
100
AcDbEntity
  8
Graypants_Float36
370
    -3
100
AcDbCircle
 10
0.0000000011082586
 20
0.0000000019559663
 30
0.0
 40
125.1605985065399
210
0.0
220
0.0
230
-1.0
  0
CIRCLE
  5
368
330
1F
100
AcDbEntity
  8
Graypants_Float36
370
    -3
100
AcDbCircle
 10
-0.0000000011046848
 20
0.0000000019497712
 30
0.0
 40
135.1605985065399
  0
CIRCLE
  5
369
330
1F
100
AcDbEntity
  8
Graypants_Float36
370
    -3
100
AcDbCircle
 10
0.000000001103581
 20
0.0000000019462161
 30
0.0
 40
224.1051748281317
210
0.0
220
0.0
230
-1.0
  0
ARC
  5
36A
330
1F
100
AcDbEntity
  8
Graypants_Float36
370
    -3
100
AcDbCircle
 10
-89.61413499546416
 20
51.76085744941217
 30
0.0
 40
3.790900471082962
100
AcDbArc
 50
60.29237126326693
 51
150.2894174218106
  0
ARC
  5
36B
330
1F
100
AcDbEntity
  8
Graypants_Float36
370
    -3
100
AcDbCircle
 10
-89.63328388043351
 20
51.72769060854409
 30
0.0
 40
3.790900471084251
100
AcDbArc
 50
149.7105813667753
 51
239.707627525299
  0
ARC
  5
36C
330
1F
100
AcDbEntity
  8
Graypants_Float36
370
    -3
100
AcDbCircle
 10
-92.68393361683071
 20
53.53320655308613
 30
0.0
 40
3.790900471083352
100
AcDbArc
 50
60.29237126327005
 51
150.2894174218063
  0
LINE
  5
36D
330
1F
100
AcDbEntity
  8
Graypants_Float36
370
    -3
100
AcDbLine
 10
-91.54546214454535
 20
48.45438942045812
 30
0.0
 11
-94.61526076591167
 21
50.22673852413241
 31
0.0
  0
LINE
  5
36E
330
1F
100
AcDbEntity
  8
Graypants_Float36
370
    -3
100
AcDbLine
 10
-90.80526069614893
 20
56.82585206069198
 30
0.0
 11
-87.73546207478239
 21
55.05350295701758
 31
0.0
  0
ARC
  5
36F
330
1F
100
AcDbEntity
  8
Graypants_Float36
370
    -3
100
AcDbCircle
 10
-92.70308250179981
 20
53.50003971221872
 30
0.0
 40
3.790900471084545
100
AcDbArc
 50
149.7105813667817
 51
239.7076275253015
  0
CIRCLE
  5
370
330
1F
100
AcDbEntity
  8
Graypants_Float36
370
    -3
100
AcDbCircle
 10
-0.000000001105367
 20
0.0000000019491742
 30
0.0
 40
171.1540467721642
  0
ARC
  5
371
330
1F
100
AcDbEntity
  8
Graypants_Float36
370
    -3
100
AcDbCircle
 10
88.8811689141481
 20
51.31752171035859
 30
0.0
 40
2.056660610868308
100
AcDbArc
 50
300.5504647567284
 51
69.19409622217414
  0
ARC
  5
372
330
1F
100
AcDbEntity
  8
Graypants_Float36
370
    -3
100
AcDbCircle
 10
88.88271213885854
 20
51.34929136840368
 30
0.0
 40
2.026438423842318
100
AcDbArc
 50
68.91581840858336
 51
119.9282508344724
  0
LINE
  5
373
330
1F
100
AcDbEntity
  8
Graypants_Float36
370
    -3
100
AcDbLine
 10
87.87169136947946
 20
53.10550595936563
 30
0.0
 11
88.61302688722405
 21
53.53351621456986
 31
0.0
  0
LINE
  5
374
330
1F
100
AcDbEntity
  8
Graypants_Float36
370
    -3
100
AcDbLine
 10
90.66789899113388
 20
49.97437328159194
 30
0.0
 11
89.9265634733893
 21
49.54636302638772
 31
0.0
  0
CIRCLE
  5
376
330
1F
100
AcDbEntity
  8
Graypants_Float36
  6
Hidden
370
    -3
100
AcDbCircle
 10
0.0000000000000025
 20
0.0000000000000276
 30
0.0
 40
57.14999999999782
  0
POLYLINE
  5
377
330
1F
100
AcDbEntity
  8
Graypants_Float36
  6
Hidden
100
AcDb2dPolyline
 66
     1
 10
0.0
 20
0.0
 30
0.0
  0
VERTEX
  5
378
330
377
100
AcDbEntity
  8
Graypants_Float36
  6
Hidden
100
AcDbVertex
100
AcDb2dVertex
 10
49.6765433100984
 20
28.25532772345196
 30
0.0
  0
VERTEX
  5
379
330
377
100
AcDbEntity
  8
Graypants_Float36
  6
Hidden
100
AcDbVertex
100
AcDb2dVertex
 10
89.08114963885873
 20
51.00558753627705
 30
0.0
  0
VERTEX
  5
37A
330
377
100
AcDbEntity
  8
Graypants_Float36
  6
Hidden
100
AcDbVertex
100
AcDb2dVertex
 10
89.09289472725176
 20
51.0126416317913
 30
0.0
  0
VERTEX
  5
37B
330
377
100
AcDbEntity
  8
Graypants_Float36
  6
Hidden
100
AcDbVertex
100
AcDb2dVertex
 10
89.10438933708132
 20
51.02009691915983
 30
0.0
  0
VERTEX
  5
37C
330
377
100
AcDbEntity
  8
Graypants_Float36
  6
Hidden
100
AcDbVertex
100
AcDb2dVertex
 10
89.11561977000378
 20
51.02794451377589
 30
0.0
  0
VERTEX
  5
37D
330
377
100
AcDbEntity
  8
Graypants_Float36
  6
Hidden
100
AcDbVertex
100
AcDb2dVertex
 10
89.1265726424999
 20
51.03617506351257
 30
0.0
  0
VERTEX
  5
37E
330
377
100
AcDbEntity
  8
Graypants_Float36
  6
Hidden
100
AcDbVertex
100
AcDb2dVertex
 10
89.13723490182441
 20
51.04477875986818
 30
0.0
  0
VERTEX
  5
37F
330
377
100
AcDbEntity
  8
Graypants_Float36
  6
Hidden
100
AcDbVertex
100
AcDb2dVertex
 10
89.14759384156142
 20
51.05374534965514
 30
0.0
  0
VERTEX
  5
380
330
377
100
AcDbEntity
  8
Graypants_Float36
  6
Hidden
100
AcDbVertex
100
AcDb2dVertex
 10
89.15763711676665
 20
51.06306414721898
 30
0.0
  0
VERTEX
  5
381
330
377
100
AcDbEntity
  8
Graypants_Float36
  6
Hidden
100
AcDbVertex
100
AcDb2dVertex
 10
89.16735275867912
 20
51.07272404717239
 30
0.0
  0
VERTEX
  5
382
330
377
100
AcDbEntity
  8
Graypants_Float36
  6
Hidden
100
AcDbVertex
100
AcDb2dVertex
 10
89.17672918898487
 20
51.08271353763016
 30
0.0
  0
VERTEX
  5
383
330
377
100
AcDbEntity
  8
Graypants_Float36
  6
Hidden
100
AcDbVertex
100
AcDb2dVertex
 10
89.18575523361449
 20
51.09302071392752
 30
0.0
  0
VERTEX
  5
384
330
377
100
AcDbEntity
  8
Graypants_Float36
  6
Hidden
100
AcDbVertex
100
AcDb2dVertex
 10
89.1944201360602
 20
51.10363329280787
 30
0.0
  0
VERTEX
  5
385
330
377
100
AcDbEntity
  8
Graypants_Float36
  6
Hidden
100
AcDbVertex
100
AcDb2dVertex
 10
89.20271357019381
 20
51.11453862706017
 30
0.0
  0
VERTEX
  5
386
330
377
100
AcDbEntity
  8
Graypants_Float36
  6
Hidden
100
AcDbVertex
100
AcDb2dVertex
 10
89.21062565257316
 20
51.12572372059152
 30
0.0
  0
VERTEX
  5
387
330
377
100
AcDbEntity
  8
Graypants_Float36
  6
Hidden
100
AcDbVertex
100
AcDb2dVertex
 10
89.2181469542201
 20
51.13717524391456
 30
0.0
  0
VERTEX
  5
388
330
377
100
AcDbEntity
  8
Graypants_Float36
  6
Hidden
100
AcDbVertex
100
AcDb2dVertex
 10
89.22526851185734
 20
51.14887955003249
 30
0.0
  0
VERTEX
  5
389
330
377
100
AcDbEntity
  8
Graypants_Float36
  6
Hidden
100
AcDbVertex
100
AcDb2dVertex
 10
89.23198183859
 20
51.16082269070247
 30
0.0
  0
VERTEX
  5
38A
330
377
100
AcDbEntity
  8
Graypants_Float36
  6
Hidden
100
AcDbVertex
100
AcDb2dVertex
 10
89.23827893401976
 20
51.17299043305809
 30
0.0
  0
VERTEX
  5
38B
330
377
100
AcDbEntity
  8
Graypants_Float36
  6
Hidden
100
AcDbVertex
100
AcDb2dVertex
 10
89.24415229377894
 20
51.18536827657072
 30
0.0
  0
VERTEX
  5
38C
330
377
100
AcDbEntity
  8
Graypants_Float36
  6
Hidden
100
AcDbVertex
100
AcDb2dVertex
 10
89.24959491847368
 20
51.19794147033026
 30
0.0
  0
VERTEX
  5
38D
330
377
100
AcDbEntity
  8
Graypants_Float36
  6
Hidden
100
AcDbVertex
100
AcDb2dVertex
 10
89.25460032202528
 20
51.21069503062409
 30
0.0
  0
VERTEX
  5
38E
330
377
100
AcDbEntity
  8
Graypants_Float36
  6
Hidden
100
AcDbVertex
100
AcDb2dVertex
 10
89.25916253939971
 20
51.22361375879333
 30
0.0
  0
VERTEX
  5
38F
330
377
100
AcDbEntity
  8
Graypants_Float36
  6
Hidden
100
AcDbVertex
100
AcDb2dVertex
 10
89.26327613371632
 20
51.23668225934546
 30
0.0
  0
VERTEX
  5
390
330
377
100
AcDbEntity
  8
Graypants_Float36
  6
Hidden
100
AcDbVertex
100
AcDb2dVertex
 10
89.26693620272697
 20
51.24988495830141
 30
0.0
  0
VERTEX
  5
391
330
377
100
AcDbEntity
  8
Graypants_Float36
  6
Hidden
100
AcDbVertex
100
AcDb2dVertex
 10
89.27013838465827
 20
51.26320612175516
 30
0.0
  0
VERTEX
  5
392
330
377
100
AcDbEntity
  8
Graypants_Float36
  6
Hidden
100
AcDbVertex
100
AcDb2dVertex
 10
89.27287886340946
 20
51.27662987462455
 30
0.0
  0
VERTEX
  5
393
330
377
100
AcDbEntity
  8
Graypants_Float36
  6
Hidden
100
AcDbVertex
100
AcDb2dVertex
 10
89.27515437310022
 20
51.29014021956943
 30
0.0
  0
VERTEX
  5
394
330
377
100
AcDbEntity
  8
Graypants_Float36
  6
Hidden
100
AcDbVertex
100
AcDb2dVertex
 10
89.27696220196265
 20
51.30372105605638
 30
0.0
  0
VERTEX
  5
395
330
377
100
AcDbEntity
  8
Graypants_Float36
  6
Hidden
100
AcDbVertex
100
AcDb2dVertex
 10
89.27830019557291
 20
51.31735619954602
 30
0.0
  0
VERTEX
  5
396
330
377
100
AcDbEntity
  8
Graypants_Float36
  6
Hidden
100
AcDbVertex
100
AcDb2dVertex
 10
89.27916675941876
 20
51.33102940078001
 30
0.0
  0
VERTEX
  5
397
330
377
100
AcDbEntity
  8
Graypants_Float36
  6
Hidden
100
AcDbVertex
100
AcDb2dVertex
 10
89.27956086079963
 20
51.34472436514589
 30
0.0
  0
VERTEX
  5
398
330
377
100
AcDbEntity
  8
Graypants_Float36
  6
Hidden
100
AcDbVertex
100
AcDb2dVertex
 10
89.27948203005751
 20
51.35842477209598
 30
0.0
  0
VERTEX
  5
399
330
377
100
AcDbEntity
  8
Graypants_Float36
  6
Hidden
100
AcDbVertex
100
AcDb2dVertex
 10
89.27893036113645
 20
51.37211429459626
 30
0.0
  0
VERTEX
  5
39A
330
377
100
AcDbEntity
  8
Graypants_Float36
  6
Hidden
100
AcDbVertex
100
AcDb2dVertex
 10
89.27790651147072
 20
51.38577661858395
 30
0.0
  0
VERTEX
  5
39B
330
377
100
AcDbEntity
  8
Graypants_Float36
  6
Hidden
100
AcDbVertex
100
AcDb2dVertex
 10
89.27641170120137
 20
51.39939546240937
 30
0.0
  0
VERTEX
  5
39C
330
377
100
AcDbEntity
  8
Graypants_Float36
  6
Hidden
100
AcDbVertex
100
AcDb2dVertex
 10
89.274447711722
 20
51.41295459623898
 30
0.0
  0
VERTEX
  5
39D
330
377
100
AcDbEntity
  8
Graypants_Float36
  6
Hidden
100
AcDbVertex
100
AcDb2dVertex
 10
89.27201688355603
 20
51.42643786139651
 30
0.0
  0
VERTEX
  5
39E
330
377
100
AcDbEntity
  8
Graypants_Float36
  6
Hidden
100
AcDbVertex
100
AcDb2dVertex
 10
89.26912211356733
 20
51.43982918962022
 30
0.0
  0
VERTEX
  5
39F
330
377
100
AcDbEntity
  8
Graypants_Float36
  6
Hidden
100
AcDbVertex
100
AcDb2dVertex
 10
89.26576685150799
 20
51.45311262221107
 30
0.0
  0
VERTEX
  5
3A0
330
377
100
AcDbEntity
  8
Graypants_Float36
  6
Hidden
100
AcDbVertex
100
AcDb2dVertex
 10
89.2619550959072
 20
51.46627232905148
 30
0.0
  0
VERTEX
  5
3A1
330
377
100
AcDbEntity
  8
Graypants_Float36
  6
Hidden
100
AcDbVertex
100
AcDb2dVertex
 10
89.25769138930623
 20
51.47929262746985
 30
0.0
  0
VERTEX
  5
3A2
330
377
100
AcDbEntity
  8
Graypants_Float36
  6
Hidden
100
AcDbVertex
100
AcDb2dVertex
 10
89.25298081284477
 20
51.49215800093062
 30
0.0
  0
VERTEX
  5
3A3
330
377
100
AcDbEntity
  8
Graypants_Float36
  6
Hidden
100
AcDbVertex
100
AcDb2dVertex
 10
89.2478289802059
 20
51.50485311752487
 30
0.0
  0
VERTEX
  5
3A4
330
377
100
AcDbEntity
  8
Graypants_Float36
  6
Hidden
100
AcDbVertex
100
AcDb2dVertex
 10
89.24224203092587
 20
51.51736284824241
 30
0.0
  0
VERTEX
  5
3A5
330
377
100
AcDbEntity
  8
Graypants_Float36
  6
Hidden
100
AcDbVertex
100
AcDb2dVertex
 10
89.23622662307774
 20
51.52967228500064
 30
0.0
  0
VERTEX
  5
3A6
330
377
100
AcDbEntity
  8
Graypants_Float36
  6
Hidden
100
AcDbVertex
100
AcDb2dVertex
 10
89.2297899253368
 20
51.54176675841101
 30
0.0
  0
VERTEX
  5
3A7
330
377
100
AcDbEntity
  8
Graypants_Float36
  6
Hidden
100
AcDbVertex
100
AcDb2dVertex
 10
89.22293960843737
 20
51.55363185526108
 30
0.0
  0
VERTEX
  5
3A8
330
377
100
AcDbEntity
  8
Graypants_Float36
  6
Hidden
100
AcDbVertex
100
AcDb2dVertex
 10
89.21568383603164
 20
51.56525343569049
 30
0.0
  0
VERTEX
  5
3A9
330
377
100
AcDbEntity
  8
Graypants_Float36
  6
Hidden
100
AcDbVertex
100
AcDb2dVertex
 10
89.20803125496066
 20
51.5766176500424
 30
0.0
  0
VERTEX
  5
3AA
330
377
100
AcDbEntity
  8
Graypants_Float36
  6
Hidden
100
AcDbVertex
100
AcDb2dVertex
 10
89.19999098494993
 20
51.58771095536763
 30
0.0
  0
VERTEX
  5
3AB
330
377
100
AcDbEntity
  8
Graypants_Float36
  6
Hidden
100
AcDbVertex
100
AcDb2dVertex
 10
89.19157260774125
 20
51.59852013156457
 30
0.0
  0
VERTEX
  5
3AC
330
377
100
AcDbEntity
  8
Graypants_Float36
  6
Hidden
100
AcDbVertex
100
AcDb2dVertex
 10
89.18278615567391
 20
51.60903229713353
 30
0.0
  0
VERTEX
  5
3AD
330
377
100
AcDbEntity
  8
Graypants_Float36
  6
Hidden
100
AcDbVertex
100
AcDb2dVertex
 10
89.17364209972878
 20
51.6192349245283
 30
0.0
  0
VERTEX
  5
3AE
330
377
100
AcDbEntity
  8
Graypants_Float36
  6
Hidden
100
AcDbVertex
100
AcDb2dVertex
 10
89.1641513370503
 20
51.62911585508478
 30
0.0
  0
VERTEX
  5
3AF
330
377
100
AcDbEntity
  8
Graypants_Float36
  6
Hidden
100
AcDbVertex
100
AcDb2dVertex
 10
89.15432517795962
 20
51.63866331351144
 30
0.0
  0
VERTEX
  5
3B0
330
377
100
AcDbEntity
  8
Graypants_Float36
  6
Hidden
100
AcDbVertex
100
AcDb2dVertex
 10
89.14417533247641
 20
51.64786592192143
 30
0.0
  0
VERTEX
  5
3B1
330
377
100
AcDbEntity
  8
Graypants_Float36
  6
Hidden
100
AcDbVertex
100
AcDb2dVertex
 10
89.13371389636309
 20
51.65671271339261
 30
0.0
  0
VERTEX
  5
3B2
330
377
100
AcDbEntity
  8
Graypants_Float36
  6
Hidden
100
AcDbVertex
100
AcDb2dVertex
 10
89.12295333671122
 20
51.66519314503606
 30
0.0
  0
VERTEX
  5
3B3
330
377
100
AcDbEntity
  8
Graypants_Float36
  6
Hidden
100
AcDbVertex
100
AcDb2dVertex
 10
89.11190647708281
 20
51.67329711056131
 30
0.0
  0
VERTEX
  5
3B4
330
377
100
AcDbEntity
  8
Graypants_Float36
  6
Hidden
100
AcDbVertex
100
AcDb2dVertex
 10
89.1005864822295
 20
51.68101495231935
 30
0.0
  0
VERTEX
  5
3B5
330
377
100
AcDbEntity
  8
Graypants_Float36
  6
Hidden
100
AcDbVertex
100
AcDb2dVertex
 10
89.08900684240292
 20
51.68833747281239
 30
0.0
  0
VERTEX
  5
3B6
330
377
100
AcDbEntity
  8
Graypants_Float36
  6
Hidden
100
AcDbVertex
100
AcDb2dVertex
 10
89.07718135727895
 20
51.69525594565422
 30
0.0
  0
VERTEX
  5
3B7
330
377
100
AcDbEntity
  8
Graypants_Float36
  6
Hidden
100
AcDbVertex
100
AcDb2dVertex
 10
89.06512411951137
 20
51.70176212597018
 30
0.0
  0
VERTEX
  5
3B8
330
377
100
AcDbEntity
  8
Graypants_Float36
  6
Hidden
100
AcDbVertex
100
AcDb2dVertex
 10
89.05284949793878
 20
51.70784826022197
 30
0.0
  0
VERTEX
  5
3B9
330
377
100
AcDbEntity
  8
Graypants_Float36
  6
Hidden
100
AcDbVertex
100
AcDb2dVertex
 10
89.04037212045952
 20
51.71350709544848
 30
0.0
  0
VERTEX
  5
3BA
330
377
100
AcDbEntity
  8
Graypants_Float36
  6
Hidden
100
AcDbVertex
100
AcDb2dVertex
 10
89.02770685660003
 20
51.71873188790886
 30
0.0
  0
VERTEX
  5
3BB
330
377
100
AcDbEntity
  8
Graypants_Float36
  6
Hidden
100
AcDbVertex
100
AcDb2dVertex
 10
89.01486879979481
 20
51.72351641111913
 30
0.0
  0
VERTEX
  5
3BC
330
377
100
AcDbEntity
  8
Graypants_Float36
  6
Hidden
100
AcDbVertex
100
AcDb2dVertex
 10
89.00187324939886
 20
51.72785496327248
 30
0.0
  0
VERTEX
  5
3BD
330
377
100
AcDbEntity
  8
Graypants_Float36
  6
Hidden
100
AcDbVertex
100
AcDb2dVertex
 10
88.98873569245504
 20
51.73174237403443
 30
0.0
  0
VERTEX
  5
3BE
330
377
100
AcDbEntity
  8
Graypants_Float36
  6
Hidden
100
AcDbVertex
100
AcDb2dVertex
 10
88.97547178523838
 20
51.73517401070401
 30
0.0
  0
VERTEX
  5
3BF
330
377
100
AcDbEntity
  8
Graypants_Float36
  6
Hidden
100
AcDbVertex
100
AcDb2dVertex
 10
88.96209733459794
 20
51.73814578373494
 30
0.0
  0
VERTEX
  5
3C0
330
377
100
AcDbEntity
  8
Graypants_Float36
  6
Hidden
100
AcDbVertex
100
AcDb2dVertex
 10
88.94862827911912
 20
51.74065415160917
 30
0.0
  0
VERTEX
  5
3C1
330
377
100
AcDbEntity
  8
Graypants_Float36
  6
Hidden
100
AcDbVertex
100
AcDb2dVertex
 10
88.93508067013002
 20
51.74269612505726
 30
0.0
  0
VERTEX
  5
3C2
330
377
100
AcDbEntity
  8
Graypants_Float36
  6
Hidden
100
AcDbVertex
100
AcDb2dVertex
 10
88.92147065257247
 20
51.74426927062085
 30
0.0
  0
VERTEX
  5
3C3
330
377
100
AcDbEntity
  8
Graypants_Float36
  6
Hidden
100
AcDbVertex
100
AcDb2dVertex
 10
88.90781444576142
 20
51.74537171355268
 30
0.0
  0
VERTEX
  5
3C4
330
377
100
AcDbEntity
  8
Graypants_Float36
  6
Hidden
100
AcDbVertex
100
AcDb2dVertex
 10
88.89412832405675
 20
51.74600214005062
 30
0.0
  0
VERTEX
  5
3C5
330
377
100
AcDbEntity
  8
Graypants_Float36
  6
Hidden
100
AcDbVertex
100
AcDb2dVertex
 10
88.88042859746852
 20
51.74615979882353
 30
0.0
  0
VERTEX
  5
3C6
330
377
100
AcDbEntity
  8
Graypants_Float36
  6
Hidden
100
AcDbVertex
100
AcDb2dVertex
 10
88.86673159221962
 20
51.74584450198645
 30
0.0
  0
VERTEX
  5
3C7
330
377
100
AcDbEntity
  8
Graypants_Float36
  6
Hidden
100
AcDbVertex
100
AcDb2dVertex
 10
88.8530536312902
 20
51.74505662528458
 30
0.0
  0
VERTEX
  5
3C8
330
377
100
AcDbEntity
  8
Graypants_Float36
  6
Hidden
100
AcDbVertex
100
AcDb2dVertex
 10
88.83941101496494
 20
51.74379710764551
 30
0.0
  0
VERTEX
  5
3C9
330
377
100
AcDbEntity
  8
Graypants_Float36
  6
Hidden
100
AcDbVertex
100
AcDb2dVertex
 10
88.8258200014074
 20
51.74206745006017
 30
0.0
  0
VERTEX
  5
3CA
330
377
100
AcDbEntity
  8
Graypants_Float36
  6
Hidden
100
AcDbVertex
100
AcDb2dVertex
 10
88.8122967872855
 20
51.73986971379424
 30
0.0
  0
VERTEX
  5
3CB
330
377
100
AcDbEntity
  8
Graypants_Float36
  6
Hidden
100
AcDbVertex
100
AcDb2dVertex
 10
88.79885748846894
 20
51.73720651793153
 30
0.0
  0
VERTEX
  5
3CC
330
377
100
AcDbEntity
  8
Graypants_Float36
  6
Hidden
100
AcDbVertex
100
AcDb2dVertex
 10
88.78551812082422
 20
51.73408103625292
 30
0.0
  0
VERTEX
  5
3CD
330
377
100
AcDbEntity
  8
Graypants_Float36
  6
Hidden
100
AcDbVertex
100
AcDb2dVertex
 10
88.77229458112794
 20
51.73049699345398
 30
0.0
  0
VERTEX
  5
3CE
330
377
100
AcDbEntity
  8
Graypants_Float36
  6
Hidden
100
AcDbVertex
100
AcDb2dVertex
 10
88.75920262812235
 20
51.72645866070629
 30
0.0
  0
VERTEX
  5
3CF
330
377
100
AcDbEntity
  8
Graypants_Float36
  6
Hidden
100
AcDbVertex
100
AcDb2dVertex
 10
88.74625786373517
 20
51.72197085056727
 30
0.0
  0
VERTEX
  5
3D0
330
377
100
AcDbEntity
  8
Graypants_Float36
  6
Hidden
100
AcDbVertex
100
AcDb2dVertex
 10
88.73347571448693
 20
51.71703891124515
 30
0.0
  0
VERTEX
  5
3D1
330
377
100
AcDbEntity
  8
Graypants_Float36
  6
Hidden
100
AcDbVertex
100
AcDb2dVertex
 10
88.72087141310632
 20
51.71166872022517
 30
0.0
  0
VERTEX
  5
3D2
330
377
100
AcDbEntity
  8
Graypants_Float36
  6
Hidden
100
AcDbVertex
100
AcDb2dVertex
 10
88.70845998037765
 20
51.70586667726551
 30
0.0
  0
VERTEX
  5
3D3
330
377
100
AcDbEntity
  8
Graypants_Float36
  6
Hidden
100
AcDbVertex
100
AcDb2dVertex
 10
88.69625620724
 20
51.69963969677048
 30
0.0
  0
VERTEX
  5
3D4
330
377
100
AcDbEntity
  8
Graypants_Float36
  6
Hidden
100
AcDbVertex
100
AcDb2dVertex
 10
88.68427463716026
 20
51.69299519955034
 30
0.0
  0
VERTEX
  5
3D5
330
377
100
AcDbEntity
  8
Graypants_Float36
  6
Hidden
100
AcDbVertex
100
AcDb2dVertex
 10
49.27932628271992
 20
28.94253791776002
 30
0.0
  0
SEQEND
  5
3D6
330
377
100
AcDbEntity
  8
Graypants_Float36
  6
Hidden
  0
POLYLINE
  5
3D7
330
1F
100
AcDbEntity
  8
Graypants_Float36
  6
Hidden
100
AcDb2dPolyline
 66
     1
 10
0.0
 20
0.0
 30
0.0
  0
VERTEX
  5
3D8
330
3D7
100
AcDbEntity
  8
Graypants_Float36
  6
Hidden
100
AcDbVertex
100
AcDb2dVertex
 10
-0.3968747779083515
 20
-57.14862194673126
 30
0.0
  0
VERTEX
  5
3D9
330
3D7
100
AcDbEntity
  8
Graypants_Float36
  6
Hidden
100
AcDbVertex
100
AcDb2dVertex
 10
-0.3968750016990725
 20
-102.6518699657097
 30
0.0
  0
VERTEX
  5
3DA
330
3D7
100
AcDbEntity
  8
Graypants_Float36
  6
Hidden
100
AcDbVertex
100
AcDb2dVertex
 10
-0.3966385199795334
 20
-102.6655685583849
 30
0.0
  0
VERTEX
  5
3DB
330
3D7
100
AcDbEntity
  8
Graypants_Float36
  6
Hidden
100
AcDbVertex
100
AcDb2dVertex
 10
-0.395929356640659
 20
-102.6792508261881
 30
0.0
  0
VERTEX
  5
3DC
330
3D7
100
AcDbEntity
  8
Graypants_Float36
  6
Hidden
100
AcDbVertex
100
AcDb2dVertex
 10
-0.3947483568057927
 20
-102.6929004637025
 30
0.0
  0
VERTEX
  5
3DD
330
3D7
100
AcDbEntity
  8
Graypants_Float36
  6
Hidden
100
AcDbVertex
100
AcDb2dVertex
 10
-0.3930969278947724
 20
-102.7065012043968
 30
0.0
  0
VERTEX
  5
3DE
330
3D7
100
AcDbEntity
  8
Graypants_Float36
  6
Hidden
100
AcDbVertex
100
AcDb2dVertex
 10
-0.3909770379466323
 20
-102.7200368400114
 30
0.0
  0
VERTEX
  5
3DF
330
3D7
100
AcDbEntity
  8
Graypants_Float36
  6
Hidden
100
AcDbVertex
100
AcDb2dVertex
 10
-0.3883912132743105
 20
-102.7334912398734
 30
0.0
  0
VERTEX
  5
3E0
330
3D7
100
AcDbEntity
  8
Graypants_Float36
  6
Hidden
100
AcDbVertex
100
AcDb2dVertex
 10
-0.3853425354539238
 20
-102.7468483701203
 30
0.0
  0
VERTEX
  5
3E1
330
3D7
100
AcDbEntity
  8
Graypants_Float36
  6
Hidden
100
AcDbVertex
100
AcDb2dVertex
 10
-0.3818346376524964
 20
-102.7600923128073
 30
0.0
  0
VERTEX
  5
3E2
330
3D7
100
AcDbEntity
  8
Graypants_Float36
  6
Hidden
100
AcDbVertex
100
AcDb2dVertex
 10
-0.3778717002980851
 20
-102.7732072848777
 30
0.0
  0
VERTEX
  5
3E3
330
3D7
100
AcDbEntity
  8
Graypants_Float36
  6
Hidden
100
AcDbVertex
100
AcDb2dVertex
 10
-0.3734584460981067
 20
-102.7861776569714
 30
0.0
  0
VERTEX
  5
3E4
330
3D7
100
AcDbEntity
  8
Graypants_Float36
  6
Hidden
100
AcDbVertex
100
AcDb2dVertex
 10
-0.3686001344109356
 20
-102.7989879720508
 30
0.0
  0
VERTEX
  5
3E5
330
3D7
100
AcDbEntity
  8
Graypants_Float36
  6
Hidden
100
AcDbVertex
100
AcDb2dVertex
 10
-0.3633025549784972
 20
-102.8116229638213
 30
0.0
  0
VERTEX
  5
3E6
330
3D7
100
AcDbEntity
  8
Graypants_Float36
  6
Hidden
100
AcDbVertex
100
AcDb2dVertex
 10
-0.3575720210262898
 20
-102.8240675749244
 30
0.0
  0
VERTEX
  5
3E7
330
3D7
100
AcDbEntity
  8
Graypants_Float36
  6
Hidden
100
AcDbVertex
100
AcDb2dVertex
 10
-0.3514153617399882
 20
-102.8363069748817
 30
0.0
  0
VERTEX
  5
3E8
330
3D7
100
AcDbEntity
  8
Graypants_Float36
  6
Hidden
100
AcDbVertex
100
AcDb2dVertex
 10
-0.3448399141268116
 20
-102.848326577769
 30
0.0
  0
VERTEX
  5
3E9
330
3D7
100
AcDbEntity
  8
Graypants_Float36
  6
Hidden
100
AcDbVertex
100
AcDb2dVertex
 10
-0.3378535142719673
 20
-102.8601120595984
 30
0.0
  0
VERTEX
  5
3EA
330
3D7
100
AcDbEntity
  8
Graypants_Float36
  6
Hidden
100
AcDbVertex
100
AcDb2dVertex
 10
-0.330464488000185
 20
-102.8716493753884
 30
0.0
  0
VERTEX
  5
3EB
330
3D7
100
AcDbEntity
  8
Graypants_Float36
  6
Hidden
100
AcDbVertex
100
AcDb2dVertex
 10
-0.3226816409537983
 20
-102.8829247759017
 30
0.0
  0
VERTEX
  5
3EC
330
3D7
100
AcDbEntity
  8
Graypants_Float36
  6
Hidden
100
AcDbVertex
100
AcDb2dVertex
 10
-0.3145142480987112
 20
-102.8939248240304
 30
0.0
  0
VERTEX
  5
3ED
330
3D7
100
AcDbEntity
  8
Graypants_Float36
  6
Hidden
100
AcDbVertex
100
AcDb2dVertex
 10
-0.3059720426713657
 20
-102.9046364108092
 30
0.0
  0
VERTEX
  5
3EE
330
3D7
100
AcDbEntity
  8
Graypants_Float36
  6
Hidden
100
AcDbVertex
100
AcDb2dVertex
 10
-0.2970652045793933
 20
-102.9150467710377
 30
0.0
  0
VERTEX
  5
3EF
330
3D7
100
AcDbEntity
  8
Graypants_Float36
  6
Hidden
100
AcDbVertex
100
AcDb2dVertex
 10
-0.2878043482701757
 20
-102.9251434984928
 30
0.0
  0
VERTEX
  5
3F0
330
3D7
100
AcDbEntity
  8
Graypants_Float36
  6
Hidden
100
AcDbVertex
100
AcDb2dVertex
 10
-0.2782005100811449
 20
-102.9349145607136
 30
0.0
  0
VERTEX
  5
3F1
330
3D7
100
AcDbEntity
  8
Graypants_Float36
  6
Hidden
100
AcDbVertex
100
AcDb2dVertex
 10
-0.2682651350878784
 20
-102.9443483133405
 30
0.0
  0
VERTEX
  5
3F2
330
3D7
100
AcDbEntity
  8
Graypants_Float36
  6
Hidden
100
AcDbVertex
100
AcDb2dVertex
 10
-0.2580100634645109
 20
-102.9534335139922
 30
0.0
  0
VERTEX
  5
3F3
330
3D7
100
AcDbEntity
  8
Graypants_Float36
  6
Hidden
100
AcDbVertex
100
AcDb2dVertex
 10
-0.247447516373778
 20
-102.9621593356634
 30
0.0
  0
VERTEX
  5
3F4
330
3D7
100
AcDbEntity
  8
Graypants_Float36
  6
Hidden
100
AcDbVertex
100
AcDb2dVertex
 10
-0.2365900814025633
 20
-102.9705153796275
 30
0.0
  0
VERTEX
  5
3F5
330
3D7
100
AcDbEntity
  8
Graypants_Float36
  6
Hidden
100
AcDbVertex
100
AcDb2dVertex
 10
-0.2254506975614315
 20
-102.9784916878289
 30
0.0
  0
VERTEX
  5
3F6
330
3D7
100
AcDbEntity
  8
Graypants_Float36
  6
Hidden
100
AcDbVertex
100
AcDb2dVertex
 10
-0.2140426398646585
 20
-102.9860787547504
 30
0.0
  0
VERTEX
  5
3F7
330
3D7
100
AcDbEntity
  8
Graypants_Float36
  6
Hidden
100
AcDbVertex
100
AcDb2dVertex
 10
-0.20237950351033
 20
-102.9932675387409
 30
0.0
  0
VERTEX
  5
3F8
330
3D7
100
AcDbEntity
  8
Graypants_Float36
  6
Hidden
100
AcDbVertex
100
AcDb2dVertex
 10
-0.1904751876782981
 20
-103.0000494727906
 30
0.0
  0
VERTEX
  5
3F9
330
3D7
100
AcDbEntity
  8
Graypants_Float36
  6
Hidden
100
AcDbVertex
100
AcDb2dVertex
 10
-0.1783438789669477
 20
-103.0064164747406
 30
0.0
  0
VERTEX
  5
3FA
330
3D7
100
AcDbEntity
  8
Graypants_Float36
  6
Hidden
100
AcDbVertex
100
AcDb2dVertex
 10
-0.1660000344859705
 20
-103.0123609569143
 30
0.0
  0
VERTEX
  5
3FB
330
3D7
100
AcDbEntity
  8
Graypants_Float36
  6
Hidden
100
AcDbVertex
100
AcDb2dVertex
 10
-0.1534583646283049
 20
-103.0178758351599
 30
0.0
  0
VERTEX
  5
3FC
330
3D7
100
AcDbEntity
  8
Graypants_Float36
  6
Hidden
100
AcDbVertex
100
AcDb2dVertex
 10
-0.1407338155388742
 20
-103.0229545372928
 30
0.0
  0
VERTEX
  5
3FD
330
3D7
100
AcDbEntity
  8
Graypants_Float36
  6
Hidden
100
AcDbVertex
100
AcDb2dVertex
 10
-0.1278415513034481
 20
-103.0275910109277
 30
0.0
  0
VERTEX
  5
3FE
330
3D7
100
AcDbEntity
  8
Graypants_Float36
  6
Hidden
100
AcDbVertex
100
AcDb2dVertex
 10
-0.1147969358770027
 20
-103.0317797306912
 30
0.0
  0
VERTEX
  5
3FF
330
3D7
100
AcDbEntity
  8
Graypants_Float36
  6
Hidden
100
AcDbVertex
100
AcDb2dVertex
 10
-0.1016155147741424
 20
-103.0355157048069
 30
0.0
  0
VERTEX
  5
400
330
3D7
100
AcDbEntity
  8
Graypants_Float36
  6
Hidden
100
AcDbVertex
100
AcDb2dVertex
 10
-0.0883129965436535
 20
-103.0387944810438
 30
0.0
  0
VERTEX
  5
401
330
3D7
100
AcDbEntity
  8
Graypants_Float36
  6
Hidden
100
AcDbVertex
100
AcDb2dVertex
 10
-0.0749052340479501
 20
-103.0416121520223
 30
0.0
  0
VERTEX
  5
402
330
3D7
100
AcDbEntity
  8
Graypants_Float36
  6
Hidden
100
AcDbVertex
100
AcDb2dVertex
 10
-0.0614082055710829
 20
-103.0439653598705
 30
0.0
  0
VERTEX
  5
403
330
3D7
100
AcDbEntity
  8
Graypants_Float36
  6
Hidden
100
AcDbVertex
100
AcDb2dVertex
 10
-0.0478379957769482
 20
-103.0458513002264
 30
0.0
  0
VERTEX
  5
404
330
3D7
100
AcDbEntity
  8
Graypants_Float36
  6
Hidden
100
AcDbVertex
100
AcDb2dVertex
 10
-0.0342107765411126
 20
-103.0472677255789
 30
0.0
  0
VERTEX
  5
405
330
3D7
100
AcDbEntity
  8
Graypants_Float36
  6
Hidden
100
AcDbVertex
100
AcDb2dVertex
 10
-0.0205427876781461
 20
-103.0482129479475
 30
0.0
  0
VERTEX
  5
406
330
3D7
100
AcDbEntity
  8
Graypants_Float36
  6
Hidden
100
AcDbVertex
100
AcDb2dVertex
 10
-0.0068503175888935
 20
-103.0486858408925
 30
0.0
  0
VERTEX
  5
407
330
3D7
100
AcDbEntity
  8
Graypants_Float36
  6
Hidden
100
AcDbVertex
100
AcDb2dVertex
 10
0.0068503161512868
 20
-103.0486858408587
 30
0.0
  0
VERTEX
  5
408
330
3D7
100
AcDbEntity
  8
Graypants_Float36
  6
Hidden
100
AcDbVertex
100
AcDb2dVertex
 10
0.0205427862382597
 20
-103.048212947846
 30
0.0
  0
VERTEX
  5
409
330
3D7
100
AcDbEntity
  8
Graypants_Float36
  6
Hidden
100
AcDbVertex
100
AcDb2dVertex
 10
0.0342107750964989
 20
-103.0472677254099
 30
0.0
  0
VERTEX
  5
40A
330
3D7
100
AcDbEntity
  8
Graypants_Float36
  6
Hidden
100
AcDbVertex
100
AcDb2dVertex
 10
0.047837994325505
 20
-103.04585129999
 30
0.0
  0
VERTEX
  5
40B
330
3D7
100
AcDbEntity
  8
Graypants_Float36
  6
Hidden
100
AcDbVertex
100
AcDb2dVertex
 10
0.0614082041102642
 20
-103.0439653595671
 30
0.0
  0
VERTEX
  5
40C
330
3D7
100
AcDbEntity
  8
Graypants_Float36
  6
Hidden
100
AcDbVertex
100
AcDb2dVertex
 10
0.0749052325754473
 20
-103.0416121516521
 30
0.0
  0
VERTEX
  5
40D
330
3D7
100
AcDbEntity
  8
Graypants_Float36
  6
Hidden
100
AcDbVertex
100
AcDb2dVertex
 10
0.0883129950572277
 20
-103.0387944806074
 30
0.0
  0
VERTEX
  5
40E
330
3D7
100
AcDbEntity
  8
Graypants_Float36
  6
Hidden
100
AcDbVertex
100
AcDb2dVertex
 10
0.1016155132715154
 20
-103.0355157043048
 30
0.0
  0
VERTEX
  5
40F
330
3D7
100
AcDbEntity
  8
Graypants_Float36
  6
Hidden
100
AcDbVertex
100
AcDb2dVertex
 10
0.1147969343558063
 20
-103.031779730124
 30
0.0
  0
VERTEX
  5
410
330
3D7
100
AcDbEntity
  8
Graypants_Float36
  6
Hidden
100
AcDbVertex
100
AcDb2dVertex
 10
0.1278415497616629
 20
-103.027591010296
 30
0.0
  0
VERTEX
  5
411
330
3D7
100
AcDbEntity
  8
Graypants_Float36
  6
Hidden
100
AcDbVertex
100
AcDb2dVertex
 10
0.140733813974232
 20
-103.0229545365974
 30
0.0
  0
VERTEX
  5
412
330
3D7
100
AcDbEntity
  8
Graypants_Float36
  6
Hidden
100
AcDbVertex
100
AcDb2dVertex
 10
0.1534583630384619
 20
-103.0178758344017
 30
0.0
  0
VERTEX
  5
413
330
3D7
100
AcDbEntity
  8
Graypants_Float36
  6
Hidden
100
AcDbVertex
100
AcDb2dVertex
 10
0.1660000328689293
 20
-103.0123609560941
 30
0.0
  0
VERTEX
  5
414
330
3D7
100
AcDbEntity
  8
Graypants_Float36
  6
Hidden
100
AcDbVertex
100
AcDb2dVertex
 10
0.1783438773205334
 20
-103.0064164738594
 30
0.0
  0
VERTEX
  5
415
330
3D7
100
AcDbEntity
  8
Graypants_Float36
  6
Hidden
100
AcDbVertex
100
AcDb2dVertex
 10
0.1904751860004226
 20
-103.0000494718495
 30
0.0
  0
VERTEX
  5
416
330
3D7
100
AcDbEntity
  8
Graypants_Float36
  6
Hidden
100
AcDbVertex
100
AcDb2dVertex
 10
0.2023795017989432
 20
-102.9932675377409
 30
0.0
  0
VERTEX
  5
417
330
3D7
100
AcDbEntity
  8
Graypants_Float36
  6
Hidden
100
AcDbVertex
100
AcDb2dVertex
 10
0.2140426381178455
 20
-102.9860787536927
 30
0.0
  0
VERTEX
  5
418
330
3D7
100
AcDbEntity
  8
Graypants_Float36
  6
Hidden
100
AcDbVertex
100
AcDb2dVertex
 10
0.2254506957770329
 20
-102.9784916867149
 30
0.0
  0
VERTEX
  5
419
330
3D7
100
AcDbEntity
  8
Graypants_Float36
  6
Hidden
100
AcDbVertex
100
AcDb2dVertex
 10
0.2365900795787515
 20
-102.9705153784585
 30
0.0
  0
VERTEX
  5
41A
330
3D7
100
AcDbEntity
  8
Graypants_Float36
  6
Hidden
100
AcDbVertex
100
AcDb2dVertex
 10
0.2474475145086766
 20
-102.9621593344407
 30
0.0
  0
VERTEX
  5
41B
330
3D7
100
AcDbEntity
  8
Graypants_Float36
  6
Hidden
100
AcDbVertex
100
AcDb2dVertex
 10
0.2580100615562929
 20
-102.9534335127173
 30
0.0
  0
VERTEX
  5
41C
330
3D7
100
AcDbEntity
  8
Graypants_Float36
  6
Hidden
100
AcDbVertex
100
AcDb2dVertex
 10
0.268265133134726
 20
-102.944348312015
 30
0.0
  0
VERTEX
  5
41D
330
3D7
100
AcDbEntity
  8
Graypants_Float36
  6
Hidden
100
AcDbVertex
100
AcDb2dVertex
 10
0.2782005080814197
 20
-102.9349145593389
 30
0.0
  0
VERTEX
  5
41E
330
3D7
100
AcDbEntity
  8
Graypants_Float36
  6
Hidden
100
AcDbVertex
100
AcDb2dVertex
 10
0.287804346222169
 20
-102.9251434970707
 30
0.0
  0
VERTEX
  5
41F
330
3D7
100
AcDbEntity
  8
Graypants_Float36
  6
Hidden
100
AcDbVertex
100
AcDb2dVertex
 10
0.2970652024815336
 20
-102.9150467695698
 30
0.0
  0
VERTEX
  5
420
330
3D7
100
AcDbEntity
  8
Graypants_Float36
  6
Hidden
100
AcDbVertex
100
AcDb2dVertex
 10
0.3059720405219916
 20
-102.9046364092973
 30
0.0
  0
VERTEX
  5
421
330
3D7
100
AcDbEntity
  8
Graypants_Float36
  6
Hidden
100
AcDbVertex
100
AcDb2dVertex
 10
0.3145142458964444
 20
-102.8939248224763
 30
0.0
  0
VERTEX
  5
422
330
3D7
100
AcDbEntity
  8
Graypants_Float36
  6
Hidden
100
AcDbVertex
100
AcDb2dVertex
 10
0.3226816386971442
 20
-102.8829247743073
 30
0.0
  0
VERTEX
  5
423
330
3D7
100
AcDbEntity
  8
Graypants_Float36
  6
Hidden
100
AcDbVertex
100
AcDb2dVertex
 10
0.3304644856878489
 20
-102.8716493737555
 30
0.0
  0
VERTEX
  5
424
330
3D7
100
AcDbEntity
  8
Graypants_Float36
  6
Hidden
100
AcDbVertex
100
AcDb2dVertex
 10
0.3378535119026222
 20
-102.8601120579289
 30
0.0
  0
VERTEX
  5
425
330
3D7
100
AcDbEntity
  8
Graypants_Float36
  6
Hidden
100
AcDbVertex
100
AcDb2dVertex
 10
0.3448399116992594
 20
-102.848326576065
 30
0.0
  0
VERTEX
  5
426
330
3D7
100
AcDbEntity
  8
Graypants_Float36
  6
Hidden
100
AcDbVertex
100
AcDb2dVertex
 10
0.3514153592530156
 20
-102.8363069731452
 30
0.0
  0
VERTEX
  5
427
330
3D7
100
AcDbEntity
  8
Graypants_Float36
  6
Hidden
100
AcDbVertex
100
AcDb2dVertex
 10
0.3575720184788636
 20
-102.8240675731574
 30
0.0
  0
VERTEX
  5
428
330
3D7
100
AcDbEntity
  8
Graypants_Float36
  6
Hidden
100
AcDbVertex
100
AcDb2dVertex
 10
0.3633025523695312
 20
-102.8116229620261
 30
0.0
  0
VERTEX
  5
429
330
3D7
100
AcDbEntity
  8
Graypants_Float36
  6
Hidden
100
AcDbVertex
100
AcDb2dVertex
 10
0.3686001317395595
 20
-102.7989879702295
 30
0.0
  0
VERTEX
  5
42A
330
3D7
100
AcDbEntity
  8
Graypants_Float36
  6
Hidden
100
AcDbVertex
100
AcDb2dVertex
 10
0.3734584433633927
 20
-102.7861776551261
 30
0.0
  0
VERTEX
  5
42B
330
3D7
100
AcDbEntity
  8
Graypants_Float36
  6
Hidden
100
AcDbVertex
100
AcDb2dVertex
 10
0.3778716974993195
 20
-102.7732072830106
 30
0.0
  0
VERTEX
  5
42C
330
3D7
100
AcDbEntity
  8
Graypants_Float36
  6
Hidden
100
AcDbVertex
100
AcDb2dVertex
 10
0.381834634788926
 20
-102.7600923109205
 30
0.0
  0
VERTEX
  5
42D
330
3D7
100
AcDbEntity
  8
Graypants_Float36
  6
Hidden
100
AcDbVertex
100
AcDb2dVertex
 10
0.3853425325249387
 20
-102.7468483682161
 30
0.0
  0
VERTEX
  5
42E
330
3D7
100
AcDbEntity
  8
Graypants_Float36
  6
Hidden
100
AcDbVertex
100
AcDb2dVertex
 10
0.3883912102792969
 20
-102.7334912379543
 30
0.0
  0
VERTEX
  5
42F
330
3D7
100
AcDbEntity
  8
Graypants_Float36
  6
Hidden
100
AcDbVertex
100
AcDb2dVertex
 10
0.3909770348851465
 20
-102.7200368380795
 30
0.0
  0
VERTEX
  5
430
330
3D7
100
AcDbEntity
  8
Graypants_Float36
  6
Hidden
100
AcDbVertex
100
AcDb2dVertex
 10
0.3930969247663857
 20
-102.7065012024545
 30
0.0
  0
VERTEX
  5
431
330
3D7
100
AcDbEntity
  8
Graypants_Float36
  6
Hidden
100
AcDbVertex
100
AcDb2dVertex
 10
0.3947483536102088
 20
-102.6929004617519
 30
0.0
  0
VERTEX
  5
432
330
3D7
100
AcDbEntity
  8
Graypants_Float36
  6
Hidden
100
AcDbVertex
100
AcDb2dVertex
 10
0.3959293533776284
 20
-102.6792508242317
 30
0.0
  0
VERTEX
  5
433
330
3D7
100
AcDbEntity
  8
Graypants_Float36
  6
Hidden
100
AcDbVertex
100
AcDb2dVertex
 10
0.396638516648895
 20
-102.665568556425
 30
0.0
  0
VERTEX
  5
434
330
3D7
100
AcDbEntity
  8
Graypants_Float36
  6
Hidden
100
AcDbVertex
100
AcDb2dVertex
 10
0.3968749983007456
 20
-102.6518699637486
 30
0.0
  0
VERTEX
  5
435
330
3D7
100
AcDbEntity
  8
Graypants_Float36
  6
Hidden
100
AcDbVertex
100
AcDb2dVertex
 10
0.3968752217895144
 20
-57.14862194364864
 30
0.0
  0
SEQEND
  5
436
330
3D7
100
AcDbEntity
  8
Graypants_Float36
  6
Hidden
  0
POLYLINE
  5
437
330
1F
100
AcDbEntity
  8
Graypants_Float36
  6
Hidden
100
AcDb2dPolyline
 66
     1
 10
0.0
 20
0.0
 30
0.0
  0
VERTEX
  5
438
330
437
100
AcDbEntity
  8
Graypants_Float36
  6
Hidden
100
AcDbVertex
100
AcDb2dVertex
 10
-49.29372046171898
 20
28.91801554467925
 30
0.0
  0
VERTEX
  5
439
330
437
100
AcDbEntity
  8
Graypants_Float36
  6
Hidden
100
AcDbVertex
100
AcDb2dVertex
 10
-88.70068909883707
 20
51.66963975367806
 30
0.0
  0
VERTEX
  5
43A
330
437
100
AcDbEntity
  8
Graypants_Float36
  6
Hidden
100
AcDbVertex
100
AcDb2dVertex
 10
-88.71267066894964
 20
51.67628425083898
 30
0.0
  0
VERTEX
  5
43B
330
437
100
AcDbEntity
  8
Graypants_Float36
  6
Hidden
100
AcDbVertex
100
AcDb2dVertex
 10
-88.72487444211808
 20
51.68251123127369
 30
0.0
  0
VERTEX
  5
43C
330
437
100
AcDbEntity
  8
Graypants_Float36
  6
Hidden
100
AcDbVertex
100
AcDb2dVertex
 10
-88.73728587487537
 20
51.688313274172
 30
0.0
  0
VERTEX
  5
43D
330
437
100
AcDbEntity
  8
Graypants_Float36
  6
Hidden
100
AcDbVertex
100
AcDb2dVertex
 10
-88.74989017628255
 20
51.69368346512972
 30
0.0
  0
VERTEX
  5
43E
330
437
100
AcDbEntity
  8
Graypants_Float36
  6
Hidden
100
AcDbVertex
100
AcDb2dVertex
 10
-88.76267232555522
 20
51.69861540438868
 30
0.0
  0
VERTEX
  5
43F
330
437
100
AcDbEntity
  8
Graypants_Float36
  6
Hidden
100
AcDbVertex
100
AcDb2dVertex
 10
-88.77561708996453
 20
51.7031032144637
 30
0.0
  0
VERTEX
  5
440
330
437
100
AcDbEntity
  8
Graypants_Float36
  6
Hidden
100
AcDbVertex
100
AcDb2dVertex
 10
-88.78870904299016
 20
51.70714154714671
 30
0.0
  0
VERTEX
  5
441
330
437
100
AcDbEntity
  8
Graypants_Float36
  6
Hidden
100
AcDbVertex
100
AcDb2dVertex
 10
-88.80193258270405
 20
51.71072558988028
 30
0.0
  0
VERTEX
  5
442
330
437
100
AcDbEntity
  8
Graypants_Float36
  6
Hidden
100
AcDbVertex
100
AcDb2dVertex
 10
-88.8152719503642
 20
51.71385107149298
 30
0.0
  0
VERTEX
  5
443
330
437
100
AcDbEntity
  8
Graypants_Float36
  6
Hidden
100
AcDbVertex
100
AcDb2dVertex
 10
-88.82871124919382
 20
51.71651426728924
 30
0.0
  0
VERTEX
  5
444
330
437
100
AcDbEntity
  8
Graypants_Float36
  6
Hidden
100
AcDbVertex
100
AcDb2dVertex
 10
-88.84223446332668
 20
51.71871200348836
 30
0.0
  0
VERTEX
  5
445
330
437
100
AcDbEntity
  8
Graypants_Float36
  6
Hidden
100
AcDbVertex
100
AcDb2dVertex
 10
-88.85582547689278
 20
51.72044166100653
 30
0.0
  0
VERTEX
  5
446
330
437
100
AcDbEntity
  8
Graypants_Float36
  6
Hidden
100
AcDbVertex
100
AcDb2dVertex
 10
-88.8694680932243
 20
51.7217011785782
 30
0.0
  0
VERTEX
  5
447
330
437
100
AcDbEntity
  8
Graypants_Float36
  6
Hidden
100
AcDbVertex
100
AcDb2dVertex
 10
-88.88314605415755
 20
51.72248905521246
 30
0.0
  0
VERTEX
  5
448
330
437
100
AcDbEntity
  8
Graypants_Float36
  6
Hidden
100
AcDbVertex
100
AcDb2dVertex
 10
-88.89684305940796
 20
51.72280435198185
 30
0.0
  0
VERTEX
  5
449
330
437
100
AcDbEntity
  8
Graypants_Float36
  6
Hidden
100
AcDbVertex
100
AcDb2dVertex
 10
-88.91054278599546
 20
51.72264669314124
 30
0.0
  0
VERTEX
  5
44A
330
437
100
AcDbEntity
  8
Graypants_Float36
  6
Hidden
100
AcDbVertex
100
AcDb2dVertex
 10
-88.92422890769694
 20
51.72201626657566
 30
0.0
  0
VERTEX
  5
44B
330
437
100
AcDbEntity
  8
Graypants_Float36
  6
Hidden
100
AcDbVertex
100
AcDb2dVertex
 10
-88.93788511450255
 20
51.72091382357636
 30
0.0
  0
VERTEX
  5
44C
330
437
100
AcDbEntity
  8
Graypants_Float36
  6
Hidden
100
AcDbVertex
100
AcDb2dVertex
 10
-88.95149513205243
 20
51.7193406779455
 30
0.0
  0
VERTEX
  5
44D
330
437
100
AcDbEntity
  8
Graypants_Float36
  6
Hidden
100
AcDbVertex
100
AcDb2dVertex
 10
-88.96504274103137
 20
51.71729870443045
 30
0.0
  0
VERTEX
  5
44E
330
437
100
AcDbEntity
  8
Graypants_Float36
  6
Hidden
100
AcDbVertex
100
AcDb2dVertex
 10
-88.97851179649774
 20
51.71479033648968
 30
0.0
  0
VERTEX
  5
44F
330
437
100
AcDbEntity
  8
Graypants_Float36
  6
Hidden
100
AcDbVertex
100
AcDb2dVertex
 10
-88.9918862471236
 20
51.71181856339263
 30
0.0
  0
VERTEX
  5
450
330
437
100
AcDbEntity
  8
Graypants_Float36
  6
Hidden
100
AcDbVertex
100
AcDb2dVertex
 10
-89.00515015432325
 20
51.70838692665751
 30
0.0
  0
VERTEX
  5
451
330
437
100
AcDbEntity
  8
Graypants_Float36
  6
Hidden
100
AcDbVertex
100
AcDb2dVertex
 10
-89.0182877112478
 20
51.70449951583067
 30
0.0
  0
VERTEX
  5
452
330
437
100
AcDbEntity
  8
Graypants_Float36
  6
Hidden
100
AcDbVertex
100
AcDb2dVertex
 10
-89.03128326162235
 20
51.70016096361307
 30
0.0
  0
VERTEX
  5
453
330
437
100
AcDbEntity
  8
Graypants_Float36
  6
Hidden
100
AcDbVertex
100
AcDb2dVertex
 10
-89.0441213184039
 20
51.69537644033938
 30
0.0
  0
VERTEX
  5
454
330
437
100
AcDbEntity
  8
Graypants_Float36
  6
Hidden
100
AcDbVertex
100
AcDb2dVertex
 10
-89.05678658223754
 20
51.69015164781641
 30
0.0
  0
VERTEX
  5
455
330
437
100
AcDbEntity
  8
Graypants_Float36
  6
Hidden
100
AcDbVertex
100
AcDb2dVertex
 10
-89.06926395968894
 20
51.68449281252819
 30
0.0
  0
VERTEX
  5
456
330
437
100
AcDbEntity
  8
Graypants_Float36
  6
Hidden
100
AcDbVertex
100
AcDb2dVertex
 10
-89.0815385812315
 20
51.67840667821572
 30
0.0
  0
VERTEX
  5
457
330
437
100
AcDbEntity
  8
Graypants_Float36
  6
Hidden
100
AcDbVertex
100
AcDb2dVertex
 10
-89.09359581896675
 20
51.67190049784026
 30
0.0
  0
VERTEX
  5
458
330
437
100
AcDbEntity
  8
Graypants_Float36
  6
Hidden
100
AcDbVertex
100
AcDb2dVertex
 10
-89.1054213040566
 20
51.66498202493996
 30
0.0
  0
VERTEX
  5
459
330
437
100
AcDbEntity
  8
Graypants_Float36
  6
Hidden
100
AcDbVertex
100
AcDb2dVertex
 10
-89.11700094384693
 20
51.65765950438973
 30
0.0
  0
VERTEX
  5
45A
330
437
100
AcDbEntity
  8
Graypants_Float36
  6
Hidden
100
AcDbVertex
100
AcDb2dVertex
 10
-89.12832093866214
 20
51.64994166257573
 30
0.0
  0
VERTEX
  5
45B
330
437
100
AcDbEntity
  8
Graypants_Float36
  6
Hidden
100
AcDbVertex
100
AcDb2dVertex
 10
-89.13936779825045
 20
51.64183769699591
 30
0.0
  0
VERTEX
  5
45C
330
437
100
AcDbEntity
  8
Graypants_Float36
  6
Hidden
100
AcDbVertex
100
AcDb2dVertex
 10
-89.15012835786055
 20
51.63335726529918
 30
0.0
  0
VERTEX
  5
45D
330
437
100
AcDbEntity
  8
Graypants_Float36
  6
Hidden
100
AcDbVertex
100
AcDb2dVertex
 10
-89.16058979393
 20
51.62451047377642
 30
0.0
  0
VERTEX
  5
45E
330
437
100
AcDbEntity
  8
Graypants_Float36
  6
Hidden
100
AcDbVertex
100
AcDb2dVertex
 10
-89.17073963936774
 20
51.61530786531626
 30
0.0
  0
VERTEX
  5
45F
330
437
100
AcDbEntity
  8
Graypants_Float36
  6
Hidden
100
AcDbVertex
100
AcDb2dVertex
 10
-89.18056579841125
 20
51.60576040684106
 30
0.0
  0
VERTEX
  5
460
330
437
100
AcDbEntity
  8
Graypants_Float36
  6
Hidden
100
AcDbVertex
100
AcDb2dVertex
 10
-89.19005656104092
 20
51.59587947623764
 30
0.0
  0
VERTEX
  5
461
330
437
100
AcDbEntity
  8
Graypants_Float36
  6
Hidden
100
AcDbVertex
100
AcDb2dVertex
 10
-89.1992006169356
 20
51.58567684879773
 30
0.0
  0
VERTEX
  5
462
330
437
100
AcDbEntity
  8
Graypants_Float36
  6
Hidden
100
AcDbVertex
100
AcDb2dVertex
 10
-89.20798706895106
 20
51.57516468318526
 30
0.0
  0
VERTEX
  5
463
330
437
100
AcDbEntity
  8
Graypants_Float36
  6
Hidden
100
AcDbVertex
100
AcDb2dVertex
 10
-89.21640544610632
 20
51.56435550694673
 30
0.0
  0
VERTEX
  5
464
330
437
100
AcDbEntity
  8
Graypants_Float36
  6
Hidden
100
AcDbVertex
100
AcDb2dVertex
 10
-89.22444571606215
 20
51.55326220158185
 30
0.0
  0
VERTEX
  5
465
330
437
100
AcDbEntity
  8
Graypants_Float36
  6
Hidden
100
AcDbVertex
100
AcDb2dVertex
 10
-89.23209829707699
 20
51.54189798719214
 30
0.0
  0
VERTEX
  5
466
330
437
100
AcDbEntity
  8
Graypants_Float36
  6
Hidden
100
AcDbVertex
100
AcDb2dVertex
 10
-89.23935406942529
 20
51.53027640672682
 30
0.0
  0
VERTEX
  5
467
330
437
100
AcDbEntity
  8
Graypants_Float36
  6
Hidden
100
AcDbVertex
100
AcDb2dVertex
 10
-89.24620438626607
 20
51.51841130984295
 30
0.0
  0
VERTEX
  5
468
330
437
100
AcDbEntity
  8
Graypants_Float36
  6
Hidden
100
AcDbVertex
100
AcDb2dVertex
 10
-89.25264108394724
 20
51.50631683640077
 30
0.0
  0
VERTEX
  5
469
330
437
100
AcDbEntity
  8
Graypants_Float36
  6
Hidden
100
AcDbVertex
100
AcDb2dVertex
 10
-89.2586564917345
 20
51.49400739961287
 30
0.0
  0
VERTEX
  5
46A
330
437
100
AcDbEntity
  8
Graypants_Float36
  6
Hidden
100
AcDbVertex
100
AcDb2dVertex
 10
-89.26424344095274
 20
51.48149766886769
 30
0.0
  0
VERTEX
  5
46B
330
437
100
AcDbEntity
  8
Graypants_Float36
  6
Hidden
100
AcDbVertex
100
AcDb2dVertex
 10
-89.26939527352891
 20
51.46880255224787
 30
0.0
  0
VERTEX
  5
46C
330
437
100
AcDbEntity
  8
Graypants_Float36
  6
Hidden
100
AcDbVertex
100
AcDb2dVertex
 10
-89.27410584992676
 20
51.45593717876393
 30
0.0
  0
VERTEX
  5
46D
330
437
100
AcDbEntity
  8
Graypants_Float36
  6
Hidden
100
AcDbVertex
100
AcDb2dVertex
 10
-89.2783695564634
 20
51.44291688032444
 30
0.0
  0
VERTEX
  5
46E
330
437
100
AcDbEntity
  8
Graypants_Float36
  6
Hidden
100
AcDbVertex
100
AcDb2dVertex
 10
-89.28218131199914
 20
51.42975717346525
 30
0.0
  0
VERTEX
  5
46F
330
437
100
AcDbEntity
  8
Graypants_Float36
  6
Hidden
100
AcDbVertex
100
AcDb2dVertex
 10
-89.28553657399281
 20
51.41647374085788
 30
0.0
  0
VERTEX
  5
470
330
437
100
AcDbEntity
  8
Graypants_Float36
  6
Hidden
100
AcDbVertex
100
AcDb2dVertex
 10
-89.28843134391538
 20
51.40308241261982
 30
0.0
  0
VERTEX
  5
471
330
437
100
AcDbEntity
  8
Graypants_Float36
  6
Hidden
100
AcDbVertex
100
AcDb2dVertex
 10
-89.29086217201471
 20
51.38959914745016
 30
0.0
  0
VERTEX
  5
472
330
437
100
AcDbEntity
  8
Graypants_Float36
  6
Hidden
100
AcDbVertex
100
AcDb2dVertex
 10
-89.29282616142706
 20
51.37604001361097
 30
0.0
  0
VERTEX
  5
473
330
437
100
AcDbEntity
  8
Graypants_Float36
  6
Hidden
100
AcDbVertex
100
AcDb2dVertex
 10
-89.29432097162913
 20
51.3624211697781
 30
0.0
  0
VERTEX
  5
474
330
437
100
AcDbEntity
  8
Graypants_Float36
  6
Hidden
100
AcDbVertex
100
AcDb2dVertex
 10
-89.29534482122733
 20
51.34875884578531
 30
0.0
  0
VERTEX
  5
475
330
437
100
AcDbEntity
  8
Graypants_Float36
  6
Hidden
100
AcDbVertex
100
AcDb2dVertex
 10
-89.29589649008072
 20
51.33506932328242
 30
0.0
  0
VERTEX
  5
476
330
437
100
AcDbEntity
  8
Graypants_Float36
  6
Hidden
100
AcDbVertex
100
AcDb2dVertex
 10
-89.29597532075516
 20
51.32136891633206
 30
0.0
  0
VERTEX
  5
477
330
437
100
AcDbEntity
  8
Graypants_Float36
  6
Hidden
100
AcDbVertex
100
AcDb2dVertex
 10
-89.2955812193066
 20
51.3076739519679
 30
0.0
  0
VERTEX
  5
478
330
437
100
AcDbEntity
  8
Graypants_Float36
  6
Hidden
100
AcDbVertex
100
AcDb2dVertex
 10
-89.29471465539321
 20
51.29400075073831
 30
0.0
  0
VERTEX
  5
479
330
437
100
AcDbEntity
  8
Graypants_Float36
  6
Hidden
100
AcDbVertex
100
AcDb2dVertex
 10
-89.29337666171554
 20
51.28036560725528
 30
0.0
  0
VERTEX
  5
47A
330
437
100
AcDbEntity
  8
Graypants_Float36
  6
Hidden
100
AcDbVertex
100
AcDb2dVertex
 10
-89.291568832786
 20
51.26678477077728
 30
0.0
  0
VERTEX
  5
47B
330
437
100
AcDbEntity
  8
Graypants_Float36
  6
Hidden
100
AcDbVertex
100
AcDb2dVertex
 10
-89.28929332302847
 20
51.25327442584359
 30
0.0
  0
VERTEX
  5
47C
330
437
100
AcDbEntity
  8
Graypants_Float36
  6
Hidden
100
AcDbVertex
100
AcDb2dVertex
 10
-89.28655284421095
 20
51.23985067298786
 30
0.0
  0
VERTEX
  5
47D
330
437
100
AcDbEntity
  8
Graypants_Float36
  6
Hidden
100
AcDbVertex
100
AcDb2dVertex
 10
-89.28335066221383
 20
51.22652950954988
 30
0.0
  0
VERTEX
  5
47E
330
437
100
AcDbEntity
  8
Graypants_Float36
  6
Hidden
100
AcDbVertex
100
AcDb2dVertex
 10
-89.27969059313793
 20
51.21332681061203
 30
0.0
  0
VERTEX
  5
47F
330
437
100
AcDbEntity
  8
Graypants_Float36
  6
Hidden
100
AcDbVertex
100
AcDb2dVertex
 10
-89.27557699875673
 20
51.20025831008017
 30
0.0
  0
VERTEX
  5
480
330
437
100
AcDbEntity
  8
Graypants_Float36
  6
Hidden
100
AcDbVertex
100
AcDb2dVertex
 10
-89.27101478131847
 20
51.18733958193353
 30
0.0
  0
VERTEX
  5
481
330
437
100
AcDbEntity
  8
Graypants_Float36
  6
Hidden
100
AcDbVertex
100
AcDb2dVertex
 10
-89.26600937770384
 20
51.17458602166439
 30
0.0
  0
VERTEX
  5
482
330
437
100
AcDbEntity
  8
Graypants_Float36
  6
Hidden
100
AcDbVertex
100
AcDb2dVertex
 10
-89.26056675294699
 20
51.16201282793181
 30
0.0
  0
VERTEX
  5
483
330
437
100
AcDbEntity
  8
Graypants_Float36
  6
Hidden
100
AcDbVertex
100
AcDb2dVertex
 10
-89.25469339312664
 20
51.1496349844482
 30
0.0
  0
VERTEX
  5
484
330
437
100
AcDbEntity
  8
Graypants_Float36
  6
Hidden
100
AcDbVertex
100
AcDb2dVertex
 10
-89.24839629763675
 20
51.13746724212371
 30
0.0
  0
VERTEX
  5
485
330
437
100
AcDbEntity
  8
Graypants_Float36
  6
Hidden
100
AcDbVertex
100
AcDb2dVertex
 10
-89.2416829708451
 20
51.12552410148695
 30
0.0
  0
VERTEX
  5
486
330
437
100
AcDbEntity
  8
Graypants_Float36
  6
Hidden
100
AcDbVertex
100
AcDb2dVertex
 10
-89.23456141315
 20
51.11381979540416
 30
0.0
  0
VERTEX
  5
487
330
437
100
AcDbEntity
  8
Graypants_Float36
  6
Hidden
100
AcDbVertex
100
AcDb2dVertex
 10
-89.22704011144643
 20
51.10236827211825
 30
0.0
  0
VERTEX
  5
488
330
437
100
AcDbEntity
  8
Graypants_Float36
  6
Hidden
100
AcDbVertex
100
AcDb2dVertex
 10
-89.21912802901186
 20
51.09118317862605
 30
0.0
  0
VERTEX
  5
489
330
437
100
AcDbEntity
  8
Graypants_Float36
  6
Hidden
100
AcDbVertex
100
AcDb2dVertex
 10
-89.21083459482433
 20
51.0802778444147
 30
0.0
  0
VERTEX
  5
48A
330
437
100
AcDbEntity
  8
Graypants_Float36
  6
Hidden
100
AcDbVertex
100
AcDb2dVertex
 10
-89.20216969232628
 20
51.06966526557729
 30
0.0
  0
VERTEX
  5
48B
330
437
100
AcDbEntity
  8
Graypants_Float36
  6
Hidden
100
AcDbVertex
100
AcDb2dVertex
 10
-89.19314364764564
 20
51.05935808932445
 30
0.0
  0
VERTEX
  5
48C
330
437
100
AcDbEntity
  8
Graypants_Float36
  6
Hidden
100
AcDbVertex
100
AcDb2dVertex
 10
-89.18376721729054
 20
51.04936859891303
 30
0.0
  0
VERTEX
  5
48D
330
437
100
AcDbEntity
  8
Graypants_Float36
  6
Hidden
100
AcDbVertex
100
AcDb2dVertex
 10
-89.17405157533027
 20
51.03970869900756
 30
0.0
  0
VERTEX
  5
48E
330
437
100
AcDbEntity
  8
Graypants_Float36
  6
Hidden
100
AcDbVertex
100
AcDb2dVertex
 10
-89.16400830007905
 20
51.03038990149343
 30
0.0
  0
VERTEX
  5
48F
330
437
100
AcDbEntity
  8
Graypants_Float36
  6
Hidden
100
AcDbVertex
100
AcDb2dVertex
 10
-89.1536493602977
 20
51.02142331175762
 30
0.0
  0
VERTEX
  5
490
330
437
100
AcDbEntity
  8
Graypants_Float36
  6
Hidden
100
AcDbVertex
100
AcDb2dVertex
 10
-89.14298710093071
 20
51.01281961545475
 30
0.0
  0
VERTEX
  5
491
330
437
100
AcDbEntity
  8
Graypants_Float36
  6
Hidden
100
AcDbVertex
100
AcDb2dVertex
 10
-89.13203422839393
 20
51.00458906577219
 30
0.0
  0
VERTEX
  5
492
330
437
100
AcDbEntity
  8
Graypants_Float36
  6
Hidden
100
AcDbVertex
100
AcDb2dVertex
 10
-89.12080379543269
 20
50.99674147121163
 30
0.0
  0
VERTEX
  5
493
330
437
100
AcDbEntity
  8
Graypants_Float36
  6
Hidden
100
AcDbVertex
100
AcDb2dVertex
 10
-89.1093091855663
 20
50.9892861838999
 30
0.0
  0
VERTEX
  5
494
330
437
100
AcDbEntity
  8
Graypants_Float36
  6
Hidden
100
AcDbVertex
100
AcDb2dVertex
 10
-89.09756409713842
 20
50.9822320884437
 30
0.0
  0
VERTEX
  5
495
330
437
100
AcDbEntity
  8
Graypants_Float36
  6
Hidden
100
AcDbVertex
100
AcDb2dVertex
 10
-49.6905954718884
 20
28.23060788664571
 30
0.0
  0
SEQEND
  5
496
330
437
100
AcDbEntity
  8
Graypants_Float36
  6
Hidden
  0
ENDSEC
  0
SECTION
  2
OBJECTS
  0
DICTIONARY
  5
C
330
0
100
AcDbDictionary
281
     1
  3
ACAD_DETAILVIEWSTYLE
350
4D2
  3
ACAD_GROUP
350
D
  3
ACAD_LAYOUT
350
1A
  3
ACAD_MATERIAL
350
43
  3
ACAD_MLEADERSTYLE
350
6B
  3
ACAD_MLINESTYLE
350
17
  3
ACAD_PLOTSETTINGS
350
19
  3
ACAD_PLOTSTYLENAME
350
E
  3
ACAD_SCALELIST
350
47
  3
ACAD_SECTIONVIEWSTYLE
350
4D3
  3
ACAD_TABLESTYLE
350
69
  3
ACAD_VISUALSTYLE
350
2A
  3
AcDbVariableDictionary
350
497
  3
ACDB_RECOMPOSE_DATA
350
4CF
  0
SUN
  5
6D
330
29
100
AcDbSun
 90
        1
290
     0
 63
     7
421
 16777215
 40
1.0
291
     1
 91
  2455826
 92
 54000000
292
     0
 70
     2
 71
   256
280
     1
  0
DICTIONARY
  5
4D2
102
{ACAD_REACTORS
330
C
102
}
330
C
100
AcDbDictionary
281
     1
  0
DICTIONARY
  5
D
102
{ACAD_REACTORS
330
C
102
}
330
C
100
AcDbDictionary
281
     1
  0
DICTIONARY
  5
1A
102
{ACAD_REACTORS
330
C
102
}
330
C
100
AcDbDictionary
281
     1
  3
Layout1
350
1E
  3
Layout2
350
26
  3
Model
350
22
  0
DICTIONARY
  5
43
102
{ACAD_REACTORS
330
C
102
}
330
C
100
AcDbDictionary
281
     1
  3
ByBlock
350
45
  3
ByLayer
350
44
  3
Global
350
46
  0
DICTIONARY
  5
6B
102
{ACAD_REACTORS
330
C
102
}
330
C
100
AcDbDictionary
281
     1
  3
Standard
350
6C
  0
DICTIONARY
  5
17
102
{ACAD_REACTORS
330
C
102
}
330
C
100
AcDbDictionary
281
     1
  3
Standard
350
18
  0
DICTIONARY
  5
19
102
{ACAD_REACTORS
330
C
102
}
330
C
100
AcDbDictionary
281
     1
  0
ACDBDICTIONARYWDFLT
  5
E
102
{ACAD_REACTORS
330
C
102
}
330
C
100
AcDbDictionary
281
     1
  3
Normal
350
F
100
AcDbDictionaryWithDefault
340
F
  0
DICTIONARY
  5
47
102
{ACAD_REACTORS
330
C
102
}
330
C
100
AcDbDictionary
281
     1
  3
A0
350
48
  3
A1
350
49
  3
A2
350
4A
  3
A3
350
4B
  3
A4
350
4C
  3
A5
350
4D
  3
A6
350
4E
  3
A7
350
4F
  3
A8
350
50
  3
A9
350
51
  3
B0
350
52
  3
B1
350
53
  3
B2
350
54
  3
B3
350
55
  3
B4
350
56
  3
B5
350
57
  3
B6
350
58
  3
B7
350
59
  3
B8
350
5A
  3
B9
350
5B
  3
C0
350
5C
  3
C1
350
5D
  3
C2
350
5E
  3
C3
350
5F
  3
C4
350
60
  3
C5
350
61
  3
C6
350
62
  3
C7
350
63
  3
C8
350
64
  3
C9
350
65
  3
D0
350
66
  3
D1
350
67
  3
D2
350
68
  0
DICTIONARY
  5
4D3
102
{ACAD_REACTORS
330
C
102
}
330
C
100
AcDbDictionary
281
     1
  0
DICTIONARY
  5
69
102
{ACAD_REACTORS
330
C
102
}
330
C
100
AcDbDictionary
281
     1
  3
Standard
350
6A
  0
DICTIONARY
  5
2A
102
{ACAD_REACTORS
330
C
102
}
330
C
100
AcDbDictionary
281
     1
  3
2dWireframe
350
2F
  3
Basic
350
32
  3
Brighten
350
36
  3
ColorChange
350
3A
  3
Conceptual
350
34
  3
Dim
350
35
  3
EdgeColorOff
350
3D
  3
Facepattern
350
39
  3
Flat
350
2B
  3
FlatWithEdges
350
2C
  3
Gouraud
350
2D
  3
GouraudWithEdges
350
2E
  3
Hidden
350
31
  3
JitterOff
350
3B
  3
Linepattern
350
38
  3
OverhangOff
350
3C
  3
Realistic
350
33
  3
Shaded
350
42
  3
Shaded with edges
350
41
  3
Shades of Gray
350
3E
  3
Sketchy
350
3F
  3
Thicken
350
37
  3
Wireframe
350
30
  3
X-Ray
350
40
  0
DICTIONARY
  5
497
102
{ACAD_REACTORS
330
C
102
}
330
C
100
AcDbDictionary
281
     1
  3
CANNOSCALE
350
498
  3
CMLEADERSTYLE
350
4D1
  3
CTABLESTYLE
350
4D0
  3
XCLIPFRAME
350
499
  0
XRECORD
  5
4CF
102
{ACAD_REACTORS
330
C
102
}
330
C
100
AcDbXrecord
280
     1
 90
        1
330
6A
  0
LAYOUT
  5
1E
102
{ACAD_REACTORS
330
1A
102
}
330
1A
100
AcDbPlotSettings
  1

  2
none_device
  4

  6

 40
0.0
 41
0.0
 42
0.0
 43
0.0
 44
0.0
 45
0.0
 46
0.0
 47
0.0
 48
0.0
 49
0.0
140
0.0
141
0.0
142
1.0
143
1.0
 70
   688
 72
     0
 73
     0
 74
     5
  7

 75
    16
 76
     0
 77
     2
 78
   300
147
1.0
148
0.0
149
0.0
100
AcDbLayout
  1
Layout1
 70
     1
 71
     1
 10
0.0
 20
0.0
 11
12.0
 21
9.0
 12
0.0
 22
0.0
 32
0.0
 14
1.000000000000000E+20
 24
1.000000000000000E+20
 34
1.000000000000000E+20
 15
-1.000000000000000E+20
 25
-1.000000000000000E+20
 35
-1.000000000000000E+20
146
0.0
 13
0.0
 23
0.0
 33
0.0
 16
1.0
 26
0.0
 36
0.0
 17
0.0
 27
1.0
 37
0.0
 76
     0
330
1B
  0
LAYOUT
  5
26
102
{ACAD_REACTORS
330
1A
102
}
330
1A
100
AcDbPlotSettings
  1

  2
none_device
  4

  6

 40
0.0
 41
0.0
 42
0.0
 43
0.0
 44
0.0
 45
0.0
 46
0.0
 47
0.0
 48
0.0
 49
0.0
140
0.0
141
0.0
142
1.0
143
1.0
 70
   688
 72
     0
 73
     0
 74
     5
  7

 75
    16
 76
     0
 77
     2
 78
   300
147
1.0
148
0.0
149
0.0
100
AcDbLayout
  1
Layout2
 70
     1
 71
     2
 10
0.0
 20
0.0
 11
0.0
 21
0.0
 12
0.0
 22
0.0
 32
0.0
 14
0.0
 24
0.0
 34
0.0
 15
0.0
 25
0.0
 35
0.0
146
0.0
 13
0.0
 23
0.0
 33
0.0
 16
1.0
 26
0.0
 36
0.0
 17
0.0
 27
1.0
 37
0.0
 76
     0
330
23
  0
LAYOUT
  5
22
102
{ACAD_REACTORS
330
1A
102
}
330
1A
100
AcDbPlotSettings
  1

  2
none_device
  4
Letter_(8.50_x_11.00_Inches)
  6

 40
6.35
 41
6.35
 42
6.35000508
 43
6.35000508
 44
215.9
 45
279.4
 46
0.0
 47
0.0
 48
0.0
 49
0.0
140
0.0
141
0.0
142
1.0
143
1.0
 70
  1712
 72
     0
 73
     0
 74
     0
  7

 75
     0
 76
     0
 77
     2
 78
   300
147
1.0
148
0.0
149
0.0
100
AcDbLayout
  1
Model
 70
     1
 71
     0
 10
0.0
 20
0.0
 11
12.0
 21
9.0
 12
0.0
 22
0.0
 32
0.0
 14
1.000000000000000E+20
 24
1.000000000000000E+20
 34
1.000000000000000E+20
 15
-1.000000000000000E+20
 25
-1.000000000000000E+20
 35
-1.000000000000000E+20
146
0.0
 13
0.0
 23
0.0
 33
0.0
 16
1.0
 26
0.0
 36
0.0
 17
0.0
 27
1.0
 37
0.0
 76
     0
330
1F
331
29
  0
MATERIAL
  5
45
102
{ACAD_REACTORS
330
43
102
}
330
43
100
AcDbMaterial
  1
ByBlock
 72
     1
 94
      127
  0
MATERIAL
  5
44
102
{ACAD_REACTORS
330
43
102
}
330
43
100
AcDbMaterial
  1
ByLayer
 72
     1
 94
      127
  0
MATERIAL
  5
46
102
{ACAD_REACTORS
330
43
102
}
330
43
100
AcDbMaterial
  1
Global
 72
     1
 94
      127
  0
MLEADERSTYLE
  5
6C
102
{ACAD_REACTORS
330
6B
102
}
102
{ACAD_XDICTIONARY
360
4CD
102
}
330
6B
100
AcDbMLeaderStyle
170
     2
171
     1
172
     0
 90
        2
 40
0.0
 41
0.0
173
     1
 91
-1056964608
340
14
 92
       -2
290
     1
 42
0.09
291
     1
 43
0.36
  3
Standard
341
0
 44
0.18
300

342
11
174
     1
178
     6
175
     1
176
     0
 93
-1056964608
 45
0.18
292
     0
297
     0
 46
0.18
343
0
 94
-1056964608
 47
1.0
 49
1.0
140
1.0
293
     1
141
0.0
294
     1
177
     0
142
1.0
295
     0
296
     0
143
0.125
1001
ACAD_MLEADERVER
1070
     2
  0
MLINESTYLE
  5
18
102
{ACAD_REACTORS
330
17
102
}
330
17
100
AcDbMlineStyle
  2
Standard
 70
     0
  3

 62
   256
 51
90.0
 52
90.0
 71
     2
 49
0.5
 62
   256
  6
BYLAYER
 49
-0.5
 62
   256
  6
BYLAYER
  0
ACDBPLACEHOLDER
  5
F
102
{ACAD_REACTORS
330
E
102
}
330
E
  0
SCALE
  5
48
102
{ACAD_REACTORS
330
47
102
}
330
47
100
AcDbScale
 70
     0
300
1:1
140
1.0
141
1.0
290
     1
  0
SCALE
  5
49
102
{ACAD_REACTORS
330
47
102
}
330
47
100
AcDbScale
 70
     0
300
1:2
140
1.0
141
2.0
290
     0
  0
SCALE
  5
4A
102
{ACAD_REACTORS
330
47
102
}
330
47
100
AcDbScale
 70
     0
300
1:4
140
1.0
141
4.0
290
     0
  0
SCALE
  5
4B
102
{ACAD_REACTORS
330
47
102
}
330
47
100
AcDbScale
 70
     0
300
1:5
140
1.0
141
5.0
290
     0
  0
SCALE
  5
4C
102
{ACAD_REACTORS
330
47
102
}
330
47
100
AcDbScale
 70
     0
300
1:8
140
1.0
141
8.0
290
     0
  0
SCALE
  5
4D
102
{ACAD_REACTORS
330
47
102
}
330
47
100
AcDbScale
 70
     0
300
1:10
140
1.0
141
10.0
290
     0
  0
SCALE
  5
4E
102
{ACAD_REACTORS
330
47
102
}
330
47
100
AcDbScale
 70
     0
300
1:16
140
1.0
141
16.0
290
     0
  0
SCALE
  5
4F
102
{ACAD_REACTORS
330
47
102
}
330
47
100
AcDbScale
 70
     0
300
1:20
140
1.0
141
20.0
290
     0
  0
SCALE
  5
50
102
{ACAD_REACTORS
330
47
102
}
330
47
100
AcDbScale
 70
     0
300
1:30
140
1.0
141
30.0
290
     0
  0
SCALE
  5
51
102
{ACAD_REACTORS
330
47
102
}
330
47
100
AcDbScale
 70
     0
300
1:40
140
1.0
141
40.0
290
     0
  0
SCALE
  5
52
102
{ACAD_REACTORS
330
47
102
}
330
47
100
AcDbScale
 70
     0
300
1:50
140
1.0
141
50.0
290
     0
  0
SCALE
  5
53
102
{ACAD_REACTORS
330
47
102
}
330
47
100
AcDbScale
 70
     0
300
1:100
140
1.0
141
100.0
290
     0
  0
SCALE
  5
54
102
{ACAD_REACTORS
330
47
102
}
330
47
100
AcDbScale
 70
     0
300
2:1
140
2.0
141
1.0
290
     0
  0
SCALE
  5
55
102
{ACAD_REACTORS
330
47
102
}
330
47
100
AcDbScale
 70
     0
300
4:1
140
4.0
141
1.0
290
     0
  0
SCALE
  5
56
102
{ACAD_REACTORS
330
47
102
}
330
47
100
AcDbScale
 70
     0
300
8:1
140
8.0
141
1.0
290
     0
  0
SCALE
  5
57
102
{ACAD_REACTORS
330
47
102
}
330
47
100
AcDbScale
 70
     0
300
10:1
140
10.0
141
1.0
290
     0
  0
SCALE
  5
58
102
{ACAD_REACTORS
330
47
102
}
330
47
100
AcDbScale
 70
     0
300
100:1
140
100.0
141
1.0
290
     0
  0
SCALE
  5
59
102
{ACAD_REACTORS
330
47
102
}
330
47
100
AcDbScale
 70
     0
300
1/128" = 1'-0"
140
0.0078125
141
12.0
290
     0
  0
SCALE
  5
5A
102
{ACAD_REACTORS
330
47
102
}
330
47
100
AcDbScale
 70
     0
300
1/64" = 1'-0"
140
0.015625
141
12.0
290
     0
  0
SCALE
  5
5B
102
{ACAD_REACTORS
330
47
102
}
330
47
100
AcDbScale
 70
     0
300
1/32" = 1'-0"
140
0.03125
141
12.0
290
     0
  0
SCALE
  5
5C
102
{ACAD_REACTORS
330
47
102
}
330
47
100
AcDbScale
 70
     0
300
1/16" = 1'-0"
140
0.0625
141
12.0
290
     0
  0
SCALE
  5
5D
102
{ACAD_REACTORS
330
47
102
}
330
47
100
AcDbScale
 70
     0
300
3/32" = 1'-0"
140
0.09375
141
12.0
290
     0
  0
SCALE
  5
5E
102
{ACAD_REACTORS
330
47
102
}
330
47
100
AcDbScale
 70
     0
300
1/8" = 1'-0"
140
0.125
141
12.0
290
     0
  0
SCALE
  5
5F
102
{ACAD_REACTORS
330
47
102
}
330
47
100
AcDbScale
 70
     0
300
3/16" = 1'-0"
140
0.1875
141
12.0
290
     0
  0
SCALE
  5
60
102
{ACAD_REACTORS
330
47
102
}
330
47
100
AcDbScale
 70
     0
300
1/4" = 1'-0"
140
0.25
141
12.0
290
     0
  0
SCALE
  5
61
102
{ACAD_REACTORS
330
47
102
}
330
47
100
AcDbScale
 70
     0
300
3/8" = 1'-0"
140
0.375
141
12.0
290
     0
  0
SCALE
  5
62
102
{ACAD_REACTORS
330
47
102
}
330
47
100
AcDbScale
 70
     0
300
1/2" = 1'-0"
140
0.5
141
12.0
290
     0
  0
SCALE
  5
63
102
{ACAD_REACTORS
330
47
102
}
330
47
100
AcDbScale
 70
     0
300
3/4" = 1'-0"
140
0.75
141
12.0
290
     0
  0
SCALE
  5
64
102
{ACAD_REACTORS
330
47
102
}
330
47
100
AcDbScale
 70
     0
300
1" = 1'-0"
140
1.0
141
12.0
290
     0
  0
SCALE
  5
65
102
{ACAD_REACTORS
330
47
102
}
330
47
100
AcDbScale
 70
     0
300
1-1/2" = 1'-0"
140
1.5
141
12.0
290
     0
  0
SCALE
  5
66
102
{ACAD_REACTORS
330
47
102
}
330
47
100
AcDbScale
 70
     0
300
3" = 1'-0"
140
3.0
141
12.0
290
     0
  0
SCALE
  5
67
102
{ACAD_REACTORS
330
47
102
}
330
47
100
AcDbScale
 70
     0
300
6" = 1'-0"
140
6.0
141
12.0
290
     0
  0
SCALE
  5
68
102
{ACAD_REACTORS
330
47
102
}
330
47
100
AcDbScale
 70
     0
300
1'-0" = 1'-0"
140
12.0
141
12.0
290
     0
  0
TABLESTYLE
  5
6A
102
{ACAD_REACTORS
330
69
102
}
102
{ACAD_XDICTIONARY
360
4CA
102
}
330
69
100
AcDbTableStyle
  3
Standard
 70
     0
 71
     0
 40
0.06
 41
0.06
280
     0
281
     0
  7
Standard
140
0.18
170
     2
 62
     0
 63
   257
283
     0
 90
        4
 91
        0
  1

274
    -2
284
     1
 64
     0
275
    -2
285
     1
 65
     0
276
    -2
286
     1
 66
     0
277
    -2
287
     1
 67
     0
278
    -2
288
     1
 68
     0
279
    -2
289
     1
 69
     0
  7
Standard
140
0.25
170
     5
 62
     0
 63
   257
283
     0
 90
        4
 91
        0
  1

274
    -2
284
     1
 64
     0
275
    -2
285
     1
 65
     0
276
    -2
286
     1
 66
     0
277
    -2
287
     1
 67
     0
278
    -2
288
     1
 68
     0
279
    -2
289
     1
 69
     0
  7
Standard
140
0.18
170
     5
 62
     0
 63
   257
283
     0
 90
        4
 91
        0
  1

274
    -2
284
     1
 64
     0
275
    -2
285
     1
 65
     0
276
    -2
286
     1
 66
     0
277
    -2
287
     1
 67
     0
278
    -2
288
     1
 68
     0
279
    -2
289
     1
 69
     0
  0
VISUALSTYLE
  5
2F
102
{ACAD_REACTORS
330
2A
102
}
102
{ACAD_XDICTIONARY
360
4A2
102
}
330
2A
100
AcDbVisualStyle
  2
2dWireframe
 70
     4
 71
     0
 72
     2
 73
     0
 90
        0
 40
0.6
 41
30.0
 62
     5
 63
     7
421
 16777215
 74
     1
 91
        4
 64
     7
 65
   257
 75
     1
175
     1
 42
1.0
 92
        0
 66
   257
 43
1.0
 76
     1
 77
     6
 78
     2
 67
     7
 79
     5
170
     0
171
     0
290
     0
174
     0
 93
        1
 44
0.0
173
     0
291
     0
 45
0.0
  0
VISUALSTYLE
  5
32
102
{ACAD_REACTORS
330
2A
102
}
102
{ACAD_XDICTIONARY
360
4A8
102
}
330
2A
100
AcDbVisualStyle
  2
Basic
 70
     7
 71
     1
 72
     0
 73
     1
 90
        0
 40
0.6
 41
30.0
 62
     5
 63
     7
421
 16777215
 74
     0
 91
        4
 64
     7
 65
   257
 75
     1
175
     1
 42
1.0
 92
        8
 66
     7
 43
1.0
 76
     1
 77
     6
 78
     2
 67
     7
 79
     5
170
     0
171
     0
290
     0
174
     0
 93
        1
 44
0.0
173
     0
291
     1
 45
0.0
  0
VISUALSTYLE
  5
36
102
{ACAD_REACTORS
330
2A
102
}
102
{ACAD_XDICTIONARY
360
4B0
102
}
330
2A
100
AcDbVisualStyle
  2
Brighten
 70
    12
 71
     2
 72
     2
 73
     0
 90
        0
 40
0.6
 41
30.0
 62
     5
 63
     7
421
 16777215
 74
     1
 91
        4
 64
     7
 65
   257
 75
     1
175
     1
 42
1.0
 92
        8
 66
     7
 43
1.0
 76
     1
 77
     6
 78
     2
 67
     7
 79
     5
170
     0
171
     0
290
     0
174
     0
 93
        1
 44
50.0
173
     0
291
     1
 45
0.0
  0
VISUALSTYLE
  5
3A
102
{ACAD_REACTORS
330
2A
102
}
102
{ACAD_XDICTIONARY
360
4B8
102
}
330
2A
100
AcDbVisualStyle
  2
ColorChange
 70
    16
 71
     2
 72
     2
 73
     3
 90
        0
 40
0.6
 41
30.0
 62
     5
 63
     8
421
  8421504
 74
     1
 91
        4
 64
     7
 65
   257
 75
     1
175
     1
 42
1.0
 92
        8
 66
     8
424
  8421504
 43
1.0
 76
     1
 77
     6
 78
     2
 67
     7
 79
     5
170
     0
171
     0
290
     0
174
     0
 93
        1
 44
0.0
173
     0
291
     1
 45
0.0
  0
VISUALSTYLE
  5
34
102
{ACAD_REACTORS
330
2A
102
}
102
{ACAD_XDICTIONARY
360
4AC
102
}
330
2A
100
AcDbVisualStyle
  2
Conceptual
 70
     9
 71
     3
 72
     2
 73
     0
 90
        0
 40
0.6
 41
30.0
 62
     5
 63
     7
421
 16777215
 74
     2
 91
        2
 64
     7
 65
   257
 75
     1
175
     1
 42
179.0
 92
        8
 66
     7
 43
1.0
 76
     1
 77
     6
 78
     2
 67
     7
 79
     3
170
     0
171
     0
290
     0
174
     0
 93
        1
 44
0.0
173
     0
291
     0
 45
0.0
  0
VISUALSTYLE
  5
35
102
{ACAD_REACTORS
330
2A
102
}
102
{ACAD_XDICTIONARY
360
4AE
102
}
330
2A
100
AcDbVisualStyle
  2
Dim
 70
    11
 71
     2
 72
     2
 73
     0
 90
        0
 40
0.6
 41
30.0
 62
     5
 63
     7
421
 16777215
 74
     1
 91
        4
 64
     7
 65
   257
 75
     1
175
     1
 42
1.0
 92
        8
 66
     7
 43
1.0
 76
     1
 77
     6
 78
     2
 67
     7
 79
     5
170
     0
171
     0
290
     0
174
     0
 93
        1
 44
-50.0
173
     0
291
     1
 45
0.0
  0
VISUALSTYLE
  5
3D
102
{ACAD_REACTORS
330
2A
102
}
102
{ACAD_XDICTIONARY
360
4BE
102
}
330
2A
100
AcDbVisualStyle
  2
EdgeColorOff
 70
    22
 71
     2
 72
     2
 73
     0
 90
        0
 40
0.6
 41
30.0
 62
     5
 63
     7
421
 16777215
 74
     1
 91
        4
 64
     7
 65
   257
 75
     1
175
     1
 42
1.0
 92
        8
 66
     7
 43
1.0
 76
     1
 77
     6
 78
     2
 67
     7
 79
     5
170
     0
171
     0
290
     0
174
     0
 93
        1
 44
0.0
173
     0
291
     1
 45
0.0
  0
VISUALSTYLE
  5
39
102
{ACAD_REACTORS
330
2A
102
}
102
{ACAD_XDICTIONARY
360
4B6
102
}
330
2A
100
AcDbVisualStyle
  2
Facepattern
 70
    15
 71
     2
 72
     2
 73
     0
 90
        0
 40
0.6
 41
30.0
 62
     5
 63
     7
421
 16777215
 74
     1
 91
        4
 64
     7
 65
   257
 75
     1
175
     1
 42
1.0
 92
        8
 66
     7
 43
1.0
 76
     1
 77
     6
 78
     2
 67
     7
 79
     5
170
     0
171
     0
290
     0
174
     0
 93
        1
 44
0.0
173
     0
291
     1
 45
0.0
  0
VISUALSTYLE
  5
2B
102
{ACAD_REACTORS
330
2A
102
}
102
{ACAD_XDICTIONARY
360
49A
102
}
330
2A
100
AcDbVisualStyle
  2
Flat
 70
     0
 71
     2
 72
     1
 73
     1
 90
        2
 40
0.6
 41
30.0
 62
     5
 63
     7
421
 16777215
 74
     0
 91
        0
 64
     7
 65
   257
 75
     1
175
     1
 42
1.0
 92
        8
 66
     7
 43
1.0
 76
     1
 77
     6
 78
     2
 67
     7
 79
     5
170
     0
171
     0
290
     0
174
     0
 93
       13
 44
0.0
173
     0
291
     1
 45
0.0
  0
VISUALSTYLE
  5
2C
102
{ACAD_REACTORS
330
2A
102
}
102
{ACAD_XDICTIONARY
360
49C
102
}
330
2A
100
AcDbVisualStyle
  2
FlatWithEdges
 70
     1
 71
     2
 72
     1
 73
     1
 90
        2
 40
0.6
 41
30.0
 62
     5
 63
     7
421
 16777215
 74
     1
 91
        0
 64
     7
 65
   257
 75
     1
175
     1
 42
1.0
 92
        0
 66
   257
 43
1.0
 76
     1
 77
     6
 78
     2
 67
     7
 79
     5
170
     0
171
     0
290
     0
174
     0
 93
       13
 44
0.0
173
     0
291
     1
 45
0.0
  0
VISUALSTYLE
  5
2D
102
{ACAD_REACTORS
330
2A
102
}
102
{ACAD_XDICTIONARY
360
49E
102
}
330
2A
100
AcDbVisualStyle
  2
Gouraud
 70
     2
 71
     2
 72
     2
 73
     1
 90
        2
 40
0.6
 41
30.0
 62
     5
 63
     7
421
 16777215
 74
     0
 91
        0
 64
     7
 65
   257
 75
     1
175
     1
 42
1.0
 92
        0
 66
     7
 43
1.0
 76
     1
 77
     6
 78
     2
 67
     7
 79
     5
170
     0
171
     0
290
     0
174
     0
 93
       13
 44
0.0
173
     0
291
     1
 45
0.0
  0
VISUALSTYLE
  5
2E
102
{ACAD_REACTORS
330
2A
102
}
102
{ACAD_XDICTIONARY
360
4A0
102
}
330
2A
100
AcDbVisualStyle
  2
GouraudWithEdges
 70
     3
 71
     2
 72
     2
 73
     1
 90
        2
 40
0.6
 41
30.0
 62
     5
 63
     7
421
 16777215
 74
     1
 91
        0
 64
     7
 65
   257
 75
     1
175
     1
 42
1.0
 92
        0
 66
   257
 43
1.0
 76
     1
 77
     6
 78
     2
 67
     7
 79
     5
170
     0
171
     0
290
     0
174
     0
 93
       13
 44
0.0
173
     0
291
     1
 45
0.0
  0
VISUALSTYLE
  5
31
102
{ACAD_REACTORS
330
2A
102
}
102
{ACAD_XDICTIONARY
360
4A6
102
}
330
2A
100
AcDbVisualStyle
  2
Hidden
 70
     6
 71
     1
 72
     2
 73
     2
 90
        0
 40
0.6
 41
30.0
 62
     5
 63
     7
421
 16777215
 74
     2
 91
        2
 64
     7
 65
   257
 75
     2
175
     1
 42
40.0
 92
        0
 66
   257
 43
1.0
 76
     1
 77
     6
 78
     2
 67
     7
 79
     3
170
     0
171
     0
290
     0
174
     0
 93
        1
 44
0.0
173
     0
291
     0
 45
0.0
  0
VISUALSTYLE
  5
3B
102
{ACAD_REACTORS
330
2A
102
}
102
{ACAD_XDICTIONARY
360
4BA
102
}
330
2A
100
AcDbVisualStyle
  2
JitterOff
 70
    20
 71
     2
 72
     2
 73
     0
 90
        0
 40
0.6
 41
30.0
 62
     5
 63
     7
421
 16777215
 74
     1
 91
        4
 64
     7
 65
   257
 75
     1
175
     1
 42
1.0
 92
       10
 66
     7
 43
1.0
 76
     1
 77
     6
 78
     2
 67
     7
 79
     5
170
     0
171
     0
290
     0
174
     0
 93
        1
 44
0.0
173
     0
291
     1
 45
0.0
  0
VISUALSTYLE
  5
38
102
{ACAD_REACTORS
330
2A
102
}
102
{ACAD_XDICTIONARY
360
4B4
102
}
330
2A
100
AcDbVisualStyle
  2
Linepattern
 70
    14
 71
     2
 72
     2
 73
     0
 90
        0
 40
0.6
 41
30.0
 62
     5
 63
     7
421
 16777215
 74
     1
 91
        4
 64
     7
 65
   257
 75
     7
175
     7
 42
1.0
 92
        8
 66
     7
 43
1.0
 76
     1
 77
     6
 78
     2
 67
     7
 79
     5
170
     0
171
     0
290
     0
174
     0
 93
        1
 44
0.0
173
     0
291
     1
 45
0.0
  0
VISUALSTYLE
  5
3C
102
{ACAD_REACTORS
330
2A
102
}
102
{ACAD_XDICTIONARY
360
4BC
102
}
330
2A
100
AcDbVisualStyle
  2
OverhangOff
 70
    21
 71
     2
 72
     2
 73
     0
 90
        0
 40
0.6
 41
30.0
 62
     5
 63
     7
421
 16777215
 74
     1
 91
        4
 64
     7
 65
   257
 75
     1
175
     1
 42
1.0
 92
        9
 66
     7
 43
1.0
 76
     1
 77
     6
 78
     2
 67
     7
 79
     5
170
     0
171
     0
290
     0
174
     0
 93
        1
 44
0.0
173
     0
291
     1
 45
0.0
  0
VISUALSTYLE
  5
33
102
{ACAD_REACTORS
330
2A
102
}
102
{ACAD_XDICTIONARY
360
4AA
102
}
330
2A
100
AcDbVisualStyle
  2
Realistic
 70
     8
 71
     2
 72
     3
 73
     0
 90
        2
 40
0.6
 41
30.0
 62
     5
 63
     7
421
 16777215
 74
     0
 91
        0
 64
     7
 65
   257
 75
     1
175
     1
 42
1.0
 92
        8
 66
   257
 43
1.0
 76
     1
 77
     6
 78
     2
 67
     7
 79
     3
170
     0
171
     0
290
     0
174
     0
 93
       13
 44
0.0
173
     0
291
     0
 45
0.0
  0
VISUALSTYLE
  5
42
102
{ACAD_REACTORS
330
2A
102
}
102
{ACAD_XDICTIONARY
360
4C8
102
}
330
2A
100
AcDbVisualStyle
  2
Shaded
 70
    27
 71
     2
 72
     2
 73
     1
 90
        2
 40
0.6
 41
30.0
 62
     5
 63
     7
421
 16777215
 74
     0
 91
        4
 64
     7
 65
   257
 75
     1
175
     1
 42
1.0
 92
        8
 66
   257
 43
1.0
 76
     1
 77
     6
 78
     2
 67
     8
425
  7895160
 79
     3
170
     0
171
     0
290
     0
174
     0
 93
        5
 44
0.0
173
     0
291
     0
 45
0.0
  0
VISUALSTYLE
  5
41
102
{ACAD_REACTORS
330
2A
102
}
102
{ACAD_XDICTIONARY
360
4C6
102
}
330
2A
100
AcDbVisualStyle
  2
Shaded with edges
 70
    26
 71
     2
 72
     2
 73
     1
 90
        2
 40
0.6
 41
30.0
 62
     5
 63
     7
421
 16777215
 74
     1
 91
       10
 64
     7
 65
   257
 75
     2
175
     1
 42
1.0
 92
        8
 66
   257
 43
1.0
 76
     1
 77
     6
 78
     2
 67
     7
 79
     3
170
     0
171
     0
290
     0
174
     0
 93
        5
 44
0.0
173
     0
291
     0
 45
0.0
  0
VISUALSTYLE
  5
3E
102
{ACAD_REACTORS
330
2A
102
}
102
{ACAD_XDICTIONARY
360
4C0
102
}
330
2A
100
AcDbVisualStyle
  2
Shades of Gray
 70
    23
 71
     2
 72
     2
 73
     3
 90
        0
 40
0.6
 41
30.0
 62
     5
 63
     7
421
 16777215
 74
     2
 91
        2
 64
     7
 65
     7
 75
     1
175
     1
 42
40.0
 92
        8
 66
     7
 43
1.0
 76
     1
 77
     6
 78
     2
 67
     7
 79
     3
170
     0
171
     0
290
     0
174
     0
 93
        1
 44
0.0
173
     0
291
     0
 45
0.0
  0
VISUALSTYLE
  5
3F
102
{ACAD_REACTORS
330
2A
102
}
102
{ACAD_XDICTIONARY
360
4C2
102
}
330
2A
100
AcDbVisualStyle
  2
Sketchy
 70
    24
 71
     1
 72
     2
 73
     2
 90
        0
 40
0.6
 41
30.0
 62
     5
 63
     7
421
 16777215
 74
     2
 91
        2
 64
     7
 65
     7
 75
     1
175
     1
 42
40.0
 92
       11
 66
     7
 43
1.0
 76
     1
 77
     6
 78
     2
 67
     7
 79
     6
170
     0
171
     0
290
     0
174
     0
 93
        1
 44
0.0
173
     0
291
     0
 45
0.0
  0
VISUALSTYLE
  5
37
102
{ACAD_REACTORS
330
2A
102
}
102
{ACAD_XDICTIONARY
360
4B2
102
}
330
2A
100
AcDbVisualStyle
  2
Thicken
 70
    13
 71
     2
 72
     2
 73
     0
 90
        0
 40
0.6
 41
30.0
 62
     5
 63
     7
421
 16777215
 74
     1
 91
        4
 64
     7
 65
   257
 75
     1
175
     1
 42
1.0
 92
       12
 66
     7
 43
1.0
 76
     1
 77
     6
 78
     2
 67
     7
 79
     5
170
     0
171
     0
290
     0
174
     0
 93
        1
 44
0.0
173
     0
291
     1
 45
0.0
  0
VISUALSTYLE
  5
30
102
{ACAD_REACTORS
330
2A
102
}
102
{ACAD_XDICTIONARY
360
4A4
102
}
330
2A
100
AcDbVisualStyle
  2
Wireframe
 70
     5
 71
     0
 72
     2
 73
     0
 90
        0
 40
0.6
 41
30.0
 62
     5
 63
     7
421
 16777215
 74
     1
 91
        4
 64
     7
 65
   257
 75
     1
175
     1
 42
1.0
 92
        0
 66
   257
 43
1.0
 76
     1
 77
     6
 78
     2
 67
     7
 79
     3
170
     0
171
     0
290
     0
174
     0
 93
        1
 44
0.0
173
     0
291
     0
 45
0.0
  0
VISUALSTYLE
  5
40
102
{ACAD_REACTORS
330
2A
102
}
102
{ACAD_XDICTIONARY
360
4C4
102
}
330
2A
100
AcDbVisualStyle
  2
X-Ray
 70
    25
 71
     2
 72
     2
 73
     1
 90
        1
 40
0.5
 41
30.0
 62
     5
 63
     7
421
 16777215
 74
     1
 91
        0
 64
     7
 65
   257
 75
     1
175
     1
 42
1.0
 92
        8
 66
     7
 43
1.0
 76
     1
 77
     6
 78
     2
 67
     7
 79
     3
170
     0
171
     0
290
     0
174
     0
 93
       13
 44
0.0
173
     0
291
     0
 45
0.0
  0
DICTIONARYVAR
  5
498
102
{ACAD_REACTORS
330
497
102
}
330
497
100
DictionaryVariables
280
     0
  1
1:1
  0
DICTIONARYVAR
  5
4D1
102
{ACAD_REACTORS
330
497
102
}
330
497
100
DictionaryVariables
280
     0
  1
Standard
  0
DICTIONARYVAR
  5
4D0
102
{ACAD_REACTORS
330
497
102
}
330
497
100
DictionaryVariables
280
     0
  1
Standard
  0
DICTIONARYVAR
  5
499
102
{ACAD_REACTORS
330
497
102
}
330
497
100
DictionaryVariables
280
     0
  1
2
  0
DICTIONARY
  5
4CD
330
6C
100
AcDbDictionary
280
     1
281
     1
  3
ACAD_XREC_ROUNDTRIP
360
4CE
  0
DICTIONARY
  5
4CA
330
6A
100
AcDbDictionary
280
     1
281
     1
  3
ACAD_ROUNDTRIP_2008_TABLESTYLE_CELLSTYLEMAP
360
4CB
  0
DICTIONARY
  5
4A2
330
2F
100
AcDbDictionary
280
     1
281
     1
  3
ACAD_XREC_ROUNDTRIP
360
4A3
  0
DICTIONARY
  5
4A8
330
32
100
AcDbDictionary
280
     1
281
     1
  3
ACAD_XREC_ROUNDTRIP
360
4A9
  0
DICTIONARY
  5
4B0
330
36
100
AcDbDictionary
280
     1
281
     1
  3
ACAD_XREC_ROUNDTRIP
360
4B1
  0
DICTIONARY
  5
4B8
330
3A
100
AcDbDictionary
280
     1
281
     1
  3
ACAD_XREC_ROUNDTRIP
360
4B9
  0
DICTIONARY
  5
4AC
330
34
100
AcDbDictionary
280
     1
281
     1
  3
ACAD_XREC_ROUNDTRIP
360
4AD
  0
DICTIONARY
  5
4AE
330
35
100
AcDbDictionary
280
     1
281
     1
  3
ACAD_XREC_ROUNDTRIP
360
4AF
  0
DICTIONARY
  5
4BE
330
3D
100
AcDbDictionary
280
     1
281
     1
  3
ACAD_XREC_ROUNDTRIP
360
4BF
  0
DICTIONARY
  5
4B6
330
39
100
AcDbDictionary
280
     1
281
     1
  3
ACAD_XREC_ROUNDTRIP
360
4B7
  0
DICTIONARY
  5
49A
330
2B
100
AcDbDictionary
280
     1
281
     1
  3
ACAD_XREC_ROUNDTRIP
360
49B
  0
DICTIONARY
  5
49C
330
2C
100
AcDbDictionary
280
     1
281
     1
  3
ACAD_XREC_ROUNDTRIP
360
49D
  0
DICTIONARY
  5
49E
330
2D
100
AcDbDictionary
280
     1
281
     1
  3
ACAD_XREC_ROUNDTRIP
360
49F
  0
DICTIONARY
  5
4A0
330
2E
100
AcDbDictionary
280
     1
281
     1
  3
ACAD_XREC_ROUNDTRIP
360
4A1
  0
DICTIONARY
  5
4A6
330
31
100
AcDbDictionary
280
     1
281
     1
  3
ACAD_XREC_ROUNDTRIP
360
4A7
  0
DICTIONARY
  5
4BA
330
3B
100
AcDbDictionary
280
     1
281
     1
  3
ACAD_XREC_ROUNDTRIP
360
4BB
  0
DICTIONARY
  5
4B4
330
38
100
AcDbDictionary
280
     1
281
     1
  3
ACAD_XREC_ROUNDTRIP
360
4B5
  0
DICTIONARY
  5
4BC
330
3C
100
AcDbDictionary
280
     1
281
     1
  3
ACAD_XREC_ROUNDTRIP
360
4BD
  0
DICTIONARY
  5
4AA
330
33
100
AcDbDictionary
280
     1
281
     1
  3
ACAD_XREC_ROUNDTRIP
360
4AB
  0
DICTIONARY
  5
4C8
330
42
100
AcDbDictionary
280
     1
281
     1
  3
ACAD_XREC_ROUNDTRIP
360
4C9
  0
DICTIONARY
  5
4C6
330
41
100
AcDbDictionary
280
     1
281
     1
  3
ACAD_XREC_ROUNDTRIP
360
4C7
  0
DICTIONARY
  5
4C0
330
3E
100
AcDbDictionary
280
     1
281
     1
  3
ACAD_XREC_ROUNDTRIP
360
4C1
  0
DICTIONARY
  5
4C2
330
3F
100
AcDbDictionary
280
     1
281
     1
  3
ACAD_XREC_ROUNDTRIP
360
4C3
  0
DICTIONARY
  5
4B2
330
37
100
AcDbDictionary
280
     1
281
     1
  3
ACAD_XREC_ROUNDTRIP
360
4B3
  0
DICTIONARY
  5
4A4
330
30
100
AcDbDictionary
280
     1
281
     1
  3
ACAD_XREC_ROUNDTRIP
360
4A5
  0
DICTIONARY
  5
4C4
330
40
100
AcDbDictionary
280
     1
281
     1
  3
ACAD_XREC_ROUNDTRIP
360
4C5
  0
XRECORD
  5
4CE
102
{ACAD_REACTORS
330
4CD
102
}
330
4CD
100
AcDbXrecord
280
     1
102
ACAD_ROUNDTRIP_2010_MLEADER_STYLE
  0
CELLSTYLEMAP
  5
4CB
102
{ACAD_REACTORS
330
4CA
102
}
330
4CA
100
AcDbCellStyleMap
 90
        3
300
CELLSTYLE
  1
TABLEFORMAT_BEGIN
 90
        5
170
     1
 91
        0
 92
    32768
 62
   257
 93
        1
300
CONTENTFORMAT
  1
CONTENTFORMAT_BEGIN
 90
        0
 91
        0
 92
        4
 93
        0
300

 40
0.0
140
1.0
 94
        5
 62
     0
340
11
144
0.25
309
CONTENTFORMAT_END
171
     1
301
MARGIN
  1
CELLMARGIN_BEGIN
 40
0.06
 40
0.06
 40
0.06
 40
0.06
 40
0.06
 40
0.06
309
CELLMARGIN_END
 94
        6
 95
        1
302
GRIDFORMAT
  1
GRIDFORMAT_BEGIN
 90
        0
 91
        1
 62
     0
 92
       -2
340
14
 93
        0
 40
0.045
309
GRIDFORMAT_END
 95
        2
302
GRIDFORMAT
  1
GRIDFORMAT_BEGIN
 90
        0
 91
        1
 62
     0
 92
       -2
340
14
 93
        0
 40
0.045
309
GRIDFORMAT_END
 95
        4
302
GRIDFORMAT
  1
GRIDFORMAT_BEGIN
 90
        0
 91
        1
 62
     0
 92
       -2
340
14
 93
        0
 40
0.045
309
GRIDFORMAT_END
 95
        8
302
GRIDFORMAT
  1
GRIDFORMAT_BEGIN
 90
        0
 91
        1
 62
     0
 92
       -2
340
14
 93
        0
 40
0.045
309
GRIDFORMAT_END
 95
       16
302
GRIDFORMAT
  1
GRIDFORMAT_BEGIN
 90
        0
 91
        1
 62
     0
 92
       -2
340
14
 93
        0
 40
0.045
309
GRIDFORMAT_END
 95
       32
302
GRIDFORMAT
  1
GRIDFORMAT_BEGIN
 90
        0
 91
        1
 62
     0
 92
       -2
340
14
 93
        0
 40
0.045
309
GRIDFORMAT_END
309
TABLEFORMAT_END
  1
CELLSTYLE_BEGIN
 90
        1
 91
        1
300
_TITLE
309
CELLSTYLE_END
300
CELLSTYLE
  1
TABLEFORMAT_BEGIN
 90
        5
170
     1
 91
        0
 92
        0
 62
   257
 93
        1
300
CONTENTFORMAT
  1
CONTENTFORMAT_BEGIN
 90
        0
 91
        0
 92
        4
 93
        0
300

 40
0.0
140
1.0
 94
        5
 62
     0
340
11
144
0.18
309
CONTENTFORMAT_END
171
     1
301
MARGIN
  1
CELLMARGIN_BEGIN
 40
0.06
 40
0.06
 40
0.06
 40
0.06
 40
0.06
 40
0.06
309
CELLMARGIN_END
 94
        6
 95
        1
302
GRIDFORMAT
  1
GRIDFORMAT_BEGIN
 90
        0
 91
        1
 62
     0
 92
       -2
340
14
 93
        0
 40
0.045
309
GRIDFORMAT_END
 95
        2
302
GRIDFORMAT
  1
GRIDFORMAT_BEGIN
 90
        0
 91
        1
 62
     0
 92
       -2
340
14
 93
        0
 40
0.045
309
GRIDFORMAT_END
 95
        4
302
GRIDFORMAT
  1
GRIDFORMAT_BEGIN
 90
        0
 91
        1
 62
     0
 92
       -2
340
14
 93
        0
 40
0.045
309
GRIDFORMAT_END
 95
        8
302
GRIDFORMAT
  1
GRIDFORMAT_BEGIN
 90
        0
 91
        1
 62
     0
 92
       -2
340
14
 93
        0
 40
0.045
309
GRIDFORMAT_END
 95
       16
302
GRIDFORMAT
  1
GRIDFORMAT_BEGIN
 90
        0
 91
        1
 62
     0
 92
       -2
340
14
 93
        0
 40
0.045
309
GRIDFORMAT_END
 95
       32
302
GRIDFORMAT
  1
GRIDFORMAT_BEGIN
 90
        0
 91
        1
 62
     0
 92
       -2
340
14
 93
        0
 40
0.045
309
GRIDFORMAT_END
309
TABLEFORMAT_END
  1
CELLSTYLE_BEGIN
 90
        2
 91
        1
300
_HEADER
309
CELLSTYLE_END
300
CELLSTYLE
  1
TABLEFORMAT_BEGIN
 90
        5
170
     1
 91
        0
 92
        0
 62
   257
 93
        1
300
CONTENTFORMAT
  1
CONTENTFORMAT_BEGIN
 90
        0
 91
        0
 92
        4
 93
        0
300

 40
0.0
140
1.0
 94
        2
 62
     0
340
11
144
0.18
309
CONTENTFORMAT_END
171
     1
301
MARGIN
  1
CELLMARGIN_BEGIN
 40
0.06
 40
0.06
 40
0.06
 40
0.06
 40
0.06
 40
0.06
309
CELLMARGIN_END
 94
        6
 95
        1
302
GRIDFORMAT
  1
GRIDFORMAT_BEGIN
 90
        0
 91
        1
 62
     0
 92
       -2
340
14
 93
        0
 40
0.045
309
GRIDFORMAT_END
 95
        2
302
GRIDFORMAT
  1
GRIDFORMAT_BEGIN
 90
        0
 91
        1
 62
     0
 92
       -2
340
14
 93
        0
 40
0.045
309
GRIDFORMAT_END
 95
        4
302
GRIDFORMAT
  1
GRIDFORMAT_BEGIN
 90
        0
 91
        1
 62
     0
 92
       -2
340
14
 93
        0
 40
0.045
309
GRIDFORMAT_END
 95
        8
302
GRIDFORMAT
  1
GRIDFORMAT_BEGIN
 90
        0
 91
        1
 62
     0
 92
       -2
340
14
 93
        0
 40
0.045
309
GRIDFORMAT_END
 95
       16
302
GRIDFORMAT
  1
GRIDFORMAT_BEGIN
 90
        0
 91
        1
 62
     0
 92
       -2
340
14
 93
        0
 40
0.045
309
GRIDFORMAT_END
 95
       32
302
GRIDFORMAT
  1
GRIDFORMAT_BEGIN
 90
        0
 91
        1
 62
     0
 92
       -2
340
14
 93
        0
 40
0.045
309
GRIDFORMAT_END
309
TABLEFORMAT_END
  1
CELLSTYLE_BEGIN
 90
        3
 91
        2
300
_DATA
309
CELLSTYLE_END
  0
XRECORD
  5
4A3
102
{ACAD_REACTORS
330
4A2
102
}
330
4A2
100
AcDbXrecord
280
     1
102
RTVSPropertyOp0
 70
     1
102
RTVSPropertyOp1
 70
     1
102
RTVSPropertyOp2
 70
     1
102
RTVSPropertyOp3
 70
     1
102
RTVSPropertyOp4
 70
     1
102
RTVSPropertyOp5
 70
     1
102
RTVSPropertyOp6
 70
     1
102
RTVSPropertyOp7
 70
     1
102
RTVSPropertyOp8
 70
     1
102
RTVSPropertyOp9
 70
     1
102
RTVSPropertyOp10
 70
     1
102
RTVSPropertyOp11
 70
     1
102
RTVSPropertyOp12
 70
     1
102
RTVSPropertyOp13
 70
     1
102
RTVSPropertyOp14
 70
     1
102
RTVSPropertyOp15
 70
     1
102
RTVSPropertyOp16
 70
     1
102
RTVSPropertyOp17
 70
     1
102
RTVSPropertyOp18
 70
     1
102
RTVSPropertyOp19
 70
     1
102
RTVSPropertyOp20
 70
     1
102
RTVSPropertyOp21
 70
     1
102
RTVSPropertyOp22
 70
     1
102
RTVSPropertyOp23
 70
     1
102
RTVSPropertyOp24
 70
     1
102
RTVSPropertyOp25
 70
     1
102
RTVSPropertyOp26
 70
     1
102
RTVSPropertyOp27
 70
     1
102
RTVSPropertyOp28
 70
     1
102
RTVSPropertyOp29
 70
     1
102
RTVSPropertyOp30
 70
     1
102
RTVSPropertyOp31
 70
     1
102
RTVSPropertyOp32
 70
     1
102
RTVSPropertyOp33
 70
     1
102
RTVSPropertyOp34
 70
     1
102
RTVSPropertyOp35
 70
     1
102
RTVSPropertyOp36
 70
     1
102
RTVSPropertyOp37
 70
     1
102
RTVSPropertyOp38
 70
     1
102
RTVSPropertyOp39
 70
     1
102
RTVSPropertyOp40
 70
     1
102
RTVSPropertyOp41
 70
     1
102
RTVSPropertyOp42
 70
     1
102
RTVSPropertyOp43
 70
     1
102
RTVSPropertyOp44
 70
     1
102
RTVSPropertyOp45
 70
     1
102
RTVSPropertyOp46
 70
     1
102
RTVSPropertyOp47
 70
     1
102
RTVSPropertyOp48
 70
     1
102
RTVSPropertyOp49
 70
     1
102
RTVSPropertyOp50
 70
     1
102
RTVSPropertyOp51
 70
     0
102
RTVSPropertyOp52
 70
     0
102
RTVSPropertyOp53
 70
     1
102
RTVSPropertyOp54
 70
     1
102
RTVSPropertyOp55
 70
     1
102
RTVSPropertyOp56
 70
     1
102
RTVSPropertyOp57
 70
     1
102
RTVSPost2010Prop28
280
     1
102
RTVSPost2010PropOp28
 70
     1
102
RTVSPost2010Prop29
280
     1
102
RTVSPost2010PropOp29
 70
     1
102
RTVSPost2010Prop30
280
     0
102
RTVSPost2010PropOp30
 70
     1
102
RTVSPost2010Prop31
280
     0
102
RTVSPost2010PropOp31
 70
     1
102
RTVSPost2010Prop32
280
     0
102
RTVSPost2010PropOp32
 70
     1
102
RTVSPost2010Prop33
280
     0
102
RTVSPost2010PropOp33
 70
     1
102
RTVSPost2010Prop34
280
     0
102
RTVSPost2010PropOp34
 70
     1
102
RTVSPost2010Prop35
280
     0
102
RTVSPost2010PropOp35
 70
     1
102
RTVSPost2010Prop36
280
     0
102
RTVSPost2010PropOp36
 70
     1
102
RTVSPost2010Prop37
 90
       50
102
RTVSPost2010PropOp37
 70
     1
102
RTVSPost2010Prop38
140
0.0
102
RTVSPost2010PropOp38
 70
     1
102
RTVSPost2010Prop39
140
1.0
102
RTVSPost2010PropOp39
 70
     1
102
RTVSPost2010Prop40
 90
        0
102
RTVSPost2010PropOp40
 70
     1
102
RTVSPost2010Prop41ColorIndex
 90
      178
102
RTVSPost2010Prop41ColorRGB
 90
        0
102
RTVSPost2010PropOp41
 70
     1
102
RTVSPost2010Prop42
 90
       50
102
RTVSPost2010PropOp42
 70
     1
102
RTVSPost2010Prop43
 90
        3
102
RTVSPost2010PropOp43
 70
     1
102
RTVSPost2010Prop44ColorIndex
 90
        5
102
RTVSPost2010Prop44ColorRGB
 90
      255
102
RTVSPost2010PropOp44
 70
     1
102
RTVSPost2010Prop45
280
     0
102
RTVSPost2010PropOp45
 70
     1
102
RTVSPost2010Prop46
 90
       50
102
RTVSPost2010PropOp46
 70
     1
102
RTVSPost2010Prop47
 90
       50
102
RTVSPost2010PropOp47
 70
     1
102
RTVSPost2010Prop48
 90
       50
102
RTVSPost2010PropOp48
 70
     1
102
RTVSPost2010Prop49
280
     0
102
RTVSPost2010PropOp49
 70
     1
102
RTVSPost2010Prop50
 90
       50
102
RTVSPost2010PropOp50
 70
     1
102
RTVSPost2010Prop51ColorIndex
 90
      256
102
RTVSPost2010Prop51ColorRGB
 90
-16777216
102
RTVSPost2010PropOp51
 70
     0
102
RTVSPost2010Prop52
140
1.0
102
RTVSPost2010PropOp52
 70
     0
102
RTVSPost2010Prop53
 90
        2
102
RTVSPost2010PropOp53
 70
     1
102
RTVSPost2010Prop54
  1
strokes_ogs.tif
102
RTVSPost2010PropOp54
 70
     1
102
RTVSPost2010Prop55
280
     0
102
RTVSPost2010PropOp55
 70
     1
102
RTVSPost2010Prop56
140
1.0
102
RTVSPost2010PropOp56
 70
     1
102
RTVSPost2010Prop57
140
1.0
102
RTVSPost2010PropOp57
 70
     1
  0
XRECORD
  5
4A9
102
{ACAD_REACTORS
330
4A8
102
}
330
4A8
100
AcDbXrecord
280
     1
102
RTVSPropertyOp0
 70
     1
102
RTVSPropertyOp1
 70
     1
102
RTVSPropertyOp2
 70
     1
102
RTVSPropertyOp3
 70
     1
102
RTVSPropertyOp4
 70
     1
102
RTVSPropertyOp5
 70
     1
102
RTVSPropertyOp6
 70
     1
102
RTVSPropertyOp7
 70
     1
102
RTVSPropertyOp8
 70
     1
102
RTVSPropertyOp9
 70
     1
102
RTVSPropertyOp10
 70
     1
102
RTVSPropertyOp11
 70
     1
102
RTVSPropertyOp12
 70
     1
102
RTVSPropertyOp13
 70
     1
102
RTVSPropertyOp14
 70
     1
102
RTVSPropertyOp15
 70
     1
102
RTVSPropertyOp16
 70
     1
102
RTVSPropertyOp17
 70
     1
102
RTVSPropertyOp18
 70
     1
102
RTVSPropertyOp19
 70
     1
102
RTVSPropertyOp20
 70
     1
102
RTVSPropertyOp21
 70
     1
102
RTVSPropertyOp22
 70
     1
102
RTVSPropertyOp23
 70
     1
102
RTVSPropertyOp24
 70
     1
102
RTVSPropertyOp25
 70
     1
102
RTVSPropertyOp26
 70
     1
102
RTVSPropertyOp27
 70
     1
102
RTVSPropertyOp28
 70
     1
102
RTVSPropertyOp29
 70
     1
102
RTVSPropertyOp30
 70
     1
102
RTVSPropertyOp31
 70
     1
102
RTVSPropertyOp32
 70
     1
102
RTVSPropertyOp33
 70
     1
102
RTVSPropertyOp34
 70
     1
102
RTVSPropertyOp35
 70
     1
102
RTVSPropertyOp36
 70
     1
102
RTVSPropertyOp37
 70
     1
102
RTVSPropertyOp38
 70
     1
102
RTVSPropertyOp39
 70
     1
102
RTVSPropertyOp40
 70
     1
102
RTVSPropertyOp41
 70
     1
102
RTVSPropertyOp42
 70
     1
102
RTVSPropertyOp43
 70
     1
102
RTVSPropertyOp44
 70
     1
102
RTVSPropertyOp45
 70
     1
102
RTVSPropertyOp46
 70
     1
102
RTVSPropertyOp47
 70
     1
102
RTVSPropertyOp48
 70
     1
102
RTVSPropertyOp49
 70
     1
102
RTVSPropertyOp50
 70
     1
102
RTVSPropertyOp51
 70
     0
102
RTVSPropertyOp52
 70
     0
102
RTVSPropertyOp53
 70
     1
102
RTVSPropertyOp54
 70
     1
102
RTVSPropertyOp55
 70
     1
102
RTVSPropertyOp56
 70
     1
102
RTVSPropertyOp57
 70
     1
102
RTVSPost2010Prop28
280
     0
102
RTVSPost2010PropOp28
 70
     1
102
RTVSPost2010Prop29
280
     1
102
RTVSPost2010PropOp29
 70
     1
102
RTVSPost2010Prop30
280
     1
102
RTVSPost2010PropOp30
 70
     1
102
RTVSPost2010Prop31
280
     0
102
RTVSPost2010PropOp31
 70
     1
102
RTVSPost2010Prop32
280
     0
102
RTVSPost2010PropOp32
 70
     1
102
RTVSPost2010Prop33
280
     0
102
RTVSPost2010PropOp33
 70
     1
102
RTVSPost2010Prop34
280
     0
102
RTVSPost2010PropOp34
 70
     1
102
RTVSPost2010Prop35
280
     0
102
RTVSPost2010PropOp35
 70
     1
102
RTVSPost2010Prop36
280
     0
102
RTVSPost2010PropOp36
 70
     1
102
RTVSPost2010Prop37
 90
       50
102
RTVSPost2010PropOp37
 70
     1
102
RTVSPost2010Prop38
140
0.0
102
RTVSPost2010PropOp38
 70
     1
102
RTVSPost2010Prop39
140
1.0
102
RTVSPost2010PropOp39
 70
     1
102
RTVSPost2010Prop40
 90
        0
102
RTVSPost2010PropOp40
 70
     1
102
RTVSPost2010Prop41ColorIndex
 90
      178
102
RTVSPost2010Prop41ColorRGB
 90
        0
102
RTVSPost2010PropOp41
 70
     1
102
RTVSPost2010Prop42
 90
       50
102
RTVSPost2010PropOp42
 70
     1
102
RTVSPost2010Prop43
 90
        3
102
RTVSPost2010PropOp43
 70
     1
102
RTVSPost2010Prop44ColorIndex
 90
        5
102
RTVSPost2010Prop44ColorRGB
 90
      255
102
RTVSPost2010PropOp44
 70
     1
102
RTVSPost2010Prop45
280
     0
102
RTVSPost2010PropOp45
 70
     1
102
RTVSPost2010Prop46
 90
       50
102
RTVSPost2010PropOp46
 70
     1
102
RTVSPost2010Prop47
 90
       50
102
RTVSPost2010PropOp47
 70
     1
102
RTVSPost2010Prop48
 90
       50
102
RTVSPost2010PropOp48
 70
     1
102
RTVSPost2010Prop49
280
     0
102
RTVSPost2010PropOp49
 70
     1
102
RTVSPost2010Prop50
 90
       50
102
RTVSPost2010PropOp50
 70
     1
102
RTVSPost2010Prop51ColorIndex
 90
      256
102
RTVSPost2010Prop51ColorRGB
 90
-16777216
102
RTVSPost2010PropOp51
 70
     0
102
RTVSPost2010Prop52
140
1.0
102
RTVSPost2010PropOp52
 70
     0
102
RTVSPost2010Prop53
 90
        2
102
RTVSPost2010PropOp53
 70
     1
102
RTVSPost2010Prop54
  1
strokes_ogs.tif
102
RTVSPost2010PropOp54
 70
     1
102
RTVSPost2010Prop55
280
     0
102
RTVSPost2010PropOp55
 70
     1
102
RTVSPost2010Prop56
140
1.0
102
RTVSPost2010PropOp56
 70
     1
102
RTVSPost2010Prop57
140
1.0
102
RTVSPost2010PropOp57
 70
     1
  0
XRECORD
  5
4B1
102
{ACAD_REACTORS
330
4B0
102
}
330
4B0
100
AcDbXrecord
280
     1
102
RTVSPropertyOp0
 70
     1
102
RTVSPropertyOp1
 70
     1
102
RTVSPropertyOp2
 70
     1
102
RTVSPropertyOp3
 70
     1
102
RTVSPropertyOp4
 70
     1
102
RTVSPropertyOp5
 70
     1
102
RTVSPropertyOp6
 70
     1
102
RTVSPropertyOp7
 70
     1
102
RTVSPropertyOp8
 70
     1
102
RTVSPropertyOp9
 70
     1
102
RTVSPropertyOp10
 70
     1
102
RTVSPropertyOp11
 70
     1
102
RTVSPropertyOp12
 70
     1
102
RTVSPropertyOp13
 70
     1
102
RTVSPropertyOp14
 70
     1
102
RTVSPropertyOp15
 70
     1
102
RTVSPropertyOp16
 70
     1
102
RTVSPropertyOp17
 70
     1
102
RTVSPropertyOp18
 70
     1
102
RTVSPropertyOp19
 70
     1
102
RTVSPropertyOp20
 70
     1
102
RTVSPropertyOp21
 70
     1
102
RTVSPropertyOp22
 70
     1
102
RTVSPropertyOp23
 70
     1
102
RTVSPropertyOp24
 70
     1
102
RTVSPropertyOp25
 70
     1
102
RTVSPropertyOp26
 70
     1
102
RTVSPropertyOp27
 70
     1
102
RTVSPropertyOp28
 70
     1
102
RTVSPropertyOp29
 70
     1
102
RTVSPropertyOp30
 70
     1
102
RTVSPropertyOp31
 70
     1
102
RTVSPropertyOp32
 70
     1
102
RTVSPropertyOp33
 70
     1
102
RTVSPropertyOp34
 70
     1
102
RTVSPropertyOp35
 70
     1
102
RTVSPropertyOp36
 70
     1
102
RTVSPropertyOp37
 70
     1
102
RTVSPropertyOp38
 70
     1
102
RTVSPropertyOp39
 70
     1
102
RTVSPropertyOp40
 70
     1
102
RTVSPropertyOp41
 70
     1
102
RTVSPropertyOp42
 70
     1
102
RTVSPropertyOp43
 70
     1
102
RTVSPropertyOp44
 70
     1
102
RTVSPropertyOp45
 70
     1
102
RTVSPropertyOp46
 70
     1
102
RTVSPropertyOp47
 70
     1
102
RTVSPropertyOp48
 70
     1
102
RTVSPropertyOp49
 70
     1
102
RTVSPropertyOp50
 70
     1
102
RTVSPropertyOp51
 70
     0
102
RTVSPropertyOp52
 70
     0
102
RTVSPropertyOp53
 70
     1
102
RTVSPropertyOp54
 70
     1
102
RTVSPropertyOp55
 70
     1
102
RTVSPropertyOp56
 70
     1
102
RTVSPropertyOp57
 70
     1
102
RTVSPost2010Prop28
280
     0
102
RTVSPost2010PropOp28
 70
     1
102
RTVSPost2010Prop29
280
     1
102
RTVSPost2010PropOp29
 70
     1
102
RTVSPost2010Prop30
280
     1
102
RTVSPost2010PropOp30
 70
     1
102
RTVSPost2010Prop31
280
     0
102
RTVSPost2010PropOp31
 70
     1
102
RTVSPost2010Prop32
280
     0
102
RTVSPost2010PropOp32
 70
     1
102
RTVSPost2010Prop33
280
     0
102
RTVSPost2010PropOp33
 70
     1
102
RTVSPost2010Prop34
280
     0
102
RTVSPost2010PropOp34
 70
     1
102
RTVSPost2010Prop35
280
     0
102
RTVSPost2010PropOp35
 70
     1
102
RTVSPost2010Prop36
280
     0
102
RTVSPost2010PropOp36
 70
     1
102
RTVSPost2010Prop37
 90
       50
102
RTVSPost2010PropOp37
 70
     1
102
RTVSPost2010Prop38
140
0.0
102
RTVSPost2010PropOp38
 70
     1
102
RTVSPost2010Prop39
140
1.0
102
RTVSPost2010PropOp39
 70
     1
102
RTVSPost2010Prop40
 90
        0
102
RTVSPost2010PropOp40
 70
     1
102
RTVSPost2010Prop41ColorIndex
 90
      178
102
RTVSPost2010Prop41ColorRGB
 90
        0
102
RTVSPost2010PropOp41
 70
     1
102
RTVSPost2010Prop42
 90
       50
102
RTVSPost2010PropOp42
 70
     1
102
RTVSPost2010Prop43
 90
        3
102
RTVSPost2010PropOp43
 70
     1
102
RTVSPost2010Prop44ColorIndex
 90
        5
102
RTVSPost2010Prop44ColorRGB
 90
      255
102
RTVSPost2010PropOp44
 70
     1
102
RTVSPost2010Prop45
280
     0
102
RTVSPost2010PropOp45
 70
     1
102
RTVSPost2010Prop46
 90
       50
102
RTVSPost2010PropOp46
 70
     1
102
RTVSPost2010Prop47
 90
       50
102
RTVSPost2010PropOp47
 70
     1
102
RTVSPost2010Prop48
 90
       50
102
RTVSPost2010PropOp48
 70
     1
102
RTVSPost2010Prop49
280
     0
102
RTVSPost2010PropOp49
 70
     1
102
RTVSPost2010Prop50
 90
       50
102
RTVSPost2010PropOp50
 70
     1
102
RTVSPost2010Prop51ColorIndex
 90
      256
102
RTVSPost2010Prop51ColorRGB
 90
-16777216
102
RTVSPost2010PropOp51
 70
     0
102
RTVSPost2010Prop52
140
1.0
102
RTVSPost2010PropOp52
 70
     0
102
RTVSPost2010Prop53
 90
        2
102
RTVSPost2010PropOp53
 70
     1
102
RTVSPost2010Prop54
  1
strokes_ogs.tif
102
RTVSPost2010PropOp54
 70
     1
102
RTVSPost2010Prop55
280
     0
102
RTVSPost2010PropOp55
 70
     1
102
RTVSPost2010Prop56
140
1.0
102
RTVSPost2010PropOp56
 70
     1
102
RTVSPost2010Prop57
140
1.0
102
RTVSPost2010PropOp57
 70
     1
  0
XRECORD
  5
4B9
102
{ACAD_REACTORS
330
4B8
102
}
330
4B8
100
AcDbXrecord
280
     1
102
RTVSPropertyOp0
 70
     1
102
RTVSPropertyOp1
 70
     1
102
RTVSPropertyOp2
 70
     1
102
RTVSPropertyOp3
 70
     1
102
RTVSPropertyOp4
 70
     1
102
RTVSPropertyOp5
 70
     1
102
RTVSPropertyOp6
 70
     1
102
RTVSPropertyOp7
 70
     1
102
RTVSPropertyOp8
 70
     1
102
RTVSPropertyOp9
 70
     1
102
RTVSPropertyOp10
 70
     1
102
RTVSPropertyOp11
 70
     1
102
RTVSPropertyOp12
 70
     1
102
RTVSPropertyOp13
 70
     1
102
RTVSPropertyOp14
 70
     1
102
RTVSPropertyOp15
 70
     1
102
RTVSPropertyOp16
 70
     1
102
RTVSPropertyOp17
 70
     1
102
RTVSPropertyOp18
 70
     1
102
RTVSPropertyOp19
 70
     1
102
RTVSPropertyOp20
 70
     1
102
RTVSPropertyOp21
 70
     1
102
RTVSPropertyOp22
 70
     1
102
RTVSPropertyOp23
 70
     1
102
RTVSPropertyOp24
 70
     1
102
RTVSPropertyOp25
 70
     1
102
RTVSPropertyOp26
 70
     1
102
RTVSPropertyOp27
 70
     1
102
RTVSPropertyOp28
 70
     1
102
RTVSPropertyOp29
 70
     1
102
RTVSPropertyOp30
 70
     1
102
RTVSPropertyOp31
 70
     1
102
RTVSPropertyOp32
 70
     1
102
RTVSPropertyOp33
 70
     1
102
RTVSPropertyOp34
 70
     1
102
RTVSPropertyOp35
 70
     1
102
RTVSPropertyOp36
 70
     1
102
RTVSPropertyOp37
 70
     1
102
RTVSPropertyOp38
 70
     1
102
RTVSPropertyOp39
 70
     1
102
RTVSPropertyOp40
 70
     1
102
RTVSPropertyOp41
 70
     1
102
RTVSPropertyOp42
 70
     1
102
RTVSPropertyOp43
 70
     1
102
RTVSPropertyOp44
 70
     1
102
RTVSPropertyOp45
 70
     1
102
RTVSPropertyOp46
 70
     1
102
RTVSPropertyOp47
 70
     1
102
RTVSPropertyOp48
 70
     1
102
RTVSPropertyOp49
 70
     1
102
RTVSPropertyOp50
 70
     1
102
RTVSPropertyOp51
 70
     0
102
RTVSPropertyOp52
 70
     0
102
RTVSPropertyOp53
 70
     1
102
RTVSPropertyOp54
 70
     1
102
RTVSPropertyOp55
 70
     1
102
RTVSPropertyOp56
 70
     1
102
RTVSPropertyOp57
 70
     1
102
RTVSPost2010Prop28
280
     0
102
RTVSPost2010PropOp28
 70
     1
102
RTVSPost2010Prop29
280
     1
102
RTVSPost2010PropOp29
 70
     1
102
RTVSPost2010Prop30
280
     1
102
RTVSPost2010PropOp30
 70
     1
102
RTVSPost2010Prop31
280
     0
102
RTVSPost2010PropOp31
 70
     1
102
RTVSPost2010Prop32
280
     0
102
RTVSPost2010PropOp32
 70
     1
102
RTVSPost2010Prop33
280
     0
102
RTVSPost2010PropOp33
 70
     1
102
RTVSPost2010Prop34
280
     0
102
RTVSPost2010PropOp34
 70
     1
102
RTVSPost2010Prop35
280
     0
102
RTVSPost2010PropOp35
 70
     1
102
RTVSPost2010Prop36
280
     0
102
RTVSPost2010PropOp36
 70
     1
102
RTVSPost2010Prop37
 90
       50
102
RTVSPost2010PropOp37
 70
     1
102
RTVSPost2010Prop38
140
0.0
102
RTVSPost2010PropOp38
 70
     1
102
RTVSPost2010Prop39
140
1.0
102
RTVSPost2010PropOp39
 70
     1
102
RTVSPost2010Prop40
 90
        0
102
RTVSPost2010PropOp40
 70
     1
102
RTVSPost2010Prop41ColorIndex
 90
      178
102
RTVSPost2010Prop41ColorRGB
 90
        0
102
RTVSPost2010PropOp41
 70
     1
102
RTVSPost2010Prop42
 90
       50
102
RTVSPost2010PropOp42
 70
     1
102
RTVSPost2010Prop43
 90
        3
102
RTVSPost2010PropOp43
 70
     1
102
RTVSPost2010Prop44ColorIndex
 90
        5
102
RTVSPost2010Prop44ColorRGB
 90
      255
102
RTVSPost2010PropOp44
 70
     1
102
RTVSPost2010Prop45
280
     0
102
RTVSPost2010PropOp45
 70
     1
102
RTVSPost2010Prop46
 90
       50
102
RTVSPost2010PropOp46
 70
     1
102
RTVSPost2010Prop47
 90
       50
102
RTVSPost2010PropOp47
 70
     1
102
RTVSPost2010Prop48
 90
       50
102
RTVSPost2010PropOp48
 70
     1
102
RTVSPost2010Prop49
280
     0
102
RTVSPost2010PropOp49
 70
     1
102
RTVSPost2010Prop50
 90
       50
102
RTVSPost2010PropOp50
 70
     1
102
RTVSPost2010Prop51ColorIndex
 90
      256
102
RTVSPost2010Prop51ColorRGB
 90
-16777216
102
RTVSPost2010PropOp51
 70
     0
102
RTVSPost2010Prop52
140
1.0
102
RTVSPost2010PropOp52
 70
     0
102
RTVSPost2010Prop53
 90
        2
102
RTVSPost2010PropOp53
 70
     1
102
RTVSPost2010Prop54
  1
strokes_ogs.tif
102
RTVSPost2010PropOp54
 70
     1
102
RTVSPost2010Prop55
280
     0
102
RTVSPost2010PropOp55
 70
     1
102
RTVSPost2010Prop56
140
1.0
102
RTVSPost2010PropOp56
 70
     1
102
RTVSPost2010Prop57
140
1.0
102
RTVSPost2010PropOp57
 70
     1
  0
XRECORD
  5
4AD
102
{ACAD_REACTORS
330
4AC
102
}
330
4AC
100
AcDbXrecord
280
     1
102
RTVSPropertyOp0
 70
     1
102
RTVSPropertyOp1
 70
     1
102
RTVSPropertyOp2
 70
     1
102
RTVSPropertyOp3
 70
     1
102
RTVSPropertyOp4
 70
     1
102
RTVSPropertyOp5
 70
     1
102
RTVSPropertyOp6
 70
     1
102
RTVSPropertyOp7
 70
     1
102
RTVSPropertyOp8
 70
     1
102
RTVSPropertyOp9
 70
     1
102
RTVSPropertyOp10
 70
     1
102
RTVSPropertyOp11
 70
     1
102
RTVSPropertyOp12
 70
     1
102
RTVSPropertyOp13
 70
     1
102
RTVSPropertyOp14
 70
     1
102
RTVSPropertyOp15
 70
     1
102
RTVSPropertyOp16
 70
     1
102
RTVSPropertyOp17
 70
     1
102
RTVSPropertyOp18
 70
     1
102
RTVSPropertyOp19
 70
     1
102
RTVSPropertyOp20
 70
     1
102
RTVSPropertyOp21
 70
     1
102
RTVSPropertyOp22
 70
     1
102
RTVSPropertyOp23
 70
     1
102
RTVSPropertyOp24
 70
     1
102
RTVSPropertyOp25
 70
     1
102
RTVSPropertyOp26
 70
     1
102
RTVSPropertyOp27
 70
     1
102
RTVSPropertyOp28
 70
     1
102
RTVSPropertyOp29
 70
     1
102
RTVSPropertyOp30
 70
     1
102
RTVSPropertyOp31
 70
     1
102
RTVSPropertyOp32
 70
     1
102
RTVSPropertyOp33
 70
     1
102
RTVSPropertyOp34
 70
     1
102
RTVSPropertyOp35
 70
     1
102
RTVSPropertyOp36
 70
     1
102
RTVSPropertyOp37
 70
     1
102
RTVSPropertyOp38
 70
     1
102
RTVSPropertyOp39
 70
     1
102
RTVSPropertyOp40
 70
     1
102
RTVSPropertyOp41
 70
     1
102
RTVSPropertyOp42
 70
     1
102
RTVSPropertyOp43
 70
     1
102
RTVSPropertyOp44
 70
     1
102
RTVSPropertyOp45
 70
     1
102
RTVSPropertyOp46
 70
     1
102
RTVSPropertyOp47
 70
     1
102
RTVSPropertyOp48
 70
     1
102
RTVSPropertyOp49
 70
     1
102
RTVSPropertyOp50
 70
     1
102
RTVSPropertyOp51
 70
     0
102
RTVSPropertyOp52
 70
     0
102
RTVSPropertyOp53
 70
     1
102
RTVSPropertyOp54
 70
     1
102
RTVSPropertyOp55
 70
     1
102
RTVSPropertyOp56
 70
     1
102
RTVSPropertyOp57
 70
     1
102
RTVSPost2010Prop28
280
     0
102
RTVSPost2010PropOp28
 70
     1
102
RTVSPost2010Prop29
280
     1
102
RTVSPost2010PropOp29
 70
     1
102
RTVSPost2010Prop30
280
     1
102
RTVSPost2010PropOp30
 70
     1
102
RTVSPost2010Prop31
280
     0
102
RTVSPost2010PropOp31
 70
     1
102
RTVSPost2010Prop32
280
     0
102
RTVSPost2010PropOp32
 70
     1
102
RTVSPost2010Prop33
280
     0
102
RTVSPost2010PropOp33
 70
     1
102
RTVSPost2010Prop34
280
     0
102
RTVSPost2010PropOp34
 70
     1
102
RTVSPost2010Prop35
280
     0
102
RTVSPost2010PropOp35
 70
     1
102
RTVSPost2010Prop36
280
     0
102
RTVSPost2010PropOp36
 70
     1
102
RTVSPost2010Prop37
 90
       50
102
RTVSPost2010PropOp37
 70
     1
102
RTVSPost2010Prop38
140
0.0
102
RTVSPost2010PropOp38
 70
     1
102
RTVSPost2010Prop39
140
1.0
102
RTVSPost2010PropOp39
 70
     1
102
RTVSPost2010Prop40
 90
        0
102
RTVSPost2010PropOp40
 70
     1
102
RTVSPost2010Prop41ColorIndex
 90
      178
102
RTVSPost2010Prop41ColorRGB
 90
        0
102
RTVSPost2010PropOp41
 70
     1
102
RTVSPost2010Prop42
 90
       50
102
RTVSPost2010PropOp42
 70
     1
102
RTVSPost2010Prop43
 90
        3
102
RTVSPost2010PropOp43
 70
     1
102
RTVSPost2010Prop44ColorIndex
 90
        5
102
RTVSPost2010Prop44ColorRGB
 90
      255
102
RTVSPost2010PropOp44
 70
     1
102
RTVSPost2010Prop45
280
     0
102
RTVSPost2010PropOp45
 70
     1
102
RTVSPost2010Prop46
 90
       50
102
RTVSPost2010PropOp46
 70
     1
102
RTVSPost2010Prop47
 90
       50
102
RTVSPost2010PropOp47
 70
     1
102
RTVSPost2010Prop48
 90
       50
102
RTVSPost2010PropOp48
 70
     1
102
RTVSPost2010Prop49
280
     0
102
RTVSPost2010PropOp49
 70
     1
102
RTVSPost2010Prop50
 90
       50
102
RTVSPost2010PropOp50
 70
     1
102
RTVSPost2010Prop51ColorIndex
 90
      256
102
RTVSPost2010Prop51ColorRGB
 90
-16777216
102
RTVSPost2010PropOp51
 70
     0
102
RTVSPost2010Prop52
140
1.0
102
RTVSPost2010PropOp52
 70
     0
102
RTVSPost2010Prop53
 90
        2
102
RTVSPost2010PropOp53
 70
     1
102
RTVSPost2010Prop54
  1
strokes_ogs.tif
102
RTVSPost2010PropOp54
 70
     1
102
RTVSPost2010Prop55
280
     0
102
RTVSPost2010PropOp55
 70
     1
102
RTVSPost2010Prop56
140
1.0
102
RTVSPost2010PropOp56
 70
     1
102
RTVSPost2010Prop57
140
1.0
102
RTVSPost2010PropOp57
 70
     1
  0
XRECORD
  5
4AF
102
{ACAD_REACTORS
330
4AE
102
}
330
4AE
100
AcDbXrecord
280
     1
102
RTVSPropertyOp0
 70
     1
102
RTVSPropertyOp1
 70
     1
102
RTVSPropertyOp2
 70
     1
102
RTVSPropertyOp3
 70
     1
102
RTVSPropertyOp4
 70
     1
102
RTVSPropertyOp5
 70
     1
102
RTVSPropertyOp6
 70
     1
102
RTVSPropertyOp7
 70
     1
102
RTVSPropertyOp8
 70
     1
102
RTVSPropertyOp9
 70
     1
102
RTVSPropertyOp10
 70
     1
102
RTVSPropertyOp11
 70
     1
102
RTVSPropertyOp12
 70
     1
102
RTVSPropertyOp13
 70
     1
102
RTVSPropertyOp14
 70
     1
102
RTVSPropertyOp15
 70
     1
102
RTVSPropertyOp16
 70
     1
102
RTVSPropertyOp17
 70
     1
102
RTVSPropertyOp18
 70
     1
102
RTVSPropertyOp19
 70
     1
102
RTVSPropertyOp20
 70
     1
102
RTVSPropertyOp21
 70
     1
102
RTVSPropertyOp22
 70
     1
102
RTVSPropertyOp23
 70
     1
102
RTVSPropertyOp24
 70
     1
102
RTVSPropertyOp25
 70
     1
102
RTVSPropertyOp26
 70
     1
102
RTVSPropertyOp27
 70
     1
102
RTVSPropertyOp28
 70
     1
102
RTVSPropertyOp29
 70
     1
102
RTVSPropertyOp30
 70
     1
102
RTVSPropertyOp31
 70
     1
102
RTVSPropertyOp32
 70
     1
102
RTVSPropertyOp33
 70
     1
102
RTVSPropertyOp34
 70
     1
102
RTVSPropertyOp35
 70
     1
102
RTVSPropertyOp36
 70
     1
102
RTVSPropertyOp37
 70
     1
102
RTVSPropertyOp38
 70
     1
102
RTVSPropertyOp39
 70
     1
102
RTVSPropertyOp40
 70
     1
102
RTVSPropertyOp41
 70
     1
102
RTVSPropertyOp42
 70
     1
102
RTVSPropertyOp43
 70
     1
102
RTVSPropertyOp44
 70
     1
102
RTVSPropertyOp45
 70
     1
102
RTVSPropertyOp46
 70
     1
102
RTVSPropertyOp47
 70
     1
102
RTVSPropertyOp48
 70
     1
102
RTVSPropertyOp49
 70
     1
102
RTVSPropertyOp50
 70
     1
102
RTVSPropertyOp51
 70
     0
102
RTVSPropertyOp52
 70
     0
102
RTVSPropertyOp53
 70
     1
102
RTVSPropertyOp54
 70
     1
102
RTVSPropertyOp55
 70
     1
102
RTVSPropertyOp56
 70
     1
102
RTVSPropertyOp57
 70
     1
102
RTVSPost2010Prop28
280
     0
102
RTVSPost2010PropOp28
 70
     1
102
RTVSPost2010Prop29
280
     1
102
RTVSPost2010PropOp29
 70
     1
102
RTVSPost2010Prop30
280
     1
102
RTVSPost2010PropOp30
 70
     1
102
RTVSPost2010Prop31
280
     0
102
RTVSPost2010PropOp31
 70
     1
102
RTVSPost2010Prop32
280
     0
102
RTVSPost2010PropOp32
 70
     1
102
RTVSPost2010Prop33
280
     0
102
RTVSPost2010PropOp33
 70
     1
102
RTVSPost2010Prop34
280
     0
102
RTVSPost2010PropOp34
 70
     1
102
RTVSPost2010Prop35
280
     0
102
RTVSPost2010PropOp35
 70
     1
102
RTVSPost2010Prop36
280
     0
102
RTVSPost2010PropOp36
 70
     1
102
RTVSPost2010Prop37
 90
       50
102
RTVSPost2010PropOp37
 70
     1
102
RTVSPost2010Prop38
140
0.0
102
RTVSPost2010PropOp38
 70
     1
102
RTVSPost2010Prop39
140
1.0
102
RTVSPost2010PropOp39
 70
     1
102
RTVSPost2010Prop40
 90
        0
102
RTVSPost2010PropOp40
 70
     1
102
RTVSPost2010Prop41ColorIndex
 90
      178
102
RTVSPost2010Prop41ColorRGB
 90
        0
102
RTVSPost2010PropOp41
 70
     1
102
RTVSPost2010Prop42
 90
       50
102
RTVSPost2010PropOp42
 70
     1
102
RTVSPost2010Prop43
 90
        3
102
RTVSPost2010PropOp43
 70
     1
102
RTVSPost2010Prop44ColorIndex
 90
        5
102
RTVSPost2010Prop44ColorRGB
 90
      255
102
RTVSPost2010PropOp44
 70
     1
102
RTVSPost2010Prop45
280
     0
102
RTVSPost2010PropOp45
 70
     1
102
RTVSPost2010Prop46
 90
       50
102
RTVSPost2010PropOp46
 70
     1
102
RTVSPost2010Prop47
 90
       50
102
RTVSPost2010PropOp47
 70
     1
102
RTVSPost2010Prop48
 90
       50
102
RTVSPost2010PropOp48
 70
     1
102
RTVSPost2010Prop49
280
     0
102
RTVSPost2010PropOp49
 70
     1
102
RTVSPost2010Prop50
 90
       50
102
RTVSPost2010PropOp50
 70
     1
102
RTVSPost2010Prop51ColorIndex
 90
      256
102
RTVSPost2010Prop51ColorRGB
 90
-16777216
102
RTVSPost2010PropOp51
 70
     0
102
RTVSPost2010Prop52
140
1.0
102
RTVSPost2010PropOp52
 70
     0
102
RTVSPost2010Prop53
 90
        2
102
RTVSPost2010PropOp53
 70
     1
102
RTVSPost2010Prop54
  1
strokes_ogs.tif
102
RTVSPost2010PropOp54
 70
     1
102
RTVSPost2010Prop55
280
     0
102
RTVSPost2010PropOp55
 70
     1
102
RTVSPost2010Prop56
140
1.0
102
RTVSPost2010PropOp56
 70
     1
102
RTVSPost2010Prop57
140
1.0
102
RTVSPost2010PropOp57
 70
     1
  0
XRECORD
  5
4BF
102
{ACAD_REACTORS
330
4BE
102
}
330
4BE
100
AcDbXrecord
280
     1
102
RTVSPropertyOp0
 70
     0
102
RTVSPropertyOp1
 70
     0
102
RTVSPropertyOp2
 70
     0
102
RTVSPropertyOp3
 70
     0
102
RTVSPropertyOp4
 70
     0
102
RTVSPropertyOp5
 70
     0
102
RTVSPropertyOp6
 70
     0
102
RTVSPropertyOp7
 70
     0
102
RTVSPropertyOp8
 70
     0
102
RTVSPropertyOp9
 70
     0
102
RTVSPropertyOp10
 70
     0
102
RTVSPropertyOp11
 70
     0
102
RTVSPropertyOp12
 70
     0
102
RTVSPropertyOp13
 70
     0
102
RTVSPropertyOp14
 70
     2
102
RTVSPropertyOp15
 70
     0
102
RTVSPropertyOp16
 70
     0
102
RTVSPropertyOp17
 70
     0
102
RTVSPropertyOp18
 70
     0
102
RTVSPropertyOp19
 70
     0
102
RTVSPropertyOp20
 70
     0
102
RTVSPropertyOp21
 70
     0
102
RTVSPropertyOp22
 70
     0
102
RTVSPropertyOp23
 70
     0
102
RTVSPropertyOp24
 70
     0
102
RTVSPropertyOp25
 70
     0
102
RTVSPropertyOp26
 70
     0
102
RTVSPropertyOp27
 70
     0
102
RTVSPropertyOp28
 70
     0
102
RTVSPropertyOp29
 70
     0
102
RTVSPropertyOp30
 70
     0
102
RTVSPropertyOp31
 70
     0
102
RTVSPropertyOp32
 70
     0
102
RTVSPropertyOp33
 70
     0
102
RTVSPropertyOp34
 70
     0
102
RTVSPropertyOp35
 70
     0
102
RTVSPropertyOp36
 70
     0
102
RTVSPropertyOp37
 70
     0
102
RTVSPropertyOp38
 70
     0
102
RTVSPropertyOp39
 70
     0
102
RTVSPropertyOp40
 70
     0
102
RTVSPropertyOp41
 70
     0
102
RTVSPropertyOp42
 70
     0
102
RTVSPropertyOp43
 70
     0
102
RTVSPropertyOp44
 70
     0
102
RTVSPropertyOp45
 70
     0
102
RTVSPropertyOp46
 70
     0
102
RTVSPropertyOp47
 70
     0
102
RTVSPropertyOp48
 70
     0
102
RTVSPropertyOp49
 70
     0
102
RTVSPropertyOp50
 70
     0
102
RTVSPropertyOp51
 70
     0
102
RTVSPropertyOp52
 70
     0
102
RTVSPropertyOp53
 70
     0
102
RTVSPropertyOp54
 70
     0
102
RTVSPropertyOp55
 70
     0
102
RTVSPropertyOp56
 70
     0
102
RTVSPropertyOp57
 70
     0
102
RTVSPost2010Prop28
280
     0
102
RTVSPost2010PropOp28
 70
     0
102
RTVSPost2010Prop29
280
     1
102
RTVSPost2010PropOp29
 70
     0
102
RTVSPost2010Prop30
280
     1
102
RTVSPost2010PropOp30
 70
     0
102
RTVSPost2010Prop31
280
     0
102
RTVSPost2010PropOp31
 70
     0
102
RTVSPost2010Prop32
280
     0
102
RTVSPost2010PropOp32
 70
     0
102
RTVSPost2010Prop33
280
     0
102
RTVSPost2010PropOp33
 70
     0
102
RTVSPost2010Prop34
280
     0
102
RTVSPost2010PropOp34
 70
     0
102
RTVSPost2010Prop35
280
     0
102
RTVSPost2010PropOp35
 70
     0
102
RTVSPost2010Prop36
280
     0
102
RTVSPost2010PropOp36
 70
     0
102
RTVSPost2010Prop37
 90
       50
102
RTVSPost2010PropOp37
 70
     0
102
RTVSPost2010Prop38
140
0.0
102
RTVSPost2010PropOp38
 70
     0
102
RTVSPost2010Prop39
140
1.0
102
RTVSPost2010PropOp39
 70
     0
102
RTVSPost2010Prop40
 90
        0
102
RTVSPost2010PropOp40
 70
     0
102
RTVSPost2010Prop41ColorIndex
 90
      178
102
RTVSPost2010Prop41ColorRGB
 90
        0
102
RTVSPost2010PropOp41
 70
     0
102
RTVSPost2010Prop42
 90
       50
102
RTVSPost2010PropOp42
 70
     0
102
RTVSPost2010Prop43
 90
        3
102
RTVSPost2010PropOp43
 70
     0
102
RTVSPost2010Prop44ColorIndex
 90
        5
102
RTVSPost2010Prop44ColorRGB
 90
      255
102
RTVSPost2010PropOp44
 70
     0
102
RTVSPost2010Prop45
280
     0
102
RTVSPost2010PropOp45
 70
     0
102
RTVSPost2010Prop46
 90
       50
102
RTVSPost2010PropOp46
 70
     0
102
RTVSPost2010Prop47
 90
       50
102
RTVSPost2010PropOp47
 70
     0
102
RTVSPost2010Prop48
 90
       50
102
RTVSPost2010PropOp48
 70
     0
102
RTVSPost2010Prop49
280
     0
102
RTVSPost2010PropOp49
 70
     0
102
RTVSPost2010Prop50
 90
       50
102
RTVSPost2010PropOp50
 70
     0
102
RTVSPost2010Prop51ColorIndex
 90
      256
102
RTVSPost2010Prop51ColorRGB
 90
-16777216
102
RTVSPost2010PropOp51
 70
     0
102
RTVSPost2010Prop52
140
1.0
102
RTVSPost2010PropOp52
 70
     0
102
RTVSPost2010Prop53
 90
        2
102
RTVSPost2010PropOp53
 70
     0
102
RTVSPost2010Prop54
  1
strokes_ogs.tif
102
RTVSPost2010PropOp54
 70
     0
102
RTVSPost2010Prop55
280
     0
102
RTVSPost2010PropOp55
 70
     0
102
RTVSPost2010Prop56
140
1.0
102
RTVSPost2010PropOp56
 70
     0
102
RTVSPost2010Prop57
140
1.0
102
RTVSPost2010PropOp57
 70
     0
  0
XRECORD
  5
4B7
102
{ACAD_REACTORS
330
4B6
102
}
330
4B6
100
AcDbXrecord
280
     1
102
RTVSPropertyOp0
 70
     1
102
RTVSPropertyOp1
 70
     1
102
RTVSPropertyOp2
 70
     1
102
RTVSPropertyOp3
 70
     1
102
RTVSPropertyOp4
 70
     1
102
RTVSPropertyOp5
 70
     1
102
RTVSPropertyOp6
 70
     1
102
RTVSPropertyOp7
 70
     1
102
RTVSPropertyOp8
 70
     1
102
RTVSPropertyOp9
 70
     1
102
RTVSPropertyOp10
 70
     1
102
RTVSPropertyOp11
 70
     1
102
RTVSPropertyOp12
 70
     1
102
RTVSPropertyOp13
 70
     1
102
RTVSPropertyOp14
 70
     1
102
RTVSPropertyOp15
 70
     1
102
RTVSPropertyOp16
 70
     1
102
RTVSPropertyOp17
 70
     1
102
RTVSPropertyOp18
 70
     1
102
RTVSPropertyOp19
 70
     1
102
RTVSPropertyOp20
 70
     1
102
RTVSPropertyOp21
 70
     1
102
RTVSPropertyOp22
 70
     1
102
RTVSPropertyOp23
 70
     1
102
RTVSPropertyOp24
 70
     1
102
RTVSPropertyOp25
 70
     1
102
RTVSPropertyOp26
 70
     1
102
RTVSPropertyOp27
 70
     1
102
RTVSPropertyOp28
 70
     1
102
RTVSPropertyOp29
 70
     1
102
RTVSPropertyOp30
 70
     1
102
RTVSPropertyOp31
 70
     1
102
RTVSPropertyOp32
 70
     1
102
RTVSPropertyOp33
 70
     1
102
RTVSPropertyOp34
 70
     1
102
RTVSPropertyOp35
 70
     1
102
RTVSPropertyOp36
 70
     1
102
RTVSPropertyOp37
 70
     1
102
RTVSPropertyOp38
 70
     1
102
RTVSPropertyOp39
 70
     1
102
RTVSPropertyOp40
 70
     1
102
RTVSPropertyOp41
 70
     1
102
RTVSPropertyOp42
 70
     1
102
RTVSPropertyOp43
 70
     1
102
RTVSPropertyOp44
 70
     1
102
RTVSPropertyOp45
 70
     1
102
RTVSPropertyOp46
 70
     1
102
RTVSPropertyOp47
 70
     1
102
RTVSPropertyOp48
 70
     1
102
RTVSPropertyOp49
 70
     1
102
RTVSPropertyOp50
 70
     1
102
RTVSPropertyOp51
 70
     0
102
RTVSPropertyOp52
 70
     0
102
RTVSPropertyOp53
 70
     1
102
RTVSPropertyOp54
 70
     1
102
RTVSPropertyOp55
 70
     1
102
RTVSPropertyOp56
 70
     1
102
RTVSPropertyOp57
 70
     1
102
RTVSPost2010Prop28
280
     0
102
RTVSPost2010PropOp28
 70
     1
102
RTVSPost2010Prop29
280
     1
102
RTVSPost2010PropOp29
 70
     1
102
RTVSPost2010Prop30
280
     1
102
RTVSPost2010PropOp30
 70
     1
102
RTVSPost2010Prop31
280
     0
102
RTVSPost2010PropOp31
 70
     1
102
RTVSPost2010Prop32
280
     0
102
RTVSPost2010PropOp32
 70
     1
102
RTVSPost2010Prop33
280
     0
102
RTVSPost2010PropOp33
 70
     1
102
RTVSPost2010Prop34
280
     0
102
RTVSPost2010PropOp34
 70
     1
102
RTVSPost2010Prop35
280
     0
102
RTVSPost2010PropOp35
 70
     1
102
RTVSPost2010Prop36
280
     0
102
RTVSPost2010PropOp36
 70
     1
102
RTVSPost2010Prop37
 90
       50
102
RTVSPost2010PropOp37
 70
     1
102
RTVSPost2010Prop38
140
0.0
102
RTVSPost2010PropOp38
 70
     1
102
RTVSPost2010Prop39
140
1.0
102
RTVSPost2010PropOp39
 70
     1
102
RTVSPost2010Prop40
 90
        0
102
RTVSPost2010PropOp40
 70
     1
102
RTVSPost2010Prop41ColorIndex
 90
      178
102
RTVSPost2010Prop41ColorRGB
 90
        0
102
RTVSPost2010PropOp41
 70
     1
102
RTVSPost2010Prop42
 90
       50
102
RTVSPost2010PropOp42
 70
     1
102
RTVSPost2010Prop43
 90
        3
102
RTVSPost2010PropOp43
 70
     1
102
RTVSPost2010Prop44ColorIndex
 90
        5
102
RTVSPost2010Prop44ColorRGB
 90
      255
102
RTVSPost2010PropOp44
 70
     1
102
RTVSPost2010Prop45
280
     0
102
RTVSPost2010PropOp45
 70
     1
102
RTVSPost2010Prop46
 90
       50
102
RTVSPost2010PropOp46
 70
     1
102
RTVSPost2010Prop47
 90
       50
102
RTVSPost2010PropOp47
 70
     1
102
RTVSPost2010Prop48
 90
       50
102
RTVSPost2010PropOp48
 70
     1
102
RTVSPost2010Prop49
280
     0
102
RTVSPost2010PropOp49
 70
     1
102
RTVSPost2010Prop50
 90
       50
102
RTVSPost2010PropOp50
 70
     1
102
RTVSPost2010Prop51ColorIndex
 90
      256
102
RTVSPost2010Prop51ColorRGB
 90
-16777216
102
RTVSPost2010PropOp51
 70
     0
102
RTVSPost2010Prop52
140
1.0
102
RTVSPost2010PropOp52
 70
     0
102
RTVSPost2010Prop53
 90
        2
102
RTVSPost2010PropOp53
 70
     1
102
RTVSPost2010Prop54
  1
strokes_ogs.tif
102
RTVSPost2010PropOp54
 70
     1
102
RTVSPost2010Prop55
280
     0
102
RTVSPost2010PropOp55
 70
     1
102
RTVSPost2010Prop56
140
1.0
102
RTVSPost2010PropOp56
 70
     1
102
RTVSPost2010Prop57
140
1.0
102
RTVSPost2010PropOp57
 70
     1
  0
XRECORD
  5
49B
102
{ACAD_REACTORS
330
49A
102
}
330
49A
100
AcDbXrecord
280
     1
102
RTVSPropertyOp0
 70
     1
102
RTVSPropertyOp1
 70
     1
102
RTVSPropertyOp2
 70
     1
102
RTVSPropertyOp3
 70
     1
102
RTVSPropertyOp4
 70
     1
102
RTVSPropertyOp5
 70
     1
102
RTVSPropertyOp6
 70
     1
102
RTVSPropertyOp7
 70
     1
102
RTVSPropertyOp8
 70
     1
102
RTVSPropertyOp9
 70
     1
102
RTVSPropertyOp10
 70
     1
102
RTVSPropertyOp11
 70
     1
102
RTVSPropertyOp12
 70
     1
102
RTVSPropertyOp13
 70
     1
102
RTVSPropertyOp14
 70
     1
102
RTVSPropertyOp15
 70
     1
102
RTVSPropertyOp16
 70
     1
102
RTVSPropertyOp17
 70
     1
102
RTVSPropertyOp18
 70
     1
102
RTVSPropertyOp19
 70
     1
102
RTVSPropertyOp20
 70
     1
102
RTVSPropertyOp21
 70
     1
102
RTVSPropertyOp22
 70
     1
102
RTVSPropertyOp23
 70
     1
102
RTVSPropertyOp24
 70
     1
102
RTVSPropertyOp25
 70
     1
102
RTVSPropertyOp26
 70
     1
102
RTVSPropertyOp27
 70
     1
102
RTVSPropertyOp28
 70
     1
102
RTVSPropertyOp29
 70
     1
102
RTVSPropertyOp30
 70
     1
102
RTVSPropertyOp31
 70
     1
102
RTVSPropertyOp32
 70
     1
102
RTVSPropertyOp33
 70
     1
102
RTVSPropertyOp34
 70
     1
102
RTVSPropertyOp35
 70
     1
102
RTVSPropertyOp36
 70
     1
102
RTVSPropertyOp37
 70
     1
102
RTVSPropertyOp38
 70
     1
102
RTVSPropertyOp39
 70
     1
102
RTVSPropertyOp40
 70
     1
102
RTVSPropertyOp41
 70
     1
102
RTVSPropertyOp42
 70
     1
102
RTVSPropertyOp43
 70
     1
102
RTVSPropertyOp44
 70
     1
102
RTVSPropertyOp45
 70
     1
102
RTVSPropertyOp46
 70
     1
102
RTVSPropertyOp47
 70
     1
102
RTVSPropertyOp48
 70
     1
102
RTVSPropertyOp49
 70
     1
102
RTVSPropertyOp50
 70
     1
102
RTVSPropertyOp51
 70
     0
102
RTVSPropertyOp52
 70
     0
102
RTVSPropertyOp53
 70
     1
102
RTVSPropertyOp54
 70
     1
102
RTVSPropertyOp55
 70
     1
102
RTVSPropertyOp56
 70
     1
102
RTVSPropertyOp57
 70
     1
102
RTVSPost2010Prop28
280
     0
102
RTVSPost2010PropOp28
 70
     1
102
RTVSPost2010Prop29
280
     1
102
RTVSPost2010PropOp29
 70
     1
102
RTVSPost2010Prop30
280
     1
102
RTVSPost2010PropOp30
 70
     1
102
RTVSPost2010Prop31
280
     0
102
RTVSPost2010PropOp31
 70
     1
102
RTVSPost2010Prop32
280
     0
102
RTVSPost2010PropOp32
 70
     1
102
RTVSPost2010Prop33
280
     0
102
RTVSPost2010PropOp33
 70
     1
102
RTVSPost2010Prop34
280
     0
102
RTVSPost2010PropOp34
 70
     1
102
RTVSPost2010Prop35
280
     0
102
RTVSPost2010PropOp35
 70
     1
102
RTVSPost2010Prop36
280
     0
102
RTVSPost2010PropOp36
 70
     1
102
RTVSPost2010Prop37
 90
       50
102
RTVSPost2010PropOp37
 70
     1
102
RTVSPost2010Prop38
140
0.0
102
RTVSPost2010PropOp38
 70
     1
102
RTVSPost2010Prop39
140
1.0
102
RTVSPost2010PropOp39
 70
     1
102
RTVSPost2010Prop40
 90
        0
102
RTVSPost2010PropOp40
 70
     1
102
RTVSPost2010Prop41ColorIndex
 90
      178
102
RTVSPost2010Prop41ColorRGB
 90
        0
102
RTVSPost2010PropOp41
 70
     1
102
RTVSPost2010Prop42
 90
       50
102
RTVSPost2010PropOp42
 70
     1
102
RTVSPost2010Prop43
 90
        3
102
RTVSPost2010PropOp43
 70
     1
102
RTVSPost2010Prop44ColorIndex
 90
        5
102
RTVSPost2010Prop44ColorRGB
 90
      255
102
RTVSPost2010PropOp44
 70
     1
102
RTVSPost2010Prop45
280
     0
102
RTVSPost2010PropOp45
 70
     1
102
RTVSPost2010Prop46
 90
       50
102
RTVSPost2010PropOp46
 70
     1
102
RTVSPost2010Prop47
 90
       50
102
RTVSPost2010PropOp47
 70
     1
102
RTVSPost2010Prop48
 90
       50
102
RTVSPost2010PropOp48
 70
     1
102
RTVSPost2010Prop49
280
     0
102
RTVSPost2010PropOp49
 70
     1
102
RTVSPost2010Prop50
 90
       50
102
RTVSPost2010PropOp50
 70
     1
102
RTVSPost2010Prop51ColorIndex
 90
      256
102
RTVSPost2010Prop51ColorRGB
 90
-16777216
102
RTVSPost2010PropOp51
 70
     0
102
RTVSPost2010Prop52
140
1.0
102
RTVSPost2010PropOp52
 70
     0
102
RTVSPost2010Prop53
 90
        2
102
RTVSPost2010PropOp53
 70
     1
102
RTVSPost2010Prop54
  1
strokes_ogs.tif
102
RTVSPost2010PropOp54
 70
     1
102
RTVSPost2010Prop55
280
     0
102
RTVSPost2010PropOp55
 70
     1
102
RTVSPost2010Prop56
140
1.0
102
RTVSPost2010PropOp56
 70
     1
102
RTVSPost2010Prop57
140
1.0
102
RTVSPost2010PropOp57
 70
     1
  0
XRECORD
  5
49D
102
{ACAD_REACTORS
330
49C
102
}
330
49C
100
AcDbXrecord
280
     1
102
RTVSPropertyOp0
 70
     1
102
RTVSPropertyOp1
 70
     1
102
RTVSPropertyOp2
 70
     1
102
RTVSPropertyOp3
 70
     1
102
RTVSPropertyOp4
 70
     1
102
RTVSPropertyOp5
 70
     1
102
RTVSPropertyOp6
 70
     1
102
RTVSPropertyOp7
 70
     1
102
RTVSPropertyOp8
 70
     1
102
RTVSPropertyOp9
 70
     1
102
RTVSPropertyOp10
 70
     1
102
RTVSPropertyOp11
 70
     1
102
RTVSPropertyOp12
 70
     1
102
RTVSPropertyOp13
 70
     1
102
RTVSPropertyOp14
 70
     1
102
RTVSPropertyOp15
 70
     1
102
RTVSPropertyOp16
 70
     1
102
RTVSPropertyOp17
 70
     1
102
RTVSPropertyOp18
 70
     1
102
RTVSPropertyOp19
 70
     1
102
RTVSPropertyOp20
 70
     1
102
RTVSPropertyOp21
 70
     1
102
RTVSPropertyOp22
 70
     1
102
RTVSPropertyOp23
 70
     1
102
RTVSPropertyOp24
 70
     1
102
RTVSPropertyOp25
 70
     1
102
RTVSPropertyOp26
 70
     1
102
RTVSPropertyOp27
 70
     1
102
RTVSPropertyOp28
 70
     1
102
RTVSPropertyOp29
 70
     1
102
RTVSPropertyOp30
 70
     1
102
RTVSPropertyOp31
 70
     1
102
RTVSPropertyOp32
 70
     1
102
RTVSPropertyOp33
 70
     1
102
RTVSPropertyOp34
 70
     1
102
RTVSPropertyOp35
 70
     1
102
RTVSPropertyOp36
 70
     1
102
RTVSPropertyOp37
 70
     1
102
RTVSPropertyOp38
 70
     1
102
RTVSPropertyOp39
 70
     1
102
RTVSPropertyOp40
 70
     1
102
RTVSPropertyOp41
 70
     1
102
RTVSPropertyOp42
 70
     1
102
RTVSPropertyOp43
 70
     1
102
RTVSPropertyOp44
 70
     1
102
RTVSPropertyOp45
 70
     1
102
RTVSPropertyOp46
 70
     1
102
RTVSPropertyOp47
 70
     1
102
RTVSPropertyOp48
 70
     1
102
RTVSPropertyOp49
 70
     1
102
RTVSPropertyOp50
 70
     1
102
RTVSPropertyOp51
 70
     0
102
RTVSPropertyOp52
 70
     0
102
RTVSPropertyOp53
 70
     1
102
RTVSPropertyOp54
 70
     1
102
RTVSPropertyOp55
 70
     1
102
RTVSPropertyOp56
 70
     1
102
RTVSPropertyOp57
 70
     1
102
RTVSPost2010Prop28
280
     0
102
RTVSPost2010PropOp28
 70
     1
102
RTVSPost2010Prop29
280
     1
102
RTVSPost2010PropOp29
 70
     1
102
RTVSPost2010Prop30
280
     1
102
RTVSPost2010PropOp30
 70
     1
102
RTVSPost2010Prop31
280
     0
102
RTVSPost2010PropOp31
 70
     1
102
RTVSPost2010Prop32
280
     0
102
RTVSPost2010PropOp32
 70
     1
102
RTVSPost2010Prop33
280
     0
102
RTVSPost2010PropOp33
 70
     1
102
RTVSPost2010Prop34
280
     0
102
RTVSPost2010PropOp34
 70
     1
102
RTVSPost2010Prop35
280
     0
102
RTVSPost2010PropOp35
 70
     1
102
RTVSPost2010Prop36
280
     0
102
RTVSPost2010PropOp36
 70
     1
102
RTVSPost2010Prop37
 90
       50
102
RTVSPost2010PropOp37
 70
     1
102
RTVSPost2010Prop38
140
0.0
102
RTVSPost2010PropOp38
 70
     1
102
RTVSPost2010Prop39
140
1.0
102
RTVSPost2010PropOp39
 70
     1
102
RTVSPost2010Prop40
 90
        0
102
RTVSPost2010PropOp40
 70
     1
102
RTVSPost2010Prop41ColorIndex
 90
      178
102
RTVSPost2010Prop41ColorRGB
 90
        0
102
RTVSPost2010PropOp41
 70
     1
102
RTVSPost2010Prop42
 90
       50
102
RTVSPost2010PropOp42
 70
     1
102
RTVSPost2010Prop43
 90
        3
102
RTVSPost2010PropOp43
 70
     1
102
RTVSPost2010Prop44ColorIndex
 90
        5
102
RTVSPost2010Prop44ColorRGB
 90
      255
102
RTVSPost2010PropOp44
 70
     1
102
RTVSPost2010Prop45
280
     0
102
RTVSPost2010PropOp45
 70
     1
102
RTVSPost2010Prop46
 90
       50
102
RTVSPost2010PropOp46
 70
     1
102
RTVSPost2010Prop47
 90
       50
102
RTVSPost2010PropOp47
 70
     1
102
RTVSPost2010Prop48
 90
       50
102
RTVSPost2010PropOp48
 70
     1
102
RTVSPost2010Prop49
280
     0
102
RTVSPost2010PropOp49
 70
     1
102
RTVSPost2010Prop50
 90
       50
102
RTVSPost2010PropOp50
 70
     1
102
RTVSPost2010Prop51ColorIndex
 90
      256
102
RTVSPost2010Prop51ColorRGB
 90
-16777216
102
RTVSPost2010PropOp51
 70
     0
102
RTVSPost2010Prop52
140
1.0
102
RTVSPost2010PropOp52
 70
     0
102
RTVSPost2010Prop53
 90
        2
102
RTVSPost2010PropOp53
 70
     1
102
RTVSPost2010Prop54
  1
strokes_ogs.tif
102
RTVSPost2010PropOp54
 70
     1
102
RTVSPost2010Prop55
280
     0
102
RTVSPost2010PropOp55
 70
     1
102
RTVSPost2010Prop56
140
1.0
102
RTVSPost2010PropOp56
 70
     1
102
RTVSPost2010Prop57
140
1.0
102
RTVSPost2010PropOp57
 70
     1
  0
XRECORD
  5
49F
102
{ACAD_REACTORS
330
49E
102
}
330
49E
100
AcDbXrecord
280
     1
102
RTVSPropertyOp0
 70
     1
102
RTVSPropertyOp1
 70
     1
102
RTVSPropertyOp2
 70
     1
102
RTVSPropertyOp3
 70
     1
102
RTVSPropertyOp4
 70
     1
102
RTVSPropertyOp5
 70
     1
102
RTVSPropertyOp6
 70
     1
102
RTVSPropertyOp7
 70
     1
102
RTVSPropertyOp8
 70
     1
102
RTVSPropertyOp9
 70
     1
102
RTVSPropertyOp10
 70
     1
102
RTVSPropertyOp11
 70
     1
102
RTVSPropertyOp12
 70
     1
102
RTVSPropertyOp13
 70
     1
102
RTVSPropertyOp14
 70
     1
102
RTVSPropertyOp15
 70
     1
102
RTVSPropertyOp16
 70
     1
102
RTVSPropertyOp17
 70
     1
102
RTVSPropertyOp18
 70
     1
102
RTVSPropertyOp19
 70
     1
102
RTVSPropertyOp20
 70
     1
102
RTVSPropertyOp21
 70
     1
102
RTVSPropertyOp22
 70
     1
102
RTVSPropertyOp23
 70
     1
102
RTVSPropertyOp24
 70
     1
102
RTVSPropertyOp25
 70
     1
102
RTVSPropertyOp26
 70
     1
102
RTVSPropertyOp27
 70
     1
102
RTVSPropertyOp28
 70
     1
102
RTVSPropertyOp29
 70
     1
102
RTVSPropertyOp30
 70
     1
102
RTVSPropertyOp31
 70
     1
102
RTVSPropertyOp32
 70
     1
102
RTVSPropertyOp33
 70
     1
102
RTVSPropertyOp34
 70
     1
102
RTVSPropertyOp35
 70
     1
102
RTVSPropertyOp36
 70
     1
102
RTVSPropertyOp37
 70
     1
102
RTVSPropertyOp38
 70
     1
102
RTVSPropertyOp39
 70
     1
102
RTVSPropertyOp40
 70
     1
102
RTVSPropertyOp41
 70
     1
102
RTVSPropertyOp42
 70
     1
102
RTVSPropertyOp43
 70
     1
102
RTVSPropertyOp44
 70
     1
102
RTVSPropertyOp45
 70
     1
102
RTVSPropertyOp46
 70
     1
102
RTVSPropertyOp47
 70
     1
102
RTVSPropertyOp48
 70
     1
102
RTVSPropertyOp49
 70
     1
102
RTVSPropertyOp50
 70
     1
102
RTVSPropertyOp51
 70
     0
102
RTVSPropertyOp52
 70
     0
102
RTVSPropertyOp53
 70
     1
102
RTVSPropertyOp54
 70
     1
102
RTVSPropertyOp55
 70
     1
102
RTVSPropertyOp56
 70
     1
102
RTVSPropertyOp57
 70
     1
102
RTVSPost2010Prop28
280
     0
102
RTVSPost2010PropOp28
 70
     1
102
RTVSPost2010Prop29
280
     1
102
RTVSPost2010PropOp29
 70
     1
102
RTVSPost2010Prop30
280
     1
102
RTVSPost2010PropOp30
 70
     1
102
RTVSPost2010Prop31
280
     0
102
RTVSPost2010PropOp31
 70
     1
102
RTVSPost2010Prop32
280
     0
102
RTVSPost2010PropOp32
 70
     1
102
RTVSPost2010Prop33
280
     0
102
RTVSPost2010PropOp33
 70
     1
102
RTVSPost2010Prop34
280
     0
102
RTVSPost2010PropOp34
 70
     1
102
RTVSPost2010Prop35
280
     0
102
RTVSPost2010PropOp35
 70
     1
102
RTVSPost2010Prop36
280
     0
102
RTVSPost2010PropOp36
 70
     1
102
RTVSPost2010Prop37
 90
       50
102
RTVSPost2010PropOp37
 70
     1
102
RTVSPost2010Prop38
140
0.0
102
RTVSPost2010PropOp38
 70
     1
102
RTVSPost2010Prop39
140
1.0
102
RTVSPost2010PropOp39
 70
     1
102
RTVSPost2010Prop40
 90
        0
102
RTVSPost2010PropOp40
 70
     1
102
RTVSPost2010Prop41ColorIndex
 90
      178
102
RTVSPost2010Prop41ColorRGB
 90
        0
102
RTVSPost2010PropOp41
 70
     1
102
RTVSPost2010Prop42
 90
       50
102
RTVSPost2010PropOp42
 70
     1
102
RTVSPost2010Prop43
 90
        3
102
RTVSPost2010PropOp43
 70
     1
102
RTVSPost2010Prop44ColorIndex
 90
        5
102
RTVSPost2010Prop44ColorRGB
 90
      255
102
RTVSPost2010PropOp44
 70
     1
102
RTVSPost2010Prop45
280
     0
102
RTVSPost2010PropOp45
 70
     1
102
RTVSPost2010Prop46
 90
       50
102
RTVSPost2010PropOp46
 70
     1
102
RTVSPost2010Prop47
 90
       50
102
RTVSPost2010PropOp47
 70
     1
102
RTVSPost2010Prop48
 90
       50
102
RTVSPost2010PropOp48
 70
     1
102
RTVSPost2010Prop49
280
     0
102
RTVSPost2010PropOp49
 70
     1
102
RTVSPost2010Prop50
 90
       50
102
RTVSPost2010PropOp50
 70
     1
102
RTVSPost2010Prop51ColorIndex
 90
      256
102
RTVSPost2010Prop51ColorRGB
 90
-16777216
102
RTVSPost2010PropOp51
 70
     0
102
RTVSPost2010Prop52
140
1.0
102
RTVSPost2010PropOp52
 70
     0
102
RTVSPost2010Prop53
 90
        2
102
RTVSPost2010PropOp53
 70
     1
102
RTVSPost2010Prop54
  1
strokes_ogs.tif
102
RTVSPost2010PropOp54
 70
     1
102
RTVSPost2010Prop55
280
     0
102
RTVSPost2010PropOp55
 70
     1
102
RTVSPost2010Prop56
140
1.0
102
RTVSPost2010PropOp56
 70
     1
102
RTVSPost2010Prop57
140
1.0
102
RTVSPost2010PropOp57
 70
     1
  0
XRECORD
  5
4A1
102
{ACAD_REACTORS
330
4A0
102
}
330
4A0
100
AcDbXrecord
280
     1
102
RTVSPropertyOp0
 70
     1
102
RTVSPropertyOp1
 70
     1
102
RTVSPropertyOp2
 70
     1
102
RTVSPropertyOp3
 70
     1
102
RTVSPropertyOp4
 70
     1
102
RTVSPropertyOp5
 70
     1
102
RTVSPropertyOp6
 70
     1
102
RTVSPropertyOp7
 70
     1
102
RTVSPropertyOp8
 70
     1
102
RTVSPropertyOp9
 70
     1
102
RTVSPropertyOp10
 70
     1
102
RTVSPropertyOp11
 70
     1
102
RTVSPropertyOp12
 70
     1
102
RTVSPropertyOp13
 70
     1
102
RTVSPropertyOp14
 70
     1
102
RTVSPropertyOp15
 70
     1
102
RTVSPropertyOp16
 70
     1
102
RTVSPropertyOp17
 70
     1
102
RTVSPropertyOp18
 70
     1
102
RTVSPropertyOp19
 70
     1
102
RTVSPropertyOp20
 70
     1
102
RTVSPropertyOp21
 70
     1
102
RTVSPropertyOp22
 70
     1
102
RTVSPropertyOp23
 70
     1
102
RTVSPropertyOp24
 70
     1
102
RTVSPropertyOp25
 70
     1
102
RTVSPropertyOp26
 70
     1
102
RTVSPropertyOp27
 70
     1
102
RTVSPropertyOp28
 70
     1
102
RTVSPropertyOp29
 70
     1
102
RTVSPropertyOp30
 70
     1
102
RTVSPropertyOp31
 70
     1
102
RTVSPropertyOp32
 70
     1
102
RTVSPropertyOp33
 70
     1
102
RTVSPropertyOp34
 70
     1
102
RTVSPropertyOp35
 70
     1
102
RTVSPropertyOp36
 70
     1
102
RTVSPropertyOp37
 70
     1
102
RTVSPropertyOp38
 70
     1
102
RTVSPropertyOp39
 70
     1
102
RTVSPropertyOp40
 70
     1
102
RTVSPropertyOp41
 70
     1
102
RTVSPropertyOp42
 70
     1
102
RTVSPropertyOp43
 70
     1
102
RTVSPropertyOp44
 70
     1
102
RTVSPropertyOp45
 70
     1
102
RTVSPropertyOp46
 70
     1
102
RTVSPropertyOp47
 70
     1
102
RTVSPropertyOp48
 70
     1
102
RTVSPropertyOp49
 70
     1
102
RTVSPropertyOp50
 70
     1
102
RTVSPropertyOp51
 70
     0
102
RTVSPropertyOp52
 70
     0
102
RTVSPropertyOp53
 70
     1
102
RTVSPropertyOp54
 70
     1
102
RTVSPropertyOp55
 70
     1
102
RTVSPropertyOp56
 70
     1
102
RTVSPropertyOp57
 70
     1
102
RTVSPost2010Prop28
280
     0
102
RTVSPost2010PropOp28
 70
     1
102
RTVSPost2010Prop29
280
     1
102
RTVSPost2010PropOp29
 70
     1
102
RTVSPost2010Prop30
280
     1
102
RTVSPost2010PropOp30
 70
     1
102
RTVSPost2010Prop31
280
     0
102
RTVSPost2010PropOp31
 70
     1
102
RTVSPost2010Prop32
280
     0
102
RTVSPost2010PropOp32
 70
     1
102
RTVSPost2010Prop33
280
     0
102
RTVSPost2010PropOp33
 70
     1
102
RTVSPost2010Prop34
280
     0
102
RTVSPost2010PropOp34
 70
     1
102
RTVSPost2010Prop35
280
     0
102
RTVSPost2010PropOp35
 70
     1
102
RTVSPost2010Prop36
280
     0
102
RTVSPost2010PropOp36
 70
     1
102
RTVSPost2010Prop37
 90
       50
102
RTVSPost2010PropOp37
 70
     1
102
RTVSPost2010Prop38
140
0.0
102
RTVSPost2010PropOp38
 70
     1
102
RTVSPost2010Prop39
140
1.0
102
RTVSPost2010PropOp39
 70
     1
102
RTVSPost2010Prop40
 90
        0
102
RTVSPost2010PropOp40
 70
     1
102
RTVSPost2010Prop41ColorIndex
 90
      178
102
RTVSPost2010Prop41ColorRGB
 90
        0
102
RTVSPost2010PropOp41
 70
     1
102
RTVSPost2010Prop42
 90
       50
102
RTVSPost2010PropOp42
 70
     1
102
RTVSPost2010Prop43
 90
        3
102
RTVSPost2010PropOp43
 70
     1
102
RTVSPost2010Prop44ColorIndex
 90
        5
102
RTVSPost2010Prop44ColorRGB
 90
      255
102
RTVSPost2010PropOp44
 70
     1
102
RTVSPost2010Prop45
280
     0
102
RTVSPost2010PropOp45
 70
     1
102
RTVSPost2010Prop46
 90
       50
102
RTVSPost2010PropOp46
 70
     1
102
RTVSPost2010Prop47
 90
       50
102
RTVSPost2010PropOp47
 70
     1
102
RTVSPost2010Prop48
 90
       50
102
RTVSPost2010PropOp48
 70
     1
102
RTVSPost2010Prop49
280
     0
102
RTVSPost2010PropOp49
 70
     1
102
RTVSPost2010Prop50
 90
       50
102
RTVSPost2010PropOp50
 70
     1
102
RTVSPost2010Prop51ColorIndex
 90
      256
102
RTVSPost2010Prop51ColorRGB
 90
-16777216
102
RTVSPost2010PropOp51
 70
     0
102
RTVSPost2010Prop52
140
1.0
102
RTVSPost2010PropOp52
 70
     0
102
RTVSPost2010Prop53
 90
        2
102
RTVSPost2010PropOp53
 70
     1
102
RTVSPost2010Prop54
  1
strokes_ogs.tif
102
RTVSPost2010PropOp54
 70
     1
102
RTVSPost2010Prop55
280
     0
102
RTVSPost2010PropOp55
 70
     1
102
RTVSPost2010Prop56
140
1.0
102
RTVSPost2010PropOp56
 70
     1
102
RTVSPost2010Prop57
140
1.0
102
RTVSPost2010PropOp57
 70
     1
  0
XRECORD
  5
4A7
102
{ACAD_REACTORS
330
4A6
102
}
330
4A6
100
AcDbXrecord
280
     1
102
RTVSPropertyOp0
 70
     1
102
RTVSPropertyOp1
 70
     1
102
RTVSPropertyOp2
 70
     1
102
RTVSPropertyOp3
 70
     1
102
RTVSPropertyOp4
 70
     1
102
RTVSPropertyOp5
 70
     1
102
RTVSPropertyOp6
 70
     1
102
RTVSPropertyOp7
 70
     1
102
RTVSPropertyOp8
 70
     1
102
RTVSPropertyOp9
 70
     1
102
RTVSPropertyOp10
 70
     1
102
RTVSPropertyOp11
 70
     1
102
RTVSPropertyOp12
 70
     1
102
RTVSPropertyOp13
 70
     1
102
RTVSPropertyOp14
 70
     1
102
RTVSPropertyOp15
 70
     1
102
RTVSPropertyOp16
 70
     1
102
RTVSPropertyOp17
 70
     1
102
RTVSPropertyOp18
 70
     1
102
RTVSPropertyOp19
 70
     1
102
RTVSPropertyOp20
 70
     1
102
RTVSPropertyOp21
 70
     1
102
RTVSPropertyOp22
 70
     1
102
RTVSPropertyOp23
 70
     1
102
RTVSPropertyOp24
 70
     1
102
RTVSPropertyOp25
 70
     1
102
RTVSPropertyOp26
 70
     1
102
RTVSPropertyOp27
 70
     1
102
RTVSPropertyOp28
 70
     1
102
RTVSPropertyOp29
 70
     1
102
RTVSPropertyOp30
 70
     1
102
RTVSPropertyOp31
 70
     1
102
RTVSPropertyOp32
 70
     1
102
RTVSPropertyOp33
 70
     1
102
RTVSPropertyOp34
 70
     1
102
RTVSPropertyOp35
 70
     1
102
RTVSPropertyOp36
 70
     1
102
RTVSPropertyOp37
 70
     1
102
RTVSPropertyOp38
 70
     1
102
RTVSPropertyOp39
 70
     1
102
RTVSPropertyOp40
 70
     1
102
RTVSPropertyOp41
 70
     1
102
RTVSPropertyOp42
 70
     1
102
RTVSPropertyOp43
 70
     1
102
RTVSPropertyOp44
 70
     1
102
RTVSPropertyOp45
 70
     1
102
RTVSPropertyOp46
 70
     1
102
RTVSPropertyOp47
 70
     1
102
RTVSPropertyOp48
 70
     1
102
RTVSPropertyOp49
 70
     1
102
RTVSPropertyOp50
 70
     1
102
RTVSPropertyOp51
 70
     0
102
RTVSPropertyOp52
 70
     0
102
RTVSPropertyOp53
 70
     1
102
RTVSPropertyOp54
 70
     1
102
RTVSPropertyOp55
 70
     1
102
RTVSPropertyOp56
 70
     1
102
RTVSPropertyOp57
 70
     1
102
RTVSPost2010Prop28
280
     0
102
RTVSPost2010PropOp28
 70
     1
102
RTVSPost2010Prop29
280
     1
102
RTVSPost2010PropOp29
 70
     1
102
RTVSPost2010Prop30
280
     1
102
RTVSPost2010PropOp30
 70
     1
102
RTVSPost2010Prop31
280
     0
102
RTVSPost2010PropOp31
 70
     1
102
RTVSPost2010Prop32
280
     0
102
RTVSPost2010PropOp32
 70
     1
102
RTVSPost2010Prop33
280
     0
102
RTVSPost2010PropOp33
 70
     1
102
RTVSPost2010Prop34
280
     0
102
RTVSPost2010PropOp34
 70
     1
102
RTVSPost2010Prop35
280
     0
102
RTVSPost2010PropOp35
 70
     1
102
RTVSPost2010Prop36
280
     0
102
RTVSPost2010PropOp36
 70
     1
102
RTVSPost2010Prop37
 90
       50
102
RTVSPost2010PropOp37
 70
     1
102
RTVSPost2010Prop38
140
0.0
102
RTVSPost2010PropOp38
 70
     1
102
RTVSPost2010Prop39
140
1.0
102
RTVSPost2010PropOp39
 70
     1
102
RTVSPost2010Prop40
 90
        0
102
RTVSPost2010PropOp40
 70
     1
102
RTVSPost2010Prop41ColorIndex
 90
      178
102
RTVSPost2010Prop41ColorRGB
 90
        0
102
RTVSPost2010PropOp41
 70
     1
102
RTVSPost2010Prop42
 90
       50
102
RTVSPost2010PropOp42
 70
     1
102
RTVSPost2010Prop43
 90
        3
102
RTVSPost2010PropOp43
 70
     1
102
RTVSPost2010Prop44ColorIndex
 90
        5
102
RTVSPost2010Prop44ColorRGB
 90
      255
102
RTVSPost2010PropOp44
 70
     1
102
RTVSPost2010Prop45
280
     0
102
RTVSPost2010PropOp45
 70
     1
102
RTVSPost2010Prop46
 90
       50
102
RTVSPost2010PropOp46
 70
     1
102
RTVSPost2010Prop47
 90
       50
102
RTVSPost2010PropOp47
 70
     1
102
RTVSPost2010Prop48
 90
       50
102
RTVSPost2010PropOp48
 70
     1
102
RTVSPost2010Prop49
280
     0
102
RTVSPost2010PropOp49
 70
     1
102
RTVSPost2010Prop50
 90
       50
102
RTVSPost2010PropOp50
 70
     1
102
RTVSPost2010Prop51ColorIndex
 90
      256
102
RTVSPost2010Prop51ColorRGB
 90
-16777216
102
RTVSPost2010PropOp51
 70
     0
102
RTVSPost2010Prop52
140
1.0
102
RTVSPost2010PropOp52
 70
     0
102
RTVSPost2010Prop53
 90
        2
102
RTVSPost2010PropOp53
 70
     1
102
RTVSPost2010Prop54
  1
strokes_ogs.tif
102
RTVSPost2010PropOp54
 70
     1
102
RTVSPost2010Prop55
280
     0
102
RTVSPost2010PropOp55
 70
     1
102
RTVSPost2010Prop56
140
1.0
102
RTVSPost2010PropOp56
 70
     1
102
RTVSPost2010Prop57
140
1.0
102
RTVSPost2010PropOp57
 70
     1
  0
XRECORD
  5
4BB
102
{ACAD_REACTORS
330
4BA
102
}
330
4BA
100
AcDbXrecord
280
     1
102
RTVSPropertyOp0
 70
     0
102
RTVSPropertyOp1
 70
     0
102
RTVSPropertyOp2
 70
     0
102
RTVSPropertyOp3
 70
     0
102
RTVSPropertyOp4
 70
     0
102
RTVSPropertyOp5
 70
     0
102
RTVSPropertyOp6
 70
     0
102
RTVSPropertyOp7
 70
     0
102
RTVSPropertyOp8
 70
     0
102
RTVSPropertyOp9
 70
     0
102
RTVSPropertyOp10
 70
     0
102
RTVSPropertyOp11
 70
     0
102
RTVSPropertyOp12
 70
     0
102
RTVSPropertyOp13
 70
     0
102
RTVSPropertyOp14
 70
     2
102
RTVSPropertyOp15
 70
     0
102
RTVSPropertyOp16
 70
     0
102
RTVSPropertyOp17
 70
     0
102
RTVSPropertyOp18
 70
     0
102
RTVSPropertyOp19
 70
     0
102
RTVSPropertyOp20
 70
     0
102
RTVSPropertyOp21
 70
     0
102
RTVSPropertyOp22
 70
     0
102
RTVSPropertyOp23
 70
     0
102
RTVSPropertyOp24
 70
     0
102
RTVSPropertyOp25
 70
     0
102
RTVSPropertyOp26
 70
     0
102
RTVSPropertyOp27
 70
     0
102
RTVSPropertyOp28
 70
     0
102
RTVSPropertyOp29
 70
     0
102
RTVSPropertyOp30
 70
     0
102
RTVSPropertyOp31
 70
     0
102
RTVSPropertyOp32
 70
     0
102
RTVSPropertyOp33
 70
     0
102
RTVSPropertyOp34
 70
     0
102
RTVSPropertyOp35
 70
     0
102
RTVSPropertyOp36
 70
     0
102
RTVSPropertyOp37
 70
     0
102
RTVSPropertyOp38
 70
     0
102
RTVSPropertyOp39
 70
     0
102
RTVSPropertyOp40
 70
     0
102
RTVSPropertyOp41
 70
     0
102
RTVSPropertyOp42
 70
     0
102
RTVSPropertyOp43
 70
     0
102
RTVSPropertyOp44
 70
     0
102
RTVSPropertyOp45
 70
     0
102
RTVSPropertyOp46
 70
     0
102
RTVSPropertyOp47
 70
     0
102
RTVSPropertyOp48
 70
     0
102
RTVSPropertyOp49
 70
     0
102
RTVSPropertyOp50
 70
     0
102
RTVSPropertyOp51
 70
     0
102
RTVSPropertyOp52
 70
     0
102
RTVSPropertyOp53
 70
     0
102
RTVSPropertyOp54
 70
     0
102
RTVSPropertyOp55
 70
     0
102
RTVSPropertyOp56
 70
     0
102
RTVSPropertyOp57
 70
     0
102
RTVSPost2010Prop28
280
     0
102
RTVSPost2010PropOp28
 70
     0
102
RTVSPost2010Prop29
280
     1
102
RTVSPost2010PropOp29
 70
     0
102
RTVSPost2010Prop30
280
     1
102
RTVSPost2010PropOp30
 70
     0
102
RTVSPost2010Prop31
280
     0
102
RTVSPost2010PropOp31
 70
     0
102
RTVSPost2010Prop32
280
     0
102
RTVSPost2010PropOp32
 70
     0
102
RTVSPost2010Prop33
280
     0
102
RTVSPost2010PropOp33
 70
     0
102
RTVSPost2010Prop34
280
     0
102
RTVSPost2010PropOp34
 70
     0
102
RTVSPost2010Prop35
280
     0
102
RTVSPost2010PropOp35
 70
     0
102
RTVSPost2010Prop36
280
     0
102
RTVSPost2010PropOp36
 70
     0
102
RTVSPost2010Prop37
 90
       50
102
RTVSPost2010PropOp37
 70
     0
102
RTVSPost2010Prop38
140
0.0
102
RTVSPost2010PropOp38
 70
     0
102
RTVSPost2010Prop39
140
1.0
102
RTVSPost2010PropOp39
 70
     0
102
RTVSPost2010Prop40
 90
        0
102
RTVSPost2010PropOp40
 70
     0
102
RTVSPost2010Prop41ColorIndex
 90
      178
102
RTVSPost2010Prop41ColorRGB
 90
        0
102
RTVSPost2010PropOp41
 70
     0
102
RTVSPost2010Prop42
 90
       50
102
RTVSPost2010PropOp42
 70
     0
102
RTVSPost2010Prop43
 90
        3
102
RTVSPost2010PropOp43
 70
     0
102
RTVSPost2010Prop44ColorIndex
 90
        5
102
RTVSPost2010Prop44ColorRGB
 90
      255
102
RTVSPost2010PropOp44
 70
     0
102
RTVSPost2010Prop45
280
     0
102
RTVSPost2010PropOp45
 70
     0
102
RTVSPost2010Prop46
 90
       50
102
RTVSPost2010PropOp46
 70
     0
102
RTVSPost2010Prop47
 90
       50
102
RTVSPost2010PropOp47
 70
     0
102
RTVSPost2010Prop48
 90
       50
102
RTVSPost2010PropOp48
 70
     0
102
RTVSPost2010Prop49
280
     0
102
RTVSPost2010PropOp49
 70
     0
102
RTVSPost2010Prop50
 90
       50
102
RTVSPost2010PropOp50
 70
     0
102
RTVSPost2010Prop51ColorIndex
 90
      256
102
RTVSPost2010Prop51ColorRGB
 90
-16777216
102
RTVSPost2010PropOp51
 70
     0
102
RTVSPost2010Prop52
140
1.0
102
RTVSPost2010PropOp52
 70
     0
102
RTVSPost2010Prop53
 90
        2
102
RTVSPost2010PropOp53
 70
     0
102
RTVSPost2010Prop54
  1
strokes_ogs.tif
102
RTVSPost2010PropOp54
 70
     0
102
RTVSPost2010Prop55
280
     0
102
RTVSPost2010PropOp55
 70
     0
102
RTVSPost2010Prop56
140
1.0
102
RTVSPost2010PropOp56
 70
     0
102
RTVSPost2010Prop57
140
1.0
102
RTVSPost2010PropOp57
 70
     0
  0
XRECORD
  5
4B5
102
{ACAD_REACTORS
330
4B4
102
}
330
4B4
100
AcDbXrecord
280
     1
102
RTVSPropertyOp0
 70
     1
102
RTVSPropertyOp1
 70
     1
102
RTVSPropertyOp2
 70
     1
102
RTVSPropertyOp3
 70
     1
102
RTVSPropertyOp4
 70
     1
102
RTVSPropertyOp5
 70
     1
102
RTVSPropertyOp6
 70
     1
102
RTVSPropertyOp7
 70
     1
102
RTVSPropertyOp8
 70
     1
102
RTVSPropertyOp9
 70
     1
102
RTVSPropertyOp10
 70
     1
102
RTVSPropertyOp11
 70
     1
102
RTVSPropertyOp12
 70
     1
102
RTVSPropertyOp13
 70
     1
102
RTVSPropertyOp14
 70
     1
102
RTVSPropertyOp15
 70
     1
102
RTVSPropertyOp16
 70
     1
102
RTVSPropertyOp17
 70
     1
102
RTVSPropertyOp18
 70
     1
102
RTVSPropertyOp19
 70
     1
102
RTVSPropertyOp20
 70
     1
102
RTVSPropertyOp21
 70
     1
102
RTVSPropertyOp22
 70
     1
102
RTVSPropertyOp23
 70
     1
102
RTVSPropertyOp24
 70
     1
102
RTVSPropertyOp25
 70
     1
102
RTVSPropertyOp26
 70
     1
102
RTVSPropertyOp27
 70
     1
102
RTVSPropertyOp28
 70
     1
102
RTVSPropertyOp29
 70
     1
102
RTVSPropertyOp30
 70
     1
102
RTVSPropertyOp31
 70
     1
102
RTVSPropertyOp32
 70
     1
102
RTVSPropertyOp33
 70
     1
102
RTVSPropertyOp34
 70
     1
102
RTVSPropertyOp35
 70
     1
102
RTVSPropertyOp36
 70
     1
102
RTVSPropertyOp37
 70
     1
102
RTVSPropertyOp38
 70
     1
102
RTVSPropertyOp39
 70
     1
102
RTVSPropertyOp40
 70
     1
102
RTVSPropertyOp41
 70
     1
102
RTVSPropertyOp42
 70
     1
102
RTVSPropertyOp43
 70
     1
102
RTVSPropertyOp44
 70
     1
102
RTVSPropertyOp45
 70
     1
102
RTVSPropertyOp46
 70
     1
102
RTVSPropertyOp47
 70
     1
102
RTVSPropertyOp48
 70
     1
102
RTVSPropertyOp49
 70
     1
102
RTVSPropertyOp50
 70
     1
102
RTVSPropertyOp51
 70
     0
102
RTVSPropertyOp52
 70
     0
102
RTVSPropertyOp53
 70
     1
102
RTVSPropertyOp54
 70
     1
102
RTVSPropertyOp55
 70
     1
102
RTVSPropertyOp56
 70
     1
102
RTVSPropertyOp57
 70
     1
102
RTVSPost2010Prop28
280
     0
102
RTVSPost2010PropOp28
 70
     1
102
RTVSPost2010Prop29
280
     1
102
RTVSPost2010PropOp29
 70
     1
102
RTVSPost2010Prop30
280
     1
102
RTVSPost2010PropOp30
 70
     1
102
RTVSPost2010Prop31
280
     0
102
RTVSPost2010PropOp31
 70
     1
102
RTVSPost2010Prop32
280
     0
102
RTVSPost2010PropOp32
 70
     1
102
RTVSPost2010Prop33
280
     0
102
RTVSPost2010PropOp33
 70
     1
102
RTVSPost2010Prop34
280
     0
102
RTVSPost2010PropOp34
 70
     1
102
RTVSPost2010Prop35
280
     0
102
RTVSPost2010PropOp35
 70
     1
102
RTVSPost2010Prop36
280
     0
102
RTVSPost2010PropOp36
 70
     1
102
RTVSPost2010Prop37
 90
       50
102
RTVSPost2010PropOp37
 70
     1
102
RTVSPost2010Prop38
140
0.0
102
RTVSPost2010PropOp38
 70
     1
102
RTVSPost2010Prop39
140
1.0
102
RTVSPost2010PropOp39
 70
     1
102
RTVSPost2010Prop40
 90
        0
102
RTVSPost2010PropOp40
 70
     1
102
RTVSPost2010Prop41ColorIndex
 90
      178
102
RTVSPost2010Prop41ColorRGB
 90
        0
102
RTVSPost2010PropOp41
 70
     1
102
RTVSPost2010Prop42
 90
       50
102
RTVSPost2010PropOp42
 70
     1
102
RTVSPost2010Prop43
 90
        3
102
RTVSPost2010PropOp43
 70
     1
102
RTVSPost2010Prop44ColorIndex
 90
        5
102
RTVSPost2010Prop44ColorRGB
 90
      255
102
RTVSPost2010PropOp44
 70
     1
102
RTVSPost2010Prop45
280
     0
102
RTVSPost2010PropOp45
 70
     1
102
RTVSPost2010Prop46
 90
       50
102
RTVSPost2010PropOp46
 70
     1
102
RTVSPost2010Prop47
 90
       50
102
RTVSPost2010PropOp47
 70
     1
102
RTVSPost2010Prop48
 90
       50
102
RTVSPost2010PropOp48
 70
     1
102
RTVSPost2010Prop49
280
     0
102
RTVSPost2010PropOp49
 70
     1
102
RTVSPost2010Prop50
 90
       50
102
RTVSPost2010PropOp50
 70
     1
102
RTVSPost2010Prop51ColorIndex
 90
      256
102
RTVSPost2010Prop51ColorRGB
 90
-16777216
102
RTVSPost2010PropOp51
 70
     0
102
RTVSPost2010Prop52
140
1.0
102
RTVSPost2010PropOp52
 70
     0
102
RTVSPost2010Prop53
 90
        2
102
RTVSPost2010PropOp53
 70
     1
102
RTVSPost2010Prop54
  1
strokes_ogs.tif
102
RTVSPost2010PropOp54
 70
     1
102
RTVSPost2010Prop55
280
     0
102
RTVSPost2010PropOp55
 70
     1
102
RTVSPost2010Prop56
140
1.0
102
RTVSPost2010PropOp56
 70
     1
102
RTVSPost2010Prop57
140
1.0
102
RTVSPost2010PropOp57
 70
     1
  0
XRECORD
  5
4BD
102
{ACAD_REACTORS
330
4BC
102
}
330
4BC
100
AcDbXrecord
280
     1
102
RTVSPropertyOp0
 70
     0
102
RTVSPropertyOp1
 70
     0
102
RTVSPropertyOp2
 70
     0
102
RTVSPropertyOp3
 70
     0
102
RTVSPropertyOp4
 70
     0
102
RTVSPropertyOp5
 70
     0
102
RTVSPropertyOp6
 70
     0
102
RTVSPropertyOp7
 70
     0
102
RTVSPropertyOp8
 70
     0
102
RTVSPropertyOp9
 70
     0
102
RTVSPropertyOp10
 70
     0
102
RTVSPropertyOp11
 70
     0
102
RTVSPropertyOp12
 70
     0
102
RTVSPropertyOp13
 70
     0
102
RTVSPropertyOp14
 70
     2
102
RTVSPropertyOp15
 70
     0
102
RTVSPropertyOp16
 70
     0
102
RTVSPropertyOp17
 70
     0
102
RTVSPropertyOp18
 70
     0
102
RTVSPropertyOp19
 70
     0
102
RTVSPropertyOp20
 70
     0
102
RTVSPropertyOp21
 70
     0
102
RTVSPropertyOp22
 70
     0
102
RTVSPropertyOp23
 70
     0
102
RTVSPropertyOp24
 70
     0
102
RTVSPropertyOp25
 70
     0
102
RTVSPropertyOp26
 70
     0
102
RTVSPropertyOp27
 70
     0
102
RTVSPropertyOp28
 70
     0
102
RTVSPropertyOp29
 70
     0
102
RTVSPropertyOp30
 70
     0
102
RTVSPropertyOp31
 70
     0
102
RTVSPropertyOp32
 70
     0
102
RTVSPropertyOp33
 70
     0
102
RTVSPropertyOp34
 70
     0
102
RTVSPropertyOp35
 70
     0
102
RTVSPropertyOp36
 70
     0
102
RTVSPropertyOp37
 70
     0
102
RTVSPropertyOp38
 70
     0
102
RTVSPropertyOp39
 70
     0
102
RTVSPropertyOp40
 70
     0
102
RTVSPropertyOp41
 70
     0
102
RTVSPropertyOp42
 70
     0
102
RTVSPropertyOp43
 70
     0
102
RTVSPropertyOp44
 70
     0
102
RTVSPropertyOp45
 70
     0
102
RTVSPropertyOp46
 70
     0
102
RTVSPropertyOp47
 70
     0
102
RTVSPropertyOp48
 70
     0
102
RTVSPropertyOp49
 70
     0
102
RTVSPropertyOp50
 70
     0
102
RTVSPropertyOp51
 70
     0
102
RTVSPropertyOp52
 70
     0
102
RTVSPropertyOp53
 70
     0
102
RTVSPropertyOp54
 70
     0
102
RTVSPropertyOp55
 70
     0
102
RTVSPropertyOp56
 70
     0
102
RTVSPropertyOp57
 70
     0
102
RTVSPost2010Prop28
280
     0
102
RTVSPost2010PropOp28
 70
     0
102
RTVSPost2010Prop29
280
     1
102
RTVSPost2010PropOp29
 70
     0
102
RTVSPost2010Prop30
280
     1
102
RTVSPost2010PropOp30
 70
     0
102
RTVSPost2010Prop31
280
     0
102
RTVSPost2010PropOp31
 70
     0
102
RTVSPost2010Prop32
280
     0
102
RTVSPost2010PropOp32
 70
     0
102
RTVSPost2010Prop33
280
     0
102
RTVSPost2010PropOp33
 70
     0
102
RTVSPost2010Prop34
280
     0
102
RTVSPost2010PropOp34
 70
     0
102
RTVSPost2010Prop35
280
     0
102
RTVSPost2010PropOp35
 70
     0
102
RTVSPost2010Prop36
280
     0
102
RTVSPost2010PropOp36
 70
     0
102
RTVSPost2010Prop37
 90
       50
102
RTVSPost2010PropOp37
 70
     0
102
RTVSPost2010Prop38
140
0.0
102
RTVSPost2010PropOp38
 70
     0
102
RTVSPost2010Prop39
140
1.0
102
RTVSPost2010PropOp39
 70
     0
102
RTVSPost2010Prop40
 90
        0
102
RTVSPost2010PropOp40
 70
     0
102
RTVSPost2010Prop41ColorIndex
 90
      178
102
RTVSPost2010Prop41ColorRGB
 90
        0
102
RTVSPost2010PropOp41
 70
     0
102
RTVSPost2010Prop42
 90
       50
102
RTVSPost2010PropOp42
 70
     0
102
RTVSPost2010Prop43
 90
        3
102
RTVSPost2010PropOp43
 70
     0
102
RTVSPost2010Prop44ColorIndex
 90
        5
102
RTVSPost2010Prop44ColorRGB
 90
      255
102
RTVSPost2010PropOp44
 70
     0
102
RTVSPost2010Prop45
280
     0
102
RTVSPost2010PropOp45
 70
     0
102
RTVSPost2010Prop46
 90
       50
102
RTVSPost2010PropOp46
 70
     0
102
RTVSPost2010Prop47
 90
       50
102
RTVSPost2010PropOp47
 70
     0
102
RTVSPost2010Prop48
 90
       50
102
RTVSPost2010PropOp48
 70
     0
102
RTVSPost2010Prop49
280
     0
102
RTVSPost2010PropOp49
 70
     0
102
RTVSPost2010Prop50
 90
       50
102
RTVSPost2010PropOp50
 70
     0
102
RTVSPost2010Prop51ColorIndex
 90
      256
102
RTVSPost2010Prop51ColorRGB
 90
-16777216
102
RTVSPost2010PropOp51
 70
     0
102
RTVSPost2010Prop52
140
1.0
102
RTVSPost2010PropOp52
 70
     0
102
RTVSPost2010Prop53
 90
        2
102
RTVSPost2010PropOp53
 70
     0
102
RTVSPost2010Prop54
  1
strokes_ogs.tif
102
RTVSPost2010PropOp54
 70
     0
102
RTVSPost2010Prop55
280
     0
102
RTVSPost2010PropOp55
 70
     0
102
RTVSPost2010Prop56
140
1.0
102
RTVSPost2010PropOp56
 70
     0
102
RTVSPost2010Prop57
140
1.0
102
RTVSPost2010PropOp57
 70
     0
  0
XRECORD
  5
4AB
102
{ACAD_REACTORS
330
4AA
102
}
330
4AA
100
AcDbXrecord
280
     1
102
RTVSPropertyOp0
 70
     1
102
RTVSPropertyOp1
 70
     1
102
RTVSPropertyOp2
 70
     1
102
RTVSPropertyOp3
 70
     1
102
RTVSPropertyOp4
 70
     1
102
RTVSPropertyOp5
 70
     1
102
RTVSPropertyOp6
 70
     1
102
RTVSPropertyOp7
 70
     1
102
RTVSPropertyOp8
 70
     1
102
RTVSPropertyOp9
 70
     1
102
RTVSPropertyOp10
 70
     1
102
RTVSPropertyOp11
 70
     1
102
RTVSPropertyOp12
 70
     1
102
RTVSPropertyOp13
 70
     1
102
RTVSPropertyOp14
 70
     1
102
RTVSPropertyOp15
 70
     1
102
RTVSPropertyOp16
 70
     1
102
RTVSPropertyOp17
 70
     1
102
RTVSPropertyOp18
 70
     1
102
RTVSPropertyOp19
 70
     1
102
RTVSPropertyOp20
 70
     1
102
RTVSPropertyOp21
 70
     1
102
RTVSPropertyOp22
 70
     1
102
RTVSPropertyOp23
 70
     1
102
RTVSPropertyOp24
 70
     1
102
RTVSPropertyOp25
 70
     1
102
RTVSPropertyOp26
 70
     1
102
RTVSPropertyOp27
 70
     1
102
RTVSPropertyOp28
 70
     1
102
RTVSPropertyOp29
 70
     1
102
RTVSPropertyOp30
 70
     1
102
RTVSPropertyOp31
 70
     1
102
RTVSPropertyOp32
 70
     1
102
RTVSPropertyOp33
 70
     1
102
RTVSPropertyOp34
 70
     1
102
RTVSPropertyOp35
 70
     1
102
RTVSPropertyOp36
 70
     1
102
RTVSPropertyOp37
 70
     1
102
RTVSPropertyOp38
 70
     1
102
RTVSPropertyOp39
 70
     1
102
RTVSPropertyOp40
 70
     1
102
RTVSPropertyOp41
 70
     1
102
RTVSPropertyOp42
 70
     1
102
RTVSPropertyOp43
 70
     1
102
RTVSPropertyOp44
 70
     1
102
RTVSPropertyOp45
 70
     1
102
RTVSPropertyOp46
 70
     1
102
RTVSPropertyOp47
 70
     1
102
RTVSPropertyOp48
 70
     1
102
RTVSPropertyOp49
 70
     1
102
RTVSPropertyOp50
 70
     1
102
RTVSPropertyOp51
 70
     0
102
RTVSPropertyOp52
 70
     0
102
RTVSPropertyOp53
 70
     1
102
RTVSPropertyOp54
 70
     1
102
RTVSPropertyOp55
 70
     1
102
RTVSPropertyOp56
 70
     1
102
RTVSPropertyOp57
 70
     1
102
RTVSPost2010Prop28
280
     0
102
RTVSPost2010PropOp28
 70
     1
102
RTVSPost2010Prop29
280
     1
102
RTVSPost2010PropOp29
 70
     1
102
RTVSPost2010Prop30
280
     1
102
RTVSPost2010PropOp30
 70
     1
102
RTVSPost2010Prop31
280
     0
102
RTVSPost2010PropOp31
 70
     1
102
RTVSPost2010Prop32
280
     0
102
RTVSPost2010PropOp32
 70
     1
102
RTVSPost2010Prop33
280
     0
102
RTVSPost2010PropOp33
 70
     1
102
RTVSPost2010Prop34
280
     0
102
RTVSPost2010PropOp34
 70
     1
102
RTVSPost2010Prop35
280
     0
102
RTVSPost2010PropOp35
 70
     1
102
RTVSPost2010Prop36
280
     0
102
RTVSPost2010PropOp36
 70
     1
102
RTVSPost2010Prop37
 90
       50
102
RTVSPost2010PropOp37
 70
     1
102
RTVSPost2010Prop38
140
0.0
102
RTVSPost2010PropOp38
 70
     1
102
RTVSPost2010Prop39
140
1.0
102
RTVSPost2010PropOp39
 70
     1
102
RTVSPost2010Prop40
 90
        0
102
RTVSPost2010PropOp40
 70
     1
102
RTVSPost2010Prop41ColorIndex
 90
      178
102
RTVSPost2010Prop41ColorRGB
 90
        0
102
RTVSPost2010PropOp41
 70
     1
102
RTVSPost2010Prop42
 90
       50
102
RTVSPost2010PropOp42
 70
     1
102
RTVSPost2010Prop43
 90
        3
102
RTVSPost2010PropOp43
 70
     1
102
RTVSPost2010Prop44ColorIndex
 90
        5
102
RTVSPost2010Prop44ColorRGB
 90
      255
102
RTVSPost2010PropOp44
 70
     1
102
RTVSPost2010Prop45
280
     0
102
RTVSPost2010PropOp45
 70
     1
102
RTVSPost2010Prop46
 90
       50
102
RTVSPost2010PropOp46
 70
     1
102
RTVSPost2010Prop47
 90
       50
102
RTVSPost2010PropOp47
 70
     1
102
RTVSPost2010Prop48
 90
       50
102
RTVSPost2010PropOp48
 70
     1
102
RTVSPost2010Prop49
280
     0
102
RTVSPost2010PropOp49
 70
     1
102
RTVSPost2010Prop50
 90
       50
102
RTVSPost2010PropOp50
 70
     1
102
RTVSPost2010Prop51ColorIndex
 90
      256
102
RTVSPost2010Prop51ColorRGB
 90
-16777216
102
RTVSPost2010PropOp51
 70
     0
102
RTVSPost2010Prop52
140
1.0
102
RTVSPost2010PropOp52
 70
     0
102
RTVSPost2010Prop53
 90
        2
102
RTVSPost2010PropOp53
 70
     1
102
RTVSPost2010Prop54
  1
strokes_ogs.tif
102
RTVSPost2010PropOp54
 70
     1
102
RTVSPost2010Prop55
280
     0
102
RTVSPost2010PropOp55
 70
     1
102
RTVSPost2010Prop56
140
1.0
102
RTVSPost2010PropOp56
 70
     1
102
RTVSPost2010Prop57
140
1.0
102
RTVSPost2010PropOp57
 70
     1
  0
XRECORD
  5
4C9
102
{ACAD_REACTORS
330
4C8
102
}
330
4C8
100
AcDbXrecord
280
     1
102
RTVSPropertyOp0
 70
     1
102
RTVSPropertyOp1
 70
     1
102
RTVSPropertyOp2
 70
     1
102
RTVSPropertyOp3
 70
     1
102
RTVSPropertyOp4
 70
     1
102
RTVSPropertyOp5
 70
     1
102
RTVSPropertyOp6
 70
     1
102
RTVSPropertyOp7
 70
     1
102
RTVSPropertyOp8
 70
     1
102
RTVSPropertyOp9
 70
     1
102
RTVSPropertyOp10
 70
     1
102
RTVSPropertyOp11
 70
     1
102
RTVSPropertyOp12
 70
     1
102
RTVSPropertyOp13
 70
     1
102
RTVSPropertyOp14
 70
     1
102
RTVSPropertyOp15
 70
     1
102
RTVSPropertyOp16
 70
     1
102
RTVSPropertyOp17
 70
     1
102
RTVSPropertyOp18
 70
     1
102
RTVSPropertyOp19
 70
     1
102
RTVSPropertyOp20
 70
     1
102
RTVSPropertyOp21
 70
     1
102
RTVSPropertyOp22
 70
     1
102
RTVSPropertyOp23
 70
     1
102
RTVSPropertyOp24
 70
     1
102
RTVSPropertyOp25
 70
     1
102
RTVSPropertyOp26
 70
     1
102
RTVSPropertyOp27
 70
     1
102
RTVSPropertyOp28
 70
     1
102
RTVSPropertyOp29
 70
     1
102
RTVSPropertyOp30
 70
     1
102
RTVSPropertyOp31
 70
     1
102
RTVSPropertyOp32
 70
     1
102
RTVSPropertyOp33
 70
     1
102
RTVSPropertyOp34
 70
     1
102
RTVSPropertyOp35
 70
     1
102
RTVSPropertyOp36
 70
     1
102
RTVSPropertyOp37
 70
     1
102
RTVSPropertyOp38
 70
     1
102
RTVSPropertyOp39
 70
     1
102
RTVSPropertyOp40
 70
     1
102
RTVSPropertyOp41
 70
     1
102
RTVSPropertyOp42
 70
     1
102
RTVSPropertyOp43
 70
     1
102
RTVSPropertyOp44
 70
     1
102
RTVSPropertyOp45
 70
     1
102
RTVSPropertyOp46
 70
     1
102
RTVSPropertyOp47
 70
     1
102
RTVSPropertyOp48
 70
     1
102
RTVSPropertyOp49
 70
     1
102
RTVSPropertyOp50
 70
     1
102
RTVSPropertyOp51
 70
     0
102
RTVSPropertyOp52
 70
     0
102
RTVSPropertyOp53
 70
     1
102
RTVSPropertyOp54
 70
     1
102
RTVSPropertyOp55
 70
     1
102
RTVSPropertyOp56
 70
     1
102
RTVSPropertyOp57
 70
     1
102
RTVSPost2010Prop28
280
     0
102
RTVSPost2010PropOp28
 70
     1
102
RTVSPost2010Prop29
280
     1
102
RTVSPost2010PropOp29
 70
     1
102
RTVSPost2010Prop30
280
     1
102
RTVSPost2010PropOp30
 70
     1
102
RTVSPost2010Prop31
280
     0
102
RTVSPost2010PropOp31
 70
     1
102
RTVSPost2010Prop32
280
     0
102
RTVSPost2010PropOp32
 70
     1
102
RTVSPost2010Prop33
280
     0
102
RTVSPost2010PropOp33
 70
     1
102
RTVSPost2010Prop34
280
     0
102
RTVSPost2010PropOp34
 70
     1
102
RTVSPost2010Prop35
280
     0
102
RTVSPost2010PropOp35
 70
     1
102
RTVSPost2010Prop36
280
     0
102
RTVSPost2010PropOp36
 70
     1
102
RTVSPost2010Prop37
 90
       50
102
RTVSPost2010PropOp37
 70
     1
102
RTVSPost2010Prop38
140
0.0
102
RTVSPost2010PropOp38
 70
     1
102
RTVSPost2010Prop39
140
1.0
102
RTVSPost2010PropOp39
 70
     1
102
RTVSPost2010Prop40
 90
        0
102
RTVSPost2010PropOp40
 70
     1
102
RTVSPost2010Prop41ColorIndex
 90
      178
102
RTVSPost2010Prop41ColorRGB
 90
        0
102
RTVSPost2010PropOp41
 70
     1
102
RTVSPost2010Prop42
 90
       50
102
RTVSPost2010PropOp42
 70
     1
102
RTVSPost2010Prop43
 90
        3
102
RTVSPost2010PropOp43
 70
     1
102
RTVSPost2010Prop44ColorIndex
 90
        5
102
RTVSPost2010Prop44ColorRGB
 90
      255
102
RTVSPost2010PropOp44
 70
     1
102
RTVSPost2010Prop45
280
     0
102
RTVSPost2010PropOp45
 70
     1
102
RTVSPost2010Prop46
 90
       50
102
RTVSPost2010PropOp46
 70
     1
102
RTVSPost2010Prop47
 90
       50
102
RTVSPost2010PropOp47
 70
     1
102
RTVSPost2010Prop48
 90
       50
102
RTVSPost2010PropOp48
 70
     1
102
RTVSPost2010Prop49
280
     0
102
RTVSPost2010PropOp49
 70
     1
102
RTVSPost2010Prop50
 90
       50
102
RTVSPost2010PropOp50
 70
     1
102
RTVSPost2010Prop51ColorIndex
 90
      256
102
RTVSPost2010Prop51ColorRGB
 90
-16777216
102
RTVSPost2010PropOp51
 70
     0
102
RTVSPost2010Prop52
140
1.0
102
RTVSPost2010PropOp52
 70
     0
102
RTVSPost2010Prop53
 90
        2
102
RTVSPost2010PropOp53
 70
     1
102
RTVSPost2010Prop54
  1
strokes_ogs.tif
102
RTVSPost2010PropOp54
 70
     1
102
RTVSPost2010Prop55
280
     0
102
RTVSPost2010PropOp55
 70
     1
102
RTVSPost2010Prop56
140
1.0
102
RTVSPost2010PropOp56
 70
     1
102
RTVSPost2010Prop57
140
1.0
102
RTVSPost2010PropOp57
 70
     1
  0
XRECORD
  5
4C7
102
{ACAD_REACTORS
330
4C6
102
}
330
4C6
100
AcDbXrecord
280
     1
102
RTVSPropertyOp0
 70
     1
102
RTVSPropertyOp1
 70
     1
102
RTVSPropertyOp2
 70
     1
102
RTVSPropertyOp3
 70
     1
102
RTVSPropertyOp4
 70
     1
102
RTVSPropertyOp5
 70
     1
102
RTVSPropertyOp6
 70
     1
102
RTVSPropertyOp7
 70
     1
102
RTVSPropertyOp8
 70
     1
102
RTVSPropertyOp9
 70
     1
102
RTVSPropertyOp10
 70
     1
102
RTVSPropertyOp11
 70
     1
102
RTVSPropertyOp12
 70
     1
102
RTVSPropertyOp13
 70
     1
102
RTVSPropertyOp14
 70
     1
102
RTVSPropertyOp15
 70
     1
102
RTVSPropertyOp16
 70
     1
102
RTVSPropertyOp17
 70
     1
102
RTVSPropertyOp18
 70
     1
102
RTVSPropertyOp19
 70
     1
102
RTVSPropertyOp20
 70
     1
102
RTVSPropertyOp21
 70
     1
102
RTVSPropertyOp22
 70
     1
102
RTVSPropertyOp23
 70
     1
102
RTVSPropertyOp24
 70
     1
102
RTVSPropertyOp25
 70
     1
102
RTVSPropertyOp26
 70
     1
102
RTVSPropertyOp27
 70
     1
102
RTVSPropertyOp28
 70
     1
102
RTVSPropertyOp29
 70
     1
102
RTVSPropertyOp30
 70
     1
102
RTVSPropertyOp31
 70
     1
102
RTVSPropertyOp32
 70
     1
102
RTVSPropertyOp33
 70
     1
102
RTVSPropertyOp34
 70
     1
102
RTVSPropertyOp35
 70
     1
102
RTVSPropertyOp36
 70
     1
102
RTVSPropertyOp37
 70
     1
102
RTVSPropertyOp38
 70
     1
102
RTVSPropertyOp39
 70
     1
102
RTVSPropertyOp40
 70
     1
102
RTVSPropertyOp41
 70
     1
102
RTVSPropertyOp42
 70
     1
102
RTVSPropertyOp43
 70
     1
102
RTVSPropertyOp44
 70
     1
102
RTVSPropertyOp45
 70
     1
102
RTVSPropertyOp46
 70
     1
102
RTVSPropertyOp47
 70
     1
102
RTVSPropertyOp48
 70
     1
102
RTVSPropertyOp49
 70
     1
102
RTVSPropertyOp50
 70
     1
102
RTVSPropertyOp51
 70
     0
102
RTVSPropertyOp52
 70
     0
102
RTVSPropertyOp53
 70
     1
102
RTVSPropertyOp54
 70
     1
102
RTVSPropertyOp55
 70
     1
102
RTVSPropertyOp56
 70
     1
102
RTVSPropertyOp57
 70
     1
102
RTVSPost2010Prop28
280
     0
102
RTVSPost2010PropOp28
 70
     1
102
RTVSPost2010Prop29
280
     1
102
RTVSPost2010PropOp29
 70
     1
102
RTVSPost2010Prop30
280
     1
102
RTVSPost2010PropOp30
 70
     1
102
RTVSPost2010Prop31
280
     0
102
RTVSPost2010PropOp31
 70
     1
102
RTVSPost2010Prop32
280
     0
102
RTVSPost2010PropOp32
 70
     1
102
RTVSPost2010Prop33
280
     0
102
RTVSPost2010PropOp33
 70
     1
102
RTVSPost2010Prop34
280
     0
102
RTVSPost2010PropOp34
 70
     1
102
RTVSPost2010Prop35
280
     0
102
RTVSPost2010PropOp35
 70
     1
102
RTVSPost2010Prop36
280
     0
102
RTVSPost2010PropOp36
 70
     1
102
RTVSPost2010Prop37
 90
       50
102
RTVSPost2010PropOp37
 70
     1
102
RTVSPost2010Prop38
140
0.0
102
RTVSPost2010PropOp38
 70
     1
102
RTVSPost2010Prop39
140
1.0
102
RTVSPost2010PropOp39
 70
     1
102
RTVSPost2010Prop40
 90
        0
102
RTVSPost2010PropOp40
 70
     1
102
RTVSPost2010Prop41ColorIndex
 90
      178
102
RTVSPost2010Prop41ColorRGB
 90
        0
102
RTVSPost2010PropOp41
 70
     1
102
RTVSPost2010Prop42
 90
       50
102
RTVSPost2010PropOp42
 70
     1
102
RTVSPost2010Prop43
 90
        3
102
RTVSPost2010PropOp43
 70
     1
102
RTVSPost2010Prop44ColorIndex
 90
        5
102
RTVSPost2010Prop44ColorRGB
 90
      255
102
RTVSPost2010PropOp44
 70
     1
102
RTVSPost2010Prop45
280
     0
102
RTVSPost2010PropOp45
 70
     1
102
RTVSPost2010Prop46
 90
       50
102
RTVSPost2010PropOp46
 70
     1
102
RTVSPost2010Prop47
 90
       50
102
RTVSPost2010PropOp47
 70
     1
102
RTVSPost2010Prop48
 90
       50
102
RTVSPost2010PropOp48
 70
     1
102
RTVSPost2010Prop49
280
     0
102
RTVSPost2010PropOp49
 70
     1
102
RTVSPost2010Prop50
 90
       50
102
RTVSPost2010PropOp50
 70
     1
102
RTVSPost2010Prop51ColorIndex
 90
      256
102
RTVSPost2010Prop51ColorRGB
 90
-16777216
102
RTVSPost2010PropOp51
 70
     0
102
RTVSPost2010Prop52
140
1.0
102
RTVSPost2010PropOp52
 70
     0
102
RTVSPost2010Prop53
 90
        2
102
RTVSPost2010PropOp53
 70
     1
102
RTVSPost2010Prop54
  1
strokes_ogs.tif
102
RTVSPost2010PropOp54
 70
     1
102
RTVSPost2010Prop55
280
     0
102
RTVSPost2010PropOp55
 70
     1
102
RTVSPost2010Prop56
140
1.0
102
RTVSPost2010PropOp56
 70
     1
102
RTVSPost2010Prop57
140
1.0
102
RTVSPost2010PropOp57
 70
     1
  0
XRECORD
  5
4C1
102
{ACAD_REACTORS
330
4C0
102
}
330
4C0
100
AcDbXrecord
280
     1
102
RTVSPropertyOp0
 70
     1
102
RTVSPropertyOp1
 70
     1
102
RTVSPropertyOp2
 70
     1
102
RTVSPropertyOp3
 70
     1
102
RTVSPropertyOp4
 70
     1
102
RTVSPropertyOp5
 70
     1
102
RTVSPropertyOp6
 70
     1
102
RTVSPropertyOp7
 70
     1
102
RTVSPropertyOp8
 70
     1
102
RTVSPropertyOp9
 70
     1
102
RTVSPropertyOp10
 70
     1
102
RTVSPropertyOp11
 70
     1
102
RTVSPropertyOp12
 70
     1
102
RTVSPropertyOp13
 70
     1
102
RTVSPropertyOp14
 70
     1
102
RTVSPropertyOp15
 70
     1
102
RTVSPropertyOp16
 70
     1
102
RTVSPropertyOp17
 70
     1
102
RTVSPropertyOp18
 70
     1
102
RTVSPropertyOp19
 70
     1
102
RTVSPropertyOp20
 70
     1
102
RTVSPropertyOp21
 70
     1
102
RTVSPropertyOp22
 70
     1
102
RTVSPropertyOp23
 70
     1
102
RTVSPropertyOp24
 70
     1
102
RTVSPropertyOp25
 70
     1
102
RTVSPropertyOp26
 70
     1
102
RTVSPropertyOp27
 70
     1
102
RTVSPropertyOp28
 70
     1
102
RTVSPropertyOp29
 70
     1
102
RTVSPropertyOp30
 70
     1
102
RTVSPropertyOp31
 70
     1
102
RTVSPropertyOp32
 70
     1
102
RTVSPropertyOp33
 70
     1
102
RTVSPropertyOp34
 70
     1
102
RTVSPropertyOp35
 70
     1
102
RTVSPropertyOp36
 70
     1
102
RTVSPropertyOp37
 70
     1
102
RTVSPropertyOp38
 70
     1
102
RTVSPropertyOp39
 70
     1
102
RTVSPropertyOp40
 70
     1
102
RTVSPropertyOp41
 70
     1
102
RTVSPropertyOp42
 70
     1
102
RTVSPropertyOp43
 70
     1
102
RTVSPropertyOp44
 70
     1
102
RTVSPropertyOp45
 70
     1
102
RTVSPropertyOp46
 70
     1
102
RTVSPropertyOp47
 70
     1
102
RTVSPropertyOp48
 70
     1
102
RTVSPropertyOp49
 70
     1
102
RTVSPropertyOp50
 70
     1
102
RTVSPropertyOp51
 70
     0
102
RTVSPropertyOp52
 70
     0
102
RTVSPropertyOp53
 70
     1
102
RTVSPropertyOp54
 70
     1
102
RTVSPropertyOp55
 70
     1
102
RTVSPropertyOp56
 70
     1
102
RTVSPropertyOp57
 70
     1
102
RTVSPost2010Prop28
280
     0
102
RTVSPost2010PropOp28
 70
     1
102
RTVSPost2010Prop29
280
     1
102
RTVSPost2010PropOp29
 70
     1
102
RTVSPost2010Prop30
280
     1
102
RTVSPost2010PropOp30
 70
     1
102
RTVSPost2010Prop31
280
     0
102
RTVSPost2010PropOp31
 70
     1
102
RTVSPost2010Prop32
280
     0
102
RTVSPost2010PropOp32
 70
     1
102
RTVSPost2010Prop33
280
     0
102
RTVSPost2010PropOp33
 70
     1
102
RTVSPost2010Prop34
280
     0
102
RTVSPost2010PropOp34
 70
     1
102
RTVSPost2010Prop35
280
     0
102
RTVSPost2010PropOp35
 70
     1
102
RTVSPost2010Prop36
280
     0
102
RTVSPost2010PropOp36
 70
     1
102
RTVSPost2010Prop37
 90
       50
102
RTVSPost2010PropOp37
 70
     1
102
RTVSPost2010Prop38
140
0.0
102
RTVSPost2010PropOp38
 70
     1
102
RTVSPost2010Prop39
140
1.0
102
RTVSPost2010PropOp39
 70
     1
102
RTVSPost2010Prop40
 90
        0
102
RTVSPost2010PropOp40
 70
     1
102
RTVSPost2010Prop41ColorIndex
 90
      178
102
RTVSPost2010Prop41ColorRGB
 90
        0
102
RTVSPost2010PropOp41
 70
     1
102
RTVSPost2010Prop42
 90
       50
102
RTVSPost2010PropOp42
 70
     1
102
RTVSPost2010Prop43
 90
        3
102
RTVSPost2010PropOp43
 70
     1
102
RTVSPost2010Prop44ColorIndex
 90
        5
102
RTVSPost2010Prop44ColorRGB
 90
      255
102
RTVSPost2010PropOp44
 70
     1
102
RTVSPost2010Prop45
280
     0
102
RTVSPost2010PropOp45
 70
     1
102
RTVSPost2010Prop46
 90
       50
102
RTVSPost2010PropOp46
 70
     1
102
RTVSPost2010Prop47
 90
       50
102
RTVSPost2010PropOp47
 70
     1
102
RTVSPost2010Prop48
 90
       50
102
RTVSPost2010PropOp48
 70
     1
102
RTVSPost2010Prop49
280
     0
102
RTVSPost2010PropOp49
 70
     1
102
RTVSPost2010Prop50
 90
       50
102
RTVSPost2010PropOp50
 70
     1
102
RTVSPost2010Prop51ColorIndex
 90
      256
102
RTVSPost2010Prop51ColorRGB
 90
-16777216
102
RTVSPost2010PropOp51
 70
     0
102
RTVSPost2010Prop52
140
1.0
102
RTVSPost2010PropOp52
 70
     0
102
RTVSPost2010Prop53
 90
        2
102
RTVSPost2010PropOp53
 70
     1
102
RTVSPost2010Prop54
  1
strokes_ogs.tif
102
RTVSPost2010PropOp54
 70
     1
102
RTVSPost2010Prop55
280
     0
102
RTVSPost2010PropOp55
 70
     1
102
RTVSPost2010Prop56
140
1.0
102
RTVSPost2010PropOp56
 70
     1
102
RTVSPost2010Prop57
140
1.0
102
RTVSPost2010PropOp57
 70
     1
  0
XRECORD
  5
4C3
102
{ACAD_REACTORS
330
4C2
102
}
330
4C2
100
AcDbXrecord
280
     1
102
RTVSPropertyOp0
 70
     1
102
RTVSPropertyOp1
 70
     1
102
RTVSPropertyOp2
 70
     1
102
RTVSPropertyOp3
 70
     1
102
RTVSPropertyOp4
 70
     1
102
RTVSPropertyOp5
 70
     1
102
RTVSPropertyOp6
 70
     1
102
RTVSPropertyOp7
 70
     1
102
RTVSPropertyOp8
 70
     1
102
RTVSPropertyOp9
 70
     1
102
RTVSPropertyOp10
 70
     1
102
RTVSPropertyOp11
 70
     1
102
RTVSPropertyOp12
 70
     1
102
RTVSPropertyOp13
 70
     1
102
RTVSPropertyOp14
 70
     1
102
RTVSPropertyOp15
 70
     1
102
RTVSPropertyOp16
 70
     1
102
RTVSPropertyOp17
 70
     1
102
RTVSPropertyOp18
 70
     1
102
RTVSPropertyOp19
 70
     1
102
RTVSPropertyOp20
 70
     1
102
RTVSPropertyOp21
 70
     1
102
RTVSPropertyOp22
 70
     1
102
RTVSPropertyOp23
 70
     1
102
RTVSPropertyOp24
 70
     1
102
RTVSPropertyOp25
 70
     1
102
RTVSPropertyOp26
 70
     1
102
RTVSPropertyOp27
 70
     1
102
RTVSPropertyOp28
 70
     1
102
RTVSPropertyOp29
 70
     1
102
RTVSPropertyOp30
 70
     1
102
RTVSPropertyOp31
 70
     1
102
RTVSPropertyOp32
 70
     1
102
RTVSPropertyOp33
 70
     1
102
RTVSPropertyOp34
 70
     1
102
RTVSPropertyOp35
 70
     1
102
RTVSPropertyOp36
 70
     1
102
RTVSPropertyOp37
 70
     1
102
RTVSPropertyOp38
 70
     1
102
RTVSPropertyOp39
 70
     1
102
RTVSPropertyOp40
 70
     1
102
RTVSPropertyOp41
 70
     1
102
RTVSPropertyOp42
 70
     1
102
RTVSPropertyOp43
 70
     1
102
RTVSPropertyOp44
 70
     1
102
RTVSPropertyOp45
 70
     1
102
RTVSPropertyOp46
 70
     1
102
RTVSPropertyOp47
 70
     1
102
RTVSPropertyOp48
 70
     1
102
RTVSPropertyOp49
 70
     1
102
RTVSPropertyOp50
 70
     1
102
RTVSPropertyOp51
 70
     0
102
RTVSPropertyOp52
 70
     0
102
RTVSPropertyOp53
 70
     1
102
RTVSPropertyOp54
 70
     1
102
RTVSPropertyOp55
 70
     1
102
RTVSPropertyOp56
 70
     1
102
RTVSPropertyOp57
 70
     1
102
RTVSPost2010Prop28
280
     0
102
RTVSPost2010PropOp28
 70
     1
102
RTVSPost2010Prop29
280
     1
102
RTVSPost2010PropOp29
 70
     1
102
RTVSPost2010Prop30
280
     1
102
RTVSPost2010PropOp30
 70
     1
102
RTVSPost2010Prop31
280
     0
102
RTVSPost2010PropOp31
 70
     1
102
RTVSPost2010Prop32
280
     0
102
RTVSPost2010PropOp32
 70
     1
102
RTVSPost2010Prop33
280
     0
102
RTVSPost2010PropOp33
 70
     1
102
RTVSPost2010Prop34
280
     0
102
RTVSPost2010PropOp34
 70
     1
102
RTVSPost2010Prop35
280
     0
102
RTVSPost2010PropOp35
 70
     1
102
RTVSPost2010Prop36
280
     0
102
RTVSPost2010PropOp36
 70
     1
102
RTVSPost2010Prop37
 90
       50
102
RTVSPost2010PropOp37
 70
     1
102
RTVSPost2010Prop38
140
0.0
102
RTVSPost2010PropOp38
 70
     1
102
RTVSPost2010Prop39
140
1.0
102
RTVSPost2010PropOp39
 70
     1
102
RTVSPost2010Prop40
 90
        0
102
RTVSPost2010PropOp40
 70
     1
102
RTVSPost2010Prop41ColorIndex
 90
      178
102
RTVSPost2010Prop41ColorRGB
 90
        0
102
RTVSPost2010PropOp41
 70
     1
102
RTVSPost2010Prop42
 90
       50
102
RTVSPost2010PropOp42
 70
     1
102
RTVSPost2010Prop43
 90
        3
102
RTVSPost2010PropOp43
 70
     1
102
RTVSPost2010Prop44ColorIndex
 90
        5
102
RTVSPost2010Prop44ColorRGB
 90
      255
102
RTVSPost2010PropOp44
 70
     1
102
RTVSPost2010Prop45
280
     0
102
RTVSPost2010PropOp45
 70
     1
102
RTVSPost2010Prop46
 90
       50
102
RTVSPost2010PropOp46
 70
     1
102
RTVSPost2010Prop47
 90
       50
102
RTVSPost2010PropOp47
 70
     1
102
RTVSPost2010Prop48
 90
       50
102
RTVSPost2010PropOp48
 70
     1
102
RTVSPost2010Prop49
280
     0
102
RTVSPost2010PropOp49
 70
     1
102
RTVSPost2010Prop50
 90
       50
102
RTVSPost2010PropOp50
 70
     1
102
RTVSPost2010Prop51ColorIndex
 90
      256
102
RTVSPost2010Prop51ColorRGB
 90
-16777216
102
RTVSPost2010PropOp51
 70
     0
102
RTVSPost2010Prop52
140
1.0
102
RTVSPost2010PropOp52
 70
     0
102
RTVSPost2010Prop53
 90
        2
102
RTVSPost2010PropOp53
 70
     1
102
RTVSPost2010Prop54
  1
strokes_ogs.tif
102
RTVSPost2010PropOp54
 70
     1
102
RTVSPost2010Prop55
280
     0
102
RTVSPost2010PropOp55
 70
     1
102
RTVSPost2010Prop56
140
1.0
102
RTVSPost2010PropOp56
 70
     1
102
RTVSPost2010Prop57
140
1.0
102
RTVSPost2010PropOp57
 70
     1
  0
XRECORD
  5
4B3
102
{ACAD_REACTORS
330
4B2
102
}
330
4B2
100
AcDbXrecord
280
     1
102
RTVSPropertyOp0
 70
     1
102
RTVSPropertyOp1
 70
     1
102
RTVSPropertyOp2
 70
     1
102
RTVSPropertyOp3
 70
     1
102
RTVSPropertyOp4
 70
     1
102
RTVSPropertyOp5
 70
     1
102
RTVSPropertyOp6
 70
     1
102
RTVSPropertyOp7
 70
     1
102
RTVSPropertyOp8
 70
     1
102
RTVSPropertyOp9
 70
     1
102
RTVSPropertyOp10
 70
     1
102
RTVSPropertyOp11
 70
     1
102
RTVSPropertyOp12
 70
     1
102
RTVSPropertyOp13
 70
     1
102
RTVSPropertyOp14
 70
     1
102
RTVSPropertyOp15
 70
     1
102
RTVSPropertyOp16
 70
     1
102
RTVSPropertyOp17
 70
     1
102
RTVSPropertyOp18
 70
     1
102
RTVSPropertyOp19
 70
     1
102
RTVSPropertyOp20
 70
     1
102
RTVSPropertyOp21
 70
     1
102
RTVSPropertyOp22
 70
     1
102
RTVSPropertyOp23
 70
     1
102
RTVSPropertyOp24
 70
     1
102
RTVSPropertyOp25
 70
     1
102
RTVSPropertyOp26
 70
     1
102
RTVSPropertyOp27
 70
     1
102
RTVSPropertyOp28
 70
     1
102
RTVSPropertyOp29
 70
     1
102
RTVSPropertyOp30
 70
     1
102
RTVSPropertyOp31
 70
     1
102
RTVSPropertyOp32
 70
     1
102
RTVSPropertyOp33
 70
     1
102
RTVSPropertyOp34
 70
     1
102
RTVSPropertyOp35
 70
     1
102
RTVSPropertyOp36
 70
     1
102
RTVSPropertyOp37
 70
     1
102
RTVSPropertyOp38
 70
     1
102
RTVSPropertyOp39
 70
     1
102
RTVSPropertyOp40
 70
     1
102
RTVSPropertyOp41
 70
     1
102
RTVSPropertyOp42
 70
     1
102
RTVSPropertyOp43
 70
     1
102
RTVSPropertyOp44
 70
     1
102
RTVSPropertyOp45
 70
     1
102
RTVSPropertyOp46
 70
     1
102
RTVSPropertyOp47
 70
     1
102
RTVSPropertyOp48
 70
     1
102
RTVSPropertyOp49
 70
     1
102
RTVSPropertyOp50
 70
     1
102
RTVSPropertyOp51
 70
     0
102
RTVSPropertyOp52
 70
     0
102
RTVSPropertyOp53
 70
     1
102
RTVSPropertyOp54
 70
     1
102
RTVSPropertyOp55
 70
     1
102
RTVSPropertyOp56
 70
     1
102
RTVSPropertyOp57
 70
     1
102
RTVSPost2010Prop28
280
     0
102
RTVSPost2010PropOp28
 70
     1
102
RTVSPost2010Prop29
280
     1
102
RTVSPost2010PropOp29
 70
     1
102
RTVSPost2010Prop30
280
     1
102
RTVSPost2010PropOp30
 70
     1
102
RTVSPost2010Prop31
280
     0
102
RTVSPost2010PropOp31
 70
     1
102
RTVSPost2010Prop32
280
     0
102
RTVSPost2010PropOp32
 70
     1
102
RTVSPost2010Prop33
280
     0
102
RTVSPost2010PropOp33
 70
     1
102
RTVSPost2010Prop34
280
     0
102
RTVSPost2010PropOp34
 70
     1
102
RTVSPost2010Prop35
280
     0
102
RTVSPost2010PropOp35
 70
     1
102
RTVSPost2010Prop36
280
     0
102
RTVSPost2010PropOp36
 70
     1
102
RTVSPost2010Prop37
 90
       50
102
RTVSPost2010PropOp37
 70
     1
102
RTVSPost2010Prop38
140
0.0
102
RTVSPost2010PropOp38
 70
     1
102
RTVSPost2010Prop39
140
1.0
102
RTVSPost2010PropOp39
 70
     1
102
RTVSPost2010Prop40
 90
        0
102
RTVSPost2010PropOp40
 70
     1
102
RTVSPost2010Prop41ColorIndex
 90
      178
102
RTVSPost2010Prop41ColorRGB
 90
        0
102
RTVSPost2010PropOp41
 70
     1
102
RTVSPost2010Prop42
 90
       50
102
RTVSPost2010PropOp42
 70
     1
102
RTVSPost2010Prop43
 90
        3
102
RTVSPost2010PropOp43
 70
     1
102
RTVSPost2010Prop44ColorIndex
 90
        5
102
RTVSPost2010Prop44ColorRGB
 90
      255
102
RTVSPost2010PropOp44
 70
     1
102
RTVSPost2010Prop45
280
     0
102
RTVSPost2010PropOp45
 70
     1
102
RTVSPost2010Prop46
 90
       50
102
RTVSPost2010PropOp46
 70
     1
102
RTVSPost2010Prop47
 90
       50
102
RTVSPost2010PropOp47
 70
     1
102
RTVSPost2010Prop48
 90
       50
102
RTVSPost2010PropOp48
 70
     1
102
RTVSPost2010Prop49
280
     0
102
RTVSPost2010PropOp49
 70
     1
102
RTVSPost2010Prop50
 90
       50
102
RTVSPost2010PropOp50
 70
     1
102
RTVSPost2010Prop51ColorIndex
 90
      256
102
RTVSPost2010Prop51ColorRGB
 90
-16777216
102
RTVSPost2010PropOp51
 70
     0
102
RTVSPost2010Prop52
140
1.0
102
RTVSPost2010PropOp52
 70
     0
102
RTVSPost2010Prop53
 90
        2
102
RTVSPost2010PropOp53
 70
     1
102
RTVSPost2010Prop54
  1
strokes_ogs.tif
102
RTVSPost2010PropOp54
 70
     1
102
RTVSPost2010Prop55
280
     0
102
RTVSPost2010PropOp55
 70
     1
102
RTVSPost2010Prop56
140
1.0
102
RTVSPost2010PropOp56
 70
     1
102
RTVSPost2010Prop57
140
1.0
102
RTVSPost2010PropOp57
 70
     1
  0
XRECORD
  5
4A5
102
{ACAD_REACTORS
330
4A4
102
}
330
4A4
100
AcDbXrecord
280
     1
102
RTVSPropertyOp0
 70
     1
102
RTVSPropertyOp1
 70
     1
102
RTVSPropertyOp2
 70
     1
102
RTVSPropertyOp3
 70
     1
102
RTVSPropertyOp4
 70
     1
102
RTVSPropertyOp5
 70
     1
102
RTVSPropertyOp6
 70
     1
102
RTVSPropertyOp7
 70
     1
102
RTVSPropertyOp8
 70
     1
102
RTVSPropertyOp9
 70
     1
102
RTVSPropertyOp10
 70
     1
102
RTVSPropertyOp11
 70
     1
102
RTVSPropertyOp12
 70
     1
102
RTVSPropertyOp13
 70
     1
102
RTVSPropertyOp14
 70
     1
102
RTVSPropertyOp15
 70
     1
102
RTVSPropertyOp16
 70
     1
102
RTVSPropertyOp17
 70
     1
102
RTVSPropertyOp18
 70
     1
102
RTVSPropertyOp19
 70
     1
102
RTVSPropertyOp20
 70
     1
102
RTVSPropertyOp21
 70
     1
102
RTVSPropertyOp22
 70
     1
102
RTVSPropertyOp23
 70
     1
102
RTVSPropertyOp24
 70
     1
102
RTVSPropertyOp25
 70
     1
102
RTVSPropertyOp26
 70
     1
102
RTVSPropertyOp27
 70
     1
102
RTVSPropertyOp28
 70
     1
102
RTVSPropertyOp29
 70
     1
102
RTVSPropertyOp30
 70
     1
102
RTVSPropertyOp31
 70
     1
102
RTVSPropertyOp32
 70
     1
102
RTVSPropertyOp33
 70
     1
102
RTVSPropertyOp34
 70
     1
102
RTVSPropertyOp35
 70
     1
102
RTVSPropertyOp36
 70
     1
102
RTVSPropertyOp37
 70
     1
102
RTVSPropertyOp38
 70
     1
102
RTVSPropertyOp39
 70
     1
102
RTVSPropertyOp40
 70
     1
102
RTVSPropertyOp41
 70
     1
102
RTVSPropertyOp42
 70
     1
102
RTVSPropertyOp43
 70
     1
102
RTVSPropertyOp44
 70
     1
102
RTVSPropertyOp45
 70
     1
102
RTVSPropertyOp46
 70
     1
102
RTVSPropertyOp47
 70
     1
102
RTVSPropertyOp48
 70
     1
102
RTVSPropertyOp49
 70
     1
102
RTVSPropertyOp50
 70
     1
102
RTVSPropertyOp51
 70
     0
102
RTVSPropertyOp52
 70
     0
102
RTVSPropertyOp53
 70
     1
102
RTVSPropertyOp54
 70
     1
102
RTVSPropertyOp55
 70
     1
102
RTVSPropertyOp56
 70
     1
102
RTVSPropertyOp57
 70
     1
102
RTVSPost2010Prop28
280
     0
102
RTVSPost2010PropOp28
 70
     1
102
RTVSPost2010Prop29
280
     1
102
RTVSPost2010PropOp29
 70
     1
102
RTVSPost2010Prop30
280
     1
102
RTVSPost2010PropOp30
 70
     1
102
RTVSPost2010Prop31
280
     0
102
RTVSPost2010PropOp31
 70
     1
102
RTVSPost2010Prop32
280
     0
102
RTVSPost2010PropOp32
 70
     1
102
RTVSPost2010Prop33
280
     0
102
RTVSPost2010PropOp33
 70
     1
102
RTVSPost2010Prop34
280
     0
102
RTVSPost2010PropOp34
 70
     1
102
RTVSPost2010Prop35
280
     0
102
RTVSPost2010PropOp35
 70
     1
102
RTVSPost2010Prop36
280
     0
102
RTVSPost2010PropOp36
 70
     1
102
RTVSPost2010Prop37
 90
       50
102
RTVSPost2010PropOp37
 70
     1
102
RTVSPost2010Prop38
140
0.0
102
RTVSPost2010PropOp38
 70
     1
102
RTVSPost2010Prop39
140
1.0
102
RTVSPost2010PropOp39
 70
     1
102
RTVSPost2010Prop40
 90
        0
102
RTVSPost2010PropOp40
 70
     1
102
RTVSPost2010Prop41ColorIndex
 90
      178
102
RTVSPost2010Prop41ColorRGB
 90
        0
102
RTVSPost2010PropOp41
 70
     1
102
RTVSPost2010Prop42
 90
       50
102
RTVSPost2010PropOp42
 70
     1
102
RTVSPost2010Prop43
 90
        3
102
RTVSPost2010PropOp43
 70
     1
102
RTVSPost2010Prop44ColorIndex
 90
        5
102
RTVSPost2010Prop44ColorRGB
 90
      255
102
RTVSPost2010PropOp44
 70
     1
102
RTVSPost2010Prop45
280
     0
102
RTVSPost2010PropOp45
 70
     1
102
RTVSPost2010Prop46
 90
       50
102
RTVSPost2010PropOp46
 70
     1
102
RTVSPost2010Prop47
 90
       50
102
RTVSPost2010PropOp47
 70
     1
102
RTVSPost2010Prop48
 90
       50
102
RTVSPost2010PropOp48
 70
     1
102
RTVSPost2010Prop49
280
     0
102
RTVSPost2010PropOp49
 70
     1
102
RTVSPost2010Prop50
 90
       50
102
RTVSPost2010PropOp50
 70
     1
102
RTVSPost2010Prop51ColorIndex
 90
      256
102
RTVSPost2010Prop51ColorRGB
 90
-16777216
102
RTVSPost2010PropOp51
 70
     0
102
RTVSPost2010Prop52
140
1.0
102
RTVSPost2010PropOp52
 70
     0
102
RTVSPost2010Prop53
 90
        2
102
RTVSPost2010PropOp53
 70
     1
102
RTVSPost2010Prop54
  1
strokes_ogs.tif
102
RTVSPost2010PropOp54
 70
     1
102
RTVSPost2010Prop55
280
     0
102
RTVSPost2010PropOp55
 70
     1
102
RTVSPost2010Prop56
140
1.0
102
RTVSPost2010PropOp56
 70
     1
102
RTVSPost2010Prop57
140
1.0
102
RTVSPost2010PropOp57
 70
     1
  0
XRECORD
  5
4C5
102
{ACAD_REACTORS
330
4C4
102
}
330
4C4
100
AcDbXrecord
280
     1
102
RTVSPropertyOp0
 70
     1
102
RTVSPropertyOp1
 70
     1
102
RTVSPropertyOp2
 70
     1
102
RTVSPropertyOp3
 70
     1
102
RTVSPropertyOp4
 70
     1
102
RTVSPropertyOp5
 70
     1
102
RTVSPropertyOp6
 70
     1
102
RTVSPropertyOp7
 70
     1
102
RTVSPropertyOp8
 70
     1
102
RTVSPropertyOp9
 70
     1
102
RTVSPropertyOp10
 70
     1
102
RTVSPropertyOp11
 70
     1
102
RTVSPropertyOp12
 70
     1
102
RTVSPropertyOp13
 70
     1
102
RTVSPropertyOp14
 70
     1
102
RTVSPropertyOp15
 70
     1
102
RTVSPropertyOp16
 70
     1
102
RTVSPropertyOp17
 70
     1
102
RTVSPropertyOp18
 70
     1
102
RTVSPropertyOp19
 70
     1
102
RTVSPropertyOp20
 70
     1
102
RTVSPropertyOp21
 70
     1
102
RTVSPropertyOp22
 70
     1
102
RTVSPropertyOp23
 70
     1
102
RTVSPropertyOp24
 70
     1
102
RTVSPropertyOp25
 70
     1
102
RTVSPropertyOp26
 70
     1
102
RTVSPropertyOp27
 70
     1
102
RTVSPropertyOp28
 70
     1
102
RTVSPropertyOp29
 70
     1
102
RTVSPropertyOp30
 70
     1
102
RTVSPropertyOp31
 70
     1
102
RTVSPropertyOp32
 70
     1
102
RTVSPropertyOp33
 70
     1
102
RTVSPropertyOp34
 70
     1
102
RTVSPropertyOp35
 70
     1
102
RTVSPropertyOp36
 70
     1
102
RTVSPropertyOp37
 70
     1
102
RTVSPropertyOp38
 70
     1
102
RTVSPropertyOp39
 70
     1
102
RTVSPropertyOp40
 70
     1
102
RTVSPropertyOp41
 70
     1
102
RTVSPropertyOp42
 70
     1
102
RTVSPropertyOp43
 70
     1
102
RTVSPropertyOp44
 70
     1
102
RTVSPropertyOp45
 70
     1
102
RTVSPropertyOp46
 70
     1
102
RTVSPropertyOp47
 70
     1
102
RTVSPropertyOp48
 70
     1
102
RTVSPropertyOp49
 70
     1
102
RTVSPropertyOp50
 70
     1
102
RTVSPropertyOp51
 70
     0
102
RTVSPropertyOp52
 70
     0
102
RTVSPropertyOp53
 70
     1
102
RTVSPropertyOp54
 70
     1
102
RTVSPropertyOp55
 70
     1
102
RTVSPropertyOp56
 70
     1
102
RTVSPropertyOp57
 70
     1
102
RTVSPost2010Prop28
280
     0
102
RTVSPost2010PropOp28
 70
     1
102
RTVSPost2010Prop29
280
     1
102
RTVSPost2010PropOp29
 70
     1
102
RTVSPost2010Prop30
280
     1
102
RTVSPost2010PropOp30
 70
     1
102
RTVSPost2010Prop31
280
     0
102
RTVSPost2010PropOp31
 70
     1
102
RTVSPost2010Prop32
280
     0
102
RTVSPost2010PropOp32
 70
     1
102
RTVSPost2010Prop33
280
     0
102
RTVSPost2010PropOp33
 70
     1
102
RTVSPost2010Prop34
280
     0
102
RTVSPost2010PropOp34
 70
     1
102
RTVSPost2010Prop35
280
     0
102
RTVSPost2010PropOp35
 70
     1
102
RTVSPost2010Prop36
280
     0
102
RTVSPost2010PropOp36
 70
     1
102
RTVSPost2010Prop37
 90
       50
102
RTVSPost2010PropOp37
 70
     1
102
RTVSPost2010Prop38
140
0.0
102
RTVSPost2010PropOp38
 70
     1
102
RTVSPost2010Prop39
140
1.0
102
RTVSPost2010PropOp39
 70
     1
102
RTVSPost2010Prop40
 90
        0
102
RTVSPost2010PropOp40
 70
     1
102
RTVSPost2010Prop41ColorIndex
 90
      178
102
RTVSPost2010Prop41ColorRGB
 90
        0
102
RTVSPost2010PropOp41
 70
     1
102
RTVSPost2010Prop42
 90
       50
102
RTVSPost2010PropOp42
 70
     1
102
RTVSPost2010Prop43
 90
        3
102
RTVSPost2010PropOp43
 70
     1
102
RTVSPost2010Prop44ColorIndex
 90
        5
102
RTVSPost2010Prop44ColorRGB
 90
      255
102
RTVSPost2010PropOp44
 70
     1
102
RTVSPost2010Prop45
280
     0
102
RTVSPost2010PropOp45
 70
     1
102
RTVSPost2010Prop46
 90
       50
102
RTVSPost2010PropOp46
 70
     1
102
RTVSPost2010Prop47
 90
       50
102
RTVSPost2010PropOp47
 70
     1
102
RTVSPost2010Prop48
 90
       50
102
RTVSPost2010PropOp48
 70
     1
102
RTVSPost2010Prop49
280
     0
102
RTVSPost2010PropOp49
 70
     1
102
RTVSPost2010Prop50
 90
       50
102
RTVSPost2010PropOp50
 70
     1
102
RTVSPost2010Prop51ColorIndex
 90
      256
102
RTVSPost2010Prop51ColorRGB
 90
-16777216
102
RTVSPost2010PropOp51
 70
     0
102
RTVSPost2010Prop52
140
1.0
102
RTVSPost2010PropOp52
 70
     0
102
RTVSPost2010Prop53
 90
        2
102
RTVSPost2010PropOp53
 70
     1
102
RTVSPost2010Prop54
  1
strokes_ogs.tif
102
RTVSPost2010PropOp54
 70
     1
102
RTVSPost2010Prop55
280
     0
102
RTVSPost2010PropOp55
 70
     1
102
RTVSPost2010Prop56
140
1.0
102
RTVSPost2010PropOp56
 70
     1
102
RTVSPost2010Prop57
140
1.0
102
RTVSPost2010PropOp57
 70
     1
  0
ENDSEC
  0
EOF
