  0
SECTION
  2
HEADER
  9
$ACADVER
  1
AC1021
  9
$ACADMAINTVER
 70
    25
  9
$DWGCODEPAGE
  3
ANSI_1252
  9
$INSBASE
 10
0.0
 20
0.0
 30
0.0
  9
$EXTMIN
 10
1.000000000000000E+20
 20
1.000000000000000E+20
 30
1.000000000000000E+20
  9
$EXTMAX
 10
-1.000000000000000E+20
 20
-1.000000000000000E+20
 30
-1.000000000000000E+20
  9
$LIMMIN
 10
0.0
 20
0.0
  9
$LIMMAX
 10
12.0
 20
9.0
  9
$ORTHOMODE
 70
     0
  9
$REGENMODE
 70
     1
  9
$FILLMODE
 70
     1
  9
$QTEXTMODE
 70
     0
  9
$MIRRTEXT
 70
     1
  9
$LTSCALE
 40
1.0
  9
$ATTMODE
 70
     1
  9
$TEXTSIZE
 40
0.2
  9
$TRACEWID
 40
0.05
  9
$TEXTSTYLE
  7
Standard
  9
$CLAYER
  8
Graypants_Dish10v
  9
$CELTYPE
  6
ByLayer
  9
$CECOLOR
 62
   256
  9
$CELTSCALE
 40
1.0
  9
$DISPSILH
 70
     0
  9
$DIMSCALE
 40
1.0
  9
$DIMASZ
 40
0.18
  9
$DIMEXO
 40
0.0625
  9
$DIMDLI
 40
0.38
  9
$DIMRND
 40
0.0
  9
$DIMDLE
 40
0.0
  9
$DIMEXE
 40
0.18
  9
$DIMTP
 40
0.0
  9
$DIMTM
 40
0.0
  9
$DIMTXT
 40
0.18
  9
$DIMCEN
 40
0.09
  9
$DIMTSZ
 40
0.0
  9
$DIMTOL
 70
     0
  9
$DIMLIM
 70
     0
  9
$DIMTIH
 70
     1
  9
$DIMTOH
 70
     1
  9
$DIMSE1
 70
     0
  9
$DIMSE2
 70
     0
  9
$DIMTAD
 70
     0
  9
$DIMZIN
 70
     0
  9
$DIMBLK
  1

  9
$DIMASO
 70
     1
  9
$DIMSHO
 70
     1
  9
$DIMPOST
  1

  9
$DIMAPOST
  1

  9
$DIMALT
 70
     0
  9
$DIMALTD
 70
     2
  9
$DIMALTF
 40
25.4
  9
$DIMLFAC
 40
1.0
  9
$DIMTOFL
 70
     0
  9
$DIMTVP
 40
0.0
  9
$DIMTIX
 70
     0
  9
$DIMSOXD
 70
     0
  9
$DIMSAH
 70
     0
  9
$DIMBLK1
  1

  9
$DIMBLK2
  1

  9
$DIMSTYLE
  2
STANDARD_ACAD
  9
$DIMCLRD
 70
     0
  9
$DIMCLRE
 70
     0
  9
$DIMCLRT
 70
     0
  9
$DIMTFAC
 40
1.0
  9
$DIMGAP
 40
0.09
  9
$DIMJUST
 70
     0
  9
$DIMSD1
 70
     0
  9
$DIMSD2
 70
     0
  9
$DIMTOLJ
 70
     1
  9
$DIMTZIN
 70
     0
  9
$DIMALTZ
 70
     0
  9
$DIMALTTZ
 70
     0
  9
$DIMUPT
 70
     0
  9
$DIMDEC
 70
     4
  9
$DIMTDEC
 70
     4
  9
$DIMALTU
 70
     2
  9
$DIMALTTD
 70
     2
  9
$DIMTXSTY
  7
Standard
  9
$DIMAUNIT
 70
     0
  9
$DIMADEC
 70
     0
  9
$DIMALTRND
 40
0.0
  9
$DIMAZIN
 70
     0
  9
$DIMDSEP
 70
    46
  9
$DIMATFIT
 70
     3
  9
$DIMFRAC
 70
     0
  9
$DIMLDRBLK
  1

  9
$DIMLUNIT
 70
     2
  9
$DIMLWD
 70
    -2
  9
$DIMLWE
 70
    -2
  9
$DIMTMOVE
 70
     2
  9
$DIMFXL
 40
1.0
  9
$DIMFXLON
 70
     0
  9
$DIMJOGANG
 40
0.7853981633974483
  9
$DIMTFILL
 70
     0
  9
$DIMTFILLCLR
 70
     0
  9
$DIMARCSYM
 70
     0
  9
$DIMLTYPE
  6

  9
$DIMLTEX1
  6

  9
$DIMLTEX2
  6

  9
$LUNITS
 70
     2
  9
$LUPREC
 70
     2
  9
$SKETCHINC
 40
0.1
  9
$FILLETRAD
 40
0.5
  9
$AUNITS
 70
     0
  9
$AUPREC
 70
     0
  9
$MENU
  1
.
  9
$ELEVATION
 40
0.0
  9
$PELEVATION
 40
0.0
  9
$THICKNESS
 40
0.0
  9
$LIMCHECK
 70
     0
  9
$CHAMFERA
 40
0.0
  9
$CHAMFERB
 40
0.0
  9
$CHAMFERC
 40
0.0
  9
$CHAMFERD
 40
0.0
  9
$SKPOLY
 70
     0
  9
$TDCREATE
 40
2460850.697050324
  9
$TDUCREATE
 40
2460851.030383657
  9
$TDUPDATE
 40
2460850.697066331
  9
$TDUUPDATE
 40
2460851.030399664
  9
$TDINDWG
 40
0.0000000116
  9
$TDUSRTIMER
 40
0.0000000116
  9
$USRTIMER
 70
     1
  9
$ANGBASE
 50
0.0
  9
$ANGDIR
 70
     0
  9
$PDMODE
 70
     0
  9
$PDSIZE
 40
0.0
  9
$PLINEWID
 40
0.0
  9
$SPLFRAME
 70
     0
  9
$SPLINETYPE
 70
     6
  9
$SPLINESEGS
 70
     8
  9
$HANDSEED
  5
499
  9
$SURFTAB1
 70
     6
  9
$SURFTAB2
 70
     6
  9
$SURFTYPE
 70
     6
  9
$SURFU
 70
     6
  9
$SURFV
 70
     6
  9
$UCSBASE
  2

  9
$UCSNAME
  2

  9
$UCSORG
 10
0.0
 20
0.0
 30
0.0
  9
$UCSXDIR
 10
1.0
 20
0.0
 30
0.0
  9
$UCSYDIR
 10
0.0
 20
1.0
 30
0.0
  9
$UCSORTHOREF
  2

  9
$UCSORTHOVIEW
 70
     0
  9
$UCSORGTOP
 10
0.0
 20
0.0
 30
0.0
  9
$UCSORGBOTTOM
 10
0.0
 20
0.0
 30
0.0
  9
$UCSORGLEFT
 10
0.0
 20
0.0
 30
0.0
  9
$UCSORGRIGHT
 10
0.0
 20
0.0
 30
0.0
  9
$UCSORGFRONT
 10
0.0
 20
0.0
 30
0.0
  9
$UCSORGBACK
 10
0.0
 20
0.0
 30
0.0
  9
$PUCSBASE
  2

  9
$PUCSNAME
  2

  9
$PUCSORG
 10
0.0
 20
0.0
 30
0.0
  9
$PUCSXDIR
 10
1.0
 20
0.0
 30
0.0
  9
$PUCSYDIR
 10
0.0
 20
1.0
 30
0.0
  9
$PUCSORTHOREF
  2

  9
$PUCSORTHOVIEW
 70
     0
  9
$PUCSORGTOP
 10
0.0
 20
0.0
 30
0.0
  9
$PUCSORGBOTTOM
 10
0.0
 20
0.0
 30
0.0
  9
$PUCSORGLEFT
 10
0.0
 20
0.0
 30
0.0
  9
$PUCSORGRIGHT
 10
0.0
 20
0.0
 30
0.0
  9
$PUCSORGFRONT
 10
0.0
 20
0.0
 30
0.0
  9
$PUCSORGBACK
 10
0.0
 20
0.0
 30
0.0
  9
$USERI1
 70
     0
  9
$USERI2
 70
     0
  9
$USERI3
 70
     0
  9
$USERI4
 70
     0
  9
$USERI5
 70
     0
  9
$USERR1
 40
0.0
  9
$USERR2
 40
0.0
  9
$USERR3
 40
0.0
  9
$USERR4
 40
0.0
  9
$USERR5
 40
0.0
  9
$WORLDVIEW
 70
     1
  9
$SHADEDGE
 70
     3
  9
$SHADEDIF
 70
    70
  9
$TILEMODE
 70
     1
  9
$MAXACTVP
 70
    64
  9
$PINSBASE
 10
0.0
 20
0.0
 30
0.0
  9
$PLIMCHECK
 70
     0
  9
$PEXTMIN
 10
1.000000000000000E+20
 20
1.000000000000000E+20
 30
1.000000000000000E+20
  9
$PEXTMAX
 10
-1.000000000000000E+20
 20
-1.000000000000000E+20
 30
-1.000000000000000E+20
  9
$PLIMMIN
 10
0.0
 20
0.0
  9
$PLIMMAX
 10
12.0
 20
9.0
  9
$UNITMODE
 70
     0
  9
$VISRETAIN
 70
     1
  9
$PLINEGEN
 70
     0
  9
$PSLTSCALE
 70
     1
  9
$TREEDEPTH
 70
  3020
  9
$CMLSTYLE
  2
Standard
  9
$CMLJUST
 70
     0
  9
$CMLSCALE
 40
1.0
  9
$PROXYGRAPHICS
 70
     1
  9
$MEASUREMENT
 70
     1
  9
$CELWEIGHT
370
    -1
  9
$ENDCAPS
280
     0
  9
$JOINSTYLE
280
     0
  9
$LWDISPLAY
290
     0
  9
$INSUNITS
 70
     4
  9
$HYPERLINKBASE
  1

  9
$STYLESHEET
  1

  9
$XEDIT
290
     1
  9
$CEPSNTYPE
380
     0
  9
$PSTYLEMODE
290
     1
  9
$FINGERPRINTGUID
  2
{e614a04f-3c8f-024f-84ab-c5863a91f010}
  9
$VERSIONGUID
  2
{FAEB1C32-E019-11D5-929B-00C0DF256EC4}
  9
$EXTNAMES
290
     1
  9
$PSVPSCALE
 40
0.0
  9
$OLESTARTUP
290
     0
  9
$SORTENTS
280
   127
  9
$INDEXCTL
280
     0
  9
$HIDETEXT
280
     1
  9
$XCLIPFRAME
290
     0
  9
$HALOGAP
280
     0
  9
$OBSCOLOR
 70
   257
  9
$OBSLTYPE
280
     0
  9
$INTERSECTIONDISPLAY
280
     0
  9
$INTERSECTIONCOLOR
 70
   257
  9
$DIMASSOC
280
     2
  9
$PROJECTNAME
  1

  9
$CAMERADISPLAY
290
     0
  9
$LENSLENGTH
 40
50.0
  9
$CAMERAHEIGHT
 40
0.0
  9
$STEPSPERSEC
 40
2.0
  9
$STEPSIZE
 40
6.0
  9
$3DDWFPREC
 40
2.0
  9
$PSOLWIDTH
 40
0.25
  9
$PSOLHEIGHT
 40
4.0
  9
$LOFTANG1
 40
1.570796326794897
  9
$LOFTANG2
 40
1.570796326794897
  9
$LOFTMAG1
 40
0.0
  9
$LOFTMAG2
 40
0.0
  9
$LOFTPARAM
 70
     7
  9
$LOFTNORMALS
280
     1
  9
$LATITUDE
 40
37.795
  9
$LONGITUDE
 40
-122.394
  9
$NORTHDIRECTION
 40
0.0
  9
$TIMEZONE
 70
 -8000
  9
$LIGHTGLYPHDISPLAY
280
     1
  9
$TILEMODELIGHTSYNCH
280
     1
  9
$CMATERIAL
347
44
  9
$SOLIDHIST
280
     0
  9
$SHOWHIST
280
     1
  9
$DWFFRAME
280
     2
  9
$DGNFRAME
280
     2
  9
$REALWORLDSCALE
290
     1
  9
$INTERFERECOLOR
 62
   256
  9
$CSHADOW
280
     0
  9
$SHADOWPLANELOCATION
 40
0.0
  0
ENDSEC
  0
SECTION
  2
CLASSES
  0
CLASS
  1
ACDBDICTIONARYWDFLT
  2
AcDbDictionaryWithDefault
  3
ObjectDBX Classes
 90
        0
 91
        3
280
     0
281
     0
  0
CLASS
  1
VISUALSTYLE
  2
AcDbVisualStyle
  3
ObjectDBX Classes
 90
     4095
 91
        3
280
     0
281
     0
  0
CLASS
  1
MATERIAL
  2
AcDbMaterial
  3
ObjectDBX Classes
 90
     1153
 91
        3
280
     0
281
     0
  0
CLASS
  1
SCALE
  2
AcDbScale
  3
ObjectDBX Classes
 90
     1153
 91
        3
280
     0
281
     0
  0
CLASS
  1
TABLESTYLE
  2
AcDbTableStyle
  3
ObjectDBX Classes
 90
     4095
 91
        3
280
     0
281
     0
  0
CLASS
  1
MLEADERSTYLE
  2
AcDbMLeaderStyle
  3
ACDB_MLEADERSTYLE_CLASS
 90
     4095
 91
        3
280
     0
281
     0
  0
CLASS
  1
SUN
  2
AcDbSun
  3
SCENEOE
 90
     1153
 91
        3
280
     0
281
     0
  0
CLASS
  1
DICTIONARYVAR
  2
AcDbDictionaryVar
  3
ObjectDBX Classes
 90
        0
 91
        3
280
     0
281
     0
  0
CLASS
  1
CELLSTYLEMAP
  2
AcDbCellStyleMap
  3
ObjectDBX Classes
 90
     1152
 91
        3
280
     0
281
     0
  0
ENDSEC
  0
SECTION
  2
TABLES
  0
TABLE
  2
VPORT
  5
8
330
0
100
AcDbSymbolTable
 70
     1
  0
VPORT
  5
29
330
8
100
AcDbSymbolTableRecord
100
AcDbViewportTableRecord
  2
*Active
 70
     0
 10
0.0
 20
0.0
 11
1.0
 21
1.0
 12
10.42990654205607
 22
4.5
 13
0.0
 23
0.0
 14
0.5
 24
0.5
 15
0.5
 25
0.5
 16
0.0
 26
0.0
 36
1.0
 17
0.0
 27
0.0
 37
0.0
 40
9.0
 41
1.972972972850329
 42
50.0
 43
0.0
 44
0.0
 50
0.0
 51
0.0
 71
     0
 72
   100
 73
     1
 74
     3
 75
     0
 76
     0
 77
     0
 78
     0
281
     0
 65
     1
110
0.0
120
0.0
130
0.0
111
1.0
121
0.0
131
0.0
112
0.0
122
1.0
132
0.0
 79
     0
146
0.0
348
2F
 60
     3
 61
     5
292
     1
282
     1
141
0.0
142
0.0
 63
   250
361
6D
  0
ENDTAB
  0
TABLE
  2
LTYPE
  5
5
330
0
100
AcDbSymbolTable
 70
     2
  0
LTYPE
  5
14
330
5
100
AcDbSymbolTableRecord
100
AcDbLinetypeTableRecord
  2
ByBlock
 70
     0
  3

 72
    65
 73
     0
 40
0.0
  0
LTYPE
  5
15
330
5
100
AcDbSymbolTableRecord
100
AcDbLinetypeTableRecord
  2
ByLayer
 70
     0
  3

 72
    65
 73
     0
 40
0.0
  0
LTYPE
  5
16
330
5
100
AcDbSymbolTableRecord
100
AcDbLinetypeTableRecord
  2
Continuous
 70
     0
  3
Solid line
 72
    65
 73
     0
 40
0.0
  0
LTYPE
  5
273
330
5
100
AcDbSymbolTableRecord
100
AcDbLinetypeTableRecord
  2
Hidden
 70
     0
  3

 72
    65
 73
     2
 40
4.0
 49
2.0
 74
     0
 49
-2.0
 74
     0
  0
ENDTAB
  0
TABLE
  2
LAYER
  5
2
330
0
100
AcDbSymbolTable
 70
     2
  0
LAYER
  5
10
330
2
100
AcDbSymbolTableRecord
100
AcDbLayerTableRecord
  2
0
 70
     0
 62
     7
  6
Continuous
370
    -3
390
F
347
46
  0
LAYER
  5
6E
330
2
100
AcDbSymbolTableRecord
100
AcDbLayerTableRecord
  2
Graypants_Dish10v
 70
     0
 62
    36
420
  8866048
  6
Continuous
370
    -3
390
F
347
46
  0
ENDTAB
  0
TABLE
  2
STYLE
  5
3
330
0
100
AcDbSymbolTable
 70
     1
  0
STYLE
  5
11
330
3
100
AcDbSymbolTableRecord
100
AcDbTextStyleTableRecord
  2
Standard
 70
     0
 40
0.0
 41
1.0
 50
0.0
 71
     0
 42
0.2
  3
txt
  4

  0
ENDTAB
  0
TABLE
  2
VIEW
  5
6
330
0
100
AcDbSymbolTable
 70
     0
  0
ENDTAB
  0
TABLE
  2
UCS
  5
7
330
0
100
AcDbSymbolTable
 70
     0
  0
ENDTAB
  0
TABLE
  2
APPID
  5
9
330
0
100
AcDbSymbolTable
 70
     2
  0
APPID
  5
12
330
9
100
AcDbSymbolTableRecord
100
AcDbRegAppTableRecord
  2
ACAD
 70
     0
  0
APPID
  5
491
330
9
100
AcDbSymbolTableRecord
100
AcDbRegAppTableRecord
  2
ACAD_MLEADERVER
 70
     0
  0
ENDTAB
  0
TABLE
  2
DIMSTYLE
  5
A
330
0
100
AcDbSymbolTable
 70
     1
100
AcDbDimStyleTable
  0
DIMSTYLE
105
27
330
A
100
AcDbSymbolTableRecord
100
AcDbDimStyleTableRecord
  2
STANDARD_ACAD
 70
     0
178
     0
340
11
  0
ENDTAB
  0
TABLE
  2
BLOCK_RECORD
  5
1
330
0
100
AcDbSymbolTable
 70
     1
  0
BLOCK_RECORD
  5
1F
330
1
100
AcDbSymbolTableRecord
100
AcDbBlockTableRecord
  2
*Model_Space
340
22
 70
     0
280
     1
281
     0
  0
BLOCK_RECORD
  5
1B
330
1
100
AcDbSymbolTableRecord
100
AcDbBlockTableRecord
  2
*Paper_Space
340
1E
 70
     0
280
     1
281
     0
  0
BLOCK_RECORD
  5
23
330
1
100
AcDbSymbolTableRecord
100
AcDbBlockTableRecord
  2
*Paper_Space0
340
26
 70
     0
280
     1
281
     0
  0
ENDTAB
  0
ENDSEC
  0
SECTION
  2
BLOCKS
  0
BLOCK
  5
20
330
1F
100
AcDbEntity
  8
0
100
AcDbBlockBegin
  2
*Model_Space
 70
     0
 10
0.0
 20
0.0
 30
0.0
  3
*Model_Space
  1

  0
ENDBLK
  5
21
330
1F
100
AcDbEntity
  8
0
100
AcDbBlockEnd
  0
BLOCK
  5
1C
330
1B
100
AcDbEntity
 67
     1
  8
0
100
AcDbBlockBegin
  2
*Paper_Space
 70
     0
 10
0.0
 20
0.0
 30
0.0
  3
*Paper_Space
  1

  0
ENDBLK
  5
1D
330
1B
100
AcDbEntity
 67
     1
  8
0
100
AcDbBlockEnd
  0
BLOCK
  5
24
330
23
100
AcDbEntity
  8
0
100
AcDbBlockBegin
  2
*Paper_Space0
 70
     0
 10
0.0
 20
0.0
 30
0.0
  3
*Paper_Space0
  1

  0
ENDBLK
  5
25
330
23
100
AcDbEntity
  8
0
100
AcDbBlockEnd
  0
ENDSEC
  0
SECTION
  2
ENTITIES
  0
LINE
  5
6F
330
1F
100
AcDbEntity
  8
Graypants_Dish10v
370
    -3
100
AcDbLine
 10
355.2282531690739
 20
-354.9847394796916
 30
0.0
 11
220.1157531690736
 21
-354.9847394794688
 31
0.0
  0
LINE
  5
70
330
1F
100
AcDbEntity
  8
Graypants_Dish10v
370
    -3
100
AcDbLine
 10
218.6157531692089
 20
-314.5034894795801
 30
0.0
 11
356.7282531692088
 21
-314.5034894795801
 31
0.0
  0
ARC
  5
71
330
1F
100
AcDbEntity
  8
Graypants_Dish10v
370
    -3
100
AcDbCircle
 10
220.1157531690758
 20
-353.4847394794692
 30
0.0
 40
1.499999999999602
100
AcDbArc
 50
179.9999999998914
 51
269.9999999999153
  0
ARC
  5
72
330
1F
100
AcDbEntity
  8
Graypants_Dish10v
370
    -3
100
AcDbCircle
 10
-355.228253169076
 20
-353.4847394796913
 30
0.0
 40
1.500000000000284
210
0.0
220
0.0
230
-1.0
100
AcDbArc
 50
180.000000000102
 51
270.0000000000803
  0
LINE
  5
73
330
1F
100
AcDbEntity
  8
Graypants_Dish10v
370
    -3
100
AcDbLine
 10
356.7282531692088
 20
-314.5034894795801
 30
0.0
 11
356.7282531690763
 21
-353.4847394798062
 31
0.0
  0
LINE
  5
74
330
1F
100
AcDbEntity
  8
Graypants_Dish10v
370
    -3
100
AcDbLine
 10
218.6157531690763
 20
-353.4847394793542
 30
0.0
 11
218.6157531692089
 21
-314.5034894795801
 31
0.0
  0
ARC
  5
75
330
1F
100
AcDbEntity
  8
Graypants_Dish10v
370
    -3
100
AcDbCircle
 10
-67.51901864783855
 20
-353.48473947958
 30
0.0
 40
1.5
210
0.0
220
0.0
230
-1.0
100
AcDbArc
 50
180.0
 51
269.9999999999913
  0
ARC
  5
76
330
1F
100
AcDbEntity
  8
Graypants_Dish10v
370
    -3
100
AcDbCircle
 10
-67.59348135216185
 20
-353.4847394795804
 30
0.0
 40
1.499999999999559
100
AcDbArc
 50
179.9999999999826
 51
270.0000000000103
  0
LINE
  5
77
330
1F
100
AcDbEntity
  8
Graypants_Dish10v
370
    -3
100
AcDbLine
 10
69.01901864783855
 20
-314.5034894795799
 30
0.0
 11
69.01901864783855
 21
-353.4847394795798
 31
0.0
  0
LINE
  5
78
330
1F
100
AcDbEntity
  8
Graypants_Dish10v
370
    -3
100
AcDbLine
 10
67.51901864783878
 20
-354.98473947958
 30
0.0
 11
-67.59348135216158
 21
-354.98473947958
 31
0.0
  0
LINE
  5
79
330
1F
100
AcDbEntity
  8
Graypants_Dish10v
370
    -3
100
AcDbLine
 10
-69.0934813521614
 20
-353.48473947958
 30
0.0
 11
-69.0934813521614
 21
-314.5034894795799
 31
0.0
  0
LINE
  5
7A
330
1F
100
AcDbEntity
  8
Graypants_Dish10v
370
    -3
100
AcDbLine
 10
-69.0934813521614
 20
-314.5034894795799
 30
0.0
 11
69.01901864783855
 21
-314.5034894795799
 31
0.0
  0
LINE
  5
7B
330
1F
100
AcDbEntity
  8
Graypants_Dish10v
370
    -3
100
AcDbLine
 10
260.0516267472897
 20
-878.7247394795802
 30
0.0
 11
258.6016267472897
 21
-878.7247394795802
 31
0.0
  0
LINE
  5
7C
330
1F
100
AcDbEntity
  8
Graypants_Dish10v
370
    -3
100
AcDbLine
 10
288.1720028721409
 20
-354.9847394795802
 30
0.0
 11
288.1720028721409
 21
-752.7260306818182
 31
0.0
  0
LINE
  5
7D
330
1F
100
AcDbEntity
  8
Graypants_Dish10v
370
    -3
100
AcDbLine
 10
287.1720028721409
 20
-752.7247394795802
 30
0.0
 11
287.1720028721409
 21
-354.9847394795801
 31
0.0
  0
POLYLINE
  5
7E
330
1F
100
AcDbEntity
  8
Graypants_Dish10v
370
    -3
100
AcDb2dPolyline
 66
     1
 10
0.0
 20
0.0
 30
0.0
  0
VERTEX
  5
7F
330
7E
100
AcDbEntity
  8
Graypants_Dish10v
370
    -3
100
AcDbVertex
100
AcDb2dVertex
 10
260.0516267472897
 20
-868.7247394795802
 30
0.0
  0
VERTEX
  5
80
330
7E
100
AcDbEntity
  8
Graypants_Dish10v
370
    -3
100
AcDbVertex
100
AcDb2dVertex
 10
258.6016267472897
 20
-868.7247394795802
 30
0.0
  0
VERTEX
  5
81
330
7E
100
AcDbEntity
  8
Graypants_Dish10v
370
    -3
100
AcDbVertex
100
AcDb2dVertex
 10
258.6016267472897
 20
-878.7247394795802
 30
0.0
  0
VERTEX
  5
82
330
7E
100
AcDbEntity
  8
Graypants_Dish10v
370
    -3
100
AcDbVertex
100
AcDb2dVertex
 10
258.3016267472897
 20
-878.4247394795805
 30
0.0
  0
VERTEX
  5
83
330
7E
100
AcDbEntity
  8
Graypants_Dish10v
370
    -3
100
AcDbVertex
100
AcDb2dVertex
 10
258.3016267472897
 20
-869.0247394795804
 30
0.0
  0
VERTEX
  5
84
330
7E
100
AcDbEntity
  8
Graypants_Dish10v
370
    -3
100
AcDbVertex
100
AcDb2dVertex
 10
258.6016267472897
 20
-868.7247394795802
 30
0.0
  0
SEQEND
  5
85
330
7E
100
AcDbEntity
  8
Graypants_Dish10v
370
    -3
  0
POLYLINE
  5
86
330
1F
100
AcDbEntity
  8
Graypants_Dish10v
370
    -3
100
AcDb2dPolyline
 66
     1
 10
0.0
 20
0.0
 30
0.0
  0
VERTEX
  5
87
330
86
100
AcDbEntity
  8
Graypants_Dish10v
370
    -3
100
AcDbVertex
100
AcDb2dVertex
 10
315.2923799086414
 20
-868.7247394795802
 30
0.0
  0
VERTEX
  5
88
330
86
100
AcDbEntity
  8
Graypants_Dish10v
370
    -3
100
AcDbVertex
100
AcDb2dVertex
 10
316.7423799086415
 20
-868.7247394795802
 30
0.0
  0
VERTEX
  5
89
330
86
100
AcDbEntity
  8
Graypants_Dish10v
370
    -3
100
AcDbVertex
100
AcDb2dVertex
 10
317.0423799086414
 20
-869.0247394795804
 30
0.0
  0
VERTEX
  5
8A
330
86
100
AcDbEntity
  8
Graypants_Dish10v
370
    -3
100
AcDbVertex
100
AcDb2dVertex
 10
317.0423799086414
 20
-878.4247394795805
 30
0.0
  0
VERTEX
  5
8B
330
86
100
AcDbEntity
  8
Graypants_Dish10v
370
    -3
100
AcDbVertex
100
AcDb2dVertex
 10
316.7423799086415
 20
-878.7247394795802
 30
0.0
  0
VERTEX
  5
8C
330
86
100
AcDbEntity
  8
Graypants_Dish10v
370
    -3
100
AcDbVertex
100
AcDb2dVertex
 10
315.2923799086414
 20
-878.7247394795802
 30
0.0
  0
SEQEND
  5
8D
330
86
100
AcDbEntity
  8
Graypants_Dish10v
370
    -3
  0
LINE
  5
8E
330
1F
100
AcDbEntity
  8
Graypants_Dish10v
370
    -3
100
AcDbLine
 10
316.7423799086415
 20
-878.7247394795802
 30
0.0
 11
316.7423799086415
 21
-868.7247394795802
 31
0.0
  0
CIRCLE
  5
8F
330
1F
100
AcDbEntity
  8
Graypants_Dish10v
100
AcDbCircle
 10
0.0017005008473348
 20
-873.7247394795802
 30
0.0
 40
117.3206977596576
  0
CIRCLE
  5
90
330
1F
100
AcDbEntity
  8
Graypants_Dish10v
370
    -3
100
AcDbCircle
 10
0.0017005008472096
 20
-873.7247394795802
 30
0.0
 40
4.700000000000057
  0
POLYLINE
  5
91
330
1F
100
AcDbEntity
  8
Graypants_Dish10v
370
    -3
100
AcDb2dPolyline
 66
     1
 10
0.0
 20
0.0
 30
0.0
  0
VERTEX
  5
92
330
91
100
AcDbEntity
  8
Graypants_Dish10v
370
    -3
100
AcDbVertex
100
AcDb2dVertex
 10
0.5000000000000229
 20
-752.7257655268681
 30
0.0
  0
VERTEX
  5
93
330
91
100
AcDbEntity
  8
Graypants_Dish10v
370
    -3
100
AcDbVertex
100
AcDb2dVertex
 10
0.4999999999999581
 20
-354.9847394795799
 30
0.0
  0
VERTEX
  5
94
330
91
100
AcDbEntity
  8
Graypants_Dish10v
370
    -3
100
AcDbVertex
100
AcDb2dVertex
 10
-0.5
 20
-354.9847394795801
 30
0.0
  0
VERTEX
  5
95
330
91
100
AcDbEntity
  8
Graypants_Dish10v
370
    -3
100
AcDbVertex
100
AcDb2dVertex
 10
-0.4999999999999264
 20
-752.7257795807141
 30
0.0
  0
SEQEND
  5
96
330
91
100
AcDbEntity
  8
Graypants_Dish10v
370
    -3
  0
CIRCLE
  5
97
330
1F
100
AcDbEntity
  8
Graypants_Dish10v
370
    -3
100
AcDbCircle
 10
0.0017005008469999
 20
-873.7247394795803
 30
0.0
 40
5.000000000000221
  0
POLYLINE
  5
98
330
1F
100
AcDbEntity
  8
Graypants_Dish10v
370
    -3
100
AcDb2dPolyline
 66
     1
 10
0.0
 20
0.0
 30
0.0
  0
VERTEX
  5
99
330
98
100
AcDbEntity
  8
Graypants_Dish10v
370
    -3
100
AcDbVertex
100
AcDb2dVertex
 10
282.6720101936698
 20
-990.545437239238
 30
0.0
  0
VERTEX
  5
9A
330
98
100
AcDbEntity
  8
Graypants_Dish10v
370
    -3
100
AcDbVertex
100
AcDb2dVertex
 10
282.67170945715
 20
-990.562776387928
 30
0.0
  0
VERTEX
  5
9B
330
98
100
AcDbEntity
  8
Graypants_Dish10v
370
    -3
100
AcDbVertex
100
AcDb2dVertex
 10
282.6708076093607
 20
-990.580094678557
 30
0.0
  0
VERTEX
  5
9C
330
98
100
AcDbEntity
  8
Graypants_Dish10v
370
    -3
100
AcDbVertex
100
AcDb2dVertex
 10
282.6693057351758
 20
-990.5973712781553
 30
0.0
  0
VERTEX
  5
9D
330
98
100
AcDbEntity
  8
Graypants_Dish10v
370
    -3
100
AcDbVertex
100
AcDb2dVertex
 10
282.6672056412693
 20
-990.614585403905
 30
0.0
  0
VERTEX
  5
9E
330
98
100
AcDbEntity
  8
Graypants_Dish10v
370
    -3
100
AcDbVertex
100
AcDb2dVertex
 10
282.6645098539407
 20
-990.6317163481414
 30
0.0
  0
VERTEX
  5
9F
330
98
100
AcDbEntity
  8
Graypants_Dish10v
370
    -3
100
AcDbVertex
100
AcDb2dVertex
 10
282.6612216160769
 20
-990.6487435032618
 30
0.0
  0
VERTEX
  5
A0
330
98
100
AcDbEntity
  8
Graypants_Dish10v
370
    -3
100
AcDbVertex
100
AcDb2dVertex
 10
282.6573448832507
 20
-990.6656463865171
 30
0.0
  0
VERTEX
  5
A1
330
98
100
AcDbEntity
  8
Graypants_Dish10v
370
    -3
100
AcDbVertex
100
AcDb2dVertex
 10
282.6528843189627
 20
-990.68240466465
 30
0.0
  0
VERTEX
  5
A2
330
98
100
AcDbEntity
  8
Graypants_Dish10v
370
    -3
100
AcDbVertex
100
AcDb2dVertex
 10
282.6478452890312
 20
-990.6989981783555
 30
0.0
  0
VERTEX
  5
A3
330
98
100
AcDbEntity
  8
Graypants_Dish10v
370
    -3
100
AcDbVertex
100
AcDb2dVertex
 10
282.6422338551374
 20
-990.7154069665314
 30
0.0
  0
VERTEX
  5
A4
330
98
100
AcDbEntity
  8
Graypants_Dish10v
370
    -3
100
AcDbVertex
100
AcDb2dVertex
 10
282.6360567675339
 20
-990.7316112902903
 30
0.0
  0
VERTEX
  5
A5
330
98
100
AcDbEntity
  8
Graypants_Dish10v
370
    -3
100
AcDbVertex
100
AcDb2dVertex
 10
282.6293214569239
 20
-990.7475916567047
 30
0.0
  0
VERTEX
  5
A6
330
98
100
AcDbEntity
  8
Graypants_Dish10v
370
    -3
100
AcDbVertex
100
AcDb2dVertex
 10
282.6220360255228
 20
-990.763328842255
 30
0.0
  0
VERTEX
  5
A7
330
98
100
AcDbEntity
  8
Graypants_Dish10v
370
    -3
100
AcDbVertex
100
AcDb2dVertex
 10
282.6142092373119
 20
-990.7788039159559
 30
0.0
  0
VERTEX
  5
A8
330
98
100
AcDbEntity
  8
Graypants_Dish10v
370
    -3
100
AcDbVertex
100
AcDb2dVertex
 10
282.6058505074953
 20
-990.7939982621281
 30
0.0
  0
VERTEX
  5
A9
330
98
100
AcDbEntity
  8
Graypants_Dish10v
370
    -3
100
AcDbVertex
100
AcDb2dVertex
 10
282.5969698911742
 20
-990.8088936027923
 30
0.0
  0
VERTEX
  5
AA
330
98
100
AcDbEntity
  8
Graypants_Dish10v
370
    -3
100
AcDbVertex
100
AcDb2dVertex
 10
282.5875780712514
 20
-990.8234720196571
 30
0.0
  0
VERTEX
  5
AB
330
98
100
AcDbEntity
  8
Graypants_Dish10v
370
    -3
100
AcDbVertex
100
AcDb2dVertex
 10
282.5776863455797
 20
-990.837715975673
 30
0.0
  0
VERTEX
  5
AC
330
98
100
AcDbEntity
  8
Graypants_Dish10v
370
    -3
100
AcDbVertex
100
AcDb2dVertex
 10
282.5673066133716
 20
-990.8516083361288
 30
0.0
  0
VERTEX
  5
AD
330
98
100
AcDbEntity
  8
Graypants_Dish10v
370
    -3
100
AcDbVertex
100
AcDb2dVertex
 10
282.5564513608855
 20
-990.8651323892642
 30
0.0
  0
VERTEX
  5
AE
330
98
100
AcDbEntity
  8
Graypants_Dish10v
370
    -3
100
AcDbVertex
100
AcDb2dVertex
 10
282.5451336464047
 20
-990.8782718663724
 30
0.0
  0
VERTEX
  5
AF
330
98
100
AcDbEntity
  8
Graypants_Dish10v
370
    -3
100
AcDbVertex
100
AcDb2dVertex
 10
282.5333670845293
 20
-990.891010961371
 30
0.0
  0
VERTEX
  5
B0
330
98
100
AcDbEntity
  8
Graypants_Dish10v
370
    -3
100
AcDbVertex
100
AcDb2dVertex
 10
282.5211658297991
 20
-990.9033343498154
 30
0.0
  0
VERTEX
  5
B1
330
98
100
AcDbEntity
  8
Graypants_Dish10v
370
    -3
100
AcDbVertex
100
AcDb2dVertex
 10
282.5085445596654
 20
-990.915227207334
 30
0.0
  0
VERTEX
  5
B2
330
98
100
AcDbEntity
  8
Graypants_Dish10v
370
    -3
100
AcDbVertex
100
AcDb2dVertex
 10
282.4955184568357
 20
-990.9266752274605
 30
0.0
  0
VERTEX
  5
B3
330
98
100
AcDbEntity
  8
Graypants_Dish10v
370
    -3
100
AcDbVertex
100
AcDb2dVertex
 10
282.4821031910092
 20
-990.9376646388438
 30
0.0
  0
VERTEX
  5
B4
330
98
100
AcDbEntity
  8
Graypants_Dish10v
370
    -3
100
AcDbVertex
100
AcDb2dVertex
 10
282.4683149000276
 20
-990.9481822218147
 30
0.0
  0
VERTEX
  5
B5
330
98
100
AcDbEntity
  8
Graypants_Dish10v
370
    -3
100
AcDbVertex
100
AcDb2dVertex
 10
282.4541701704612
 20
-990.9582153242882
 30
0.0
  0
VERTEX
  5
B6
330
98
100
AcDbEntity
  8
Graypants_Dish10v
370
    -3
100
AcDbVertex
100
AcDb2dVertex
 10
282.4396860176571
 20
-990.9677518769826
 30
0.0
  0
VERTEX
  5
B7
330
98
100
AcDbEntity
  8
Graypants_Dish10v
370
    -3
100
AcDbVertex
100
AcDb2dVertex
 10
282.42487986527
 20
-990.9767804079394
 30
0.0
  0
VERTEX
  5
B8
330
98
100
AcDbEntity
  8
Graypants_Dish10v
370
    -3
100
AcDbVertex
100
AcDb2dVertex
 10
282.4097695243031
 20
-990.9852900563228
 30
0.0
  0
VERTEX
  5
B9
330
98
100
AcDbEntity
  8
Graypants_Dish10v
370
    -3
100
AcDbVertex
100
AcDb2dVertex
 10
282.3943731716817
 20
-990.9932705854844
 30
0.0
  0
VERTEX
  5
BA
330
98
100
AcDbEntity
  8
Graypants_Dish10v
370
    -3
100
AcDbVertex
100
AcDb2dVertex
 10
282.3787093283876
 20
-991.0007123952784
 30
0.0
  0
VERTEX
  5
BB
330
98
100
AcDbEntity
  8
Graypants_Dish10v
370
    -3
100
AcDbVertex
100
AcDb2dVertex
 10
282.36279683718
 20
-991.0076065336084
 30
0.0
  0
VERTEX
  5
BC
330
98
100
AcDbEntity
  8
Graypants_Dish10v
370
    -3
100
AcDbVertex
100
AcDb2dVertex
 10
282.3466548399276
 20
-991.0139447071979
 30
0.0
  0
VERTEX
  5
BD
330
98
100
AcDbEntity
  8
Graypants_Dish10v
370
    -3
100
AcDbVertex
100
AcDb2dVertex
 10
282.3303027545828
 20
-991.0197192915658
 30
0.0
  0
VERTEX
  5
BE
330
98
100
AcDbEntity
  8
Graypants_Dish10v
370
    -3
100
AcDbVertex
100
AcDb2dVertex
 10
282.3137602518225
 20
-991.0249233401986
 30
0.0
  0
VERTEX
  5
BF
330
98
100
AcDbEntity
  8
Graypants_Dish10v
370
    -3
100
AcDbVertex
100
AcDb2dVertex
 10
282.2970472313856
 20
-991.0295505929063
 30
0.0
  0
VERTEX
  5
C0
330
98
100
AcDbEntity
  8
Graypants_Dish10v
370
    -3
100
AcDbVertex
100
AcDb2dVertex
 10
282.2801837981344
 20
-991.0335954833535
 30
0.0
  0
VERTEX
  5
C1
330
98
100
AcDbEntity
  8
Graypants_Dish10v
370
    -3
100
AcDbVertex
100
AcDb2dVertex
 10
282.2631902378699
 20
-991.0370531457548
 30
0.0
  0
VERTEX
  5
C2
330
98
100
AcDbEntity
  8
Graypants_Dish10v
370
    -3
100
AcDbVertex
100
AcDb2dVertex
 10
282.2460869929287
 20
-991.0399194207291
 30
0.0
  0
VERTEX
  5
C3
330
98
100
AcDbEntity
  8
Graypants_Dish10v
370
    -3
100
AcDbVertex
100
AcDb2dVertex
 10
282.2288946375923
 20
-991.0421908603021
 30
0.0
  0
VERTEX
  5
C4
330
98
100
AcDbEntity
  8
Graypants_Dish10v
370
    -3
100
AcDbVertex
100
AcDb2dVertex
 10
282.2116338533371
 20
-991.0438647320544
 30
0.0
  0
VERTEX
  5
C5
330
98
100
AcDbEntity
  8
Graypants_Dish10v
370
    -3
100
AcDbVertex
100
AcDb2dVertex
 10
282.1943254039559
 20
-991.0449390224086
 30
0.0
  0
VERTEX
  5
C6
330
98
100
AcDbEntity
  8
Graypants_Dish10v
370
    -3
100
AcDbVertex
100
AcDb2dVertex
 10
282.17699011058
 20
-991.0454124390512
 30
0.0
  0
VERTEX
  5
C7
330
98
100
AcDbEntity
  8
Graypants_Dish10v
370
    -3
100
AcDbVertex
100
AcDb2dVertex
 10
282.1596488266326
 20
-991.0452844124876
 30
0.0
  0
VERTEX
  5
C8
330
98
100
AcDbEntity
  8
Graypants_Dish10v
370
    -3
100
AcDbVertex
100
AcDb2dVertex
 10
282.1423224127432
 20
-991.0445550967269
 30
0.0
  0
VERTEX
  5
C9
330
98
100
AcDbEntity
  8
Graypants_Dish10v
370
    -3
100
AcDbVertex
100
AcDb2dVertex
 10
282.1250317116534
 20
-991.0432253690967
 30
0.0
  0
VERTEX
  5
CA
330
98
100
AcDbEntity
  8
Graypants_Dish10v
370
    -3
100
AcDbVertex
100
AcDb2dVertex
 10
282.1077975231444
 20
-991.0412968291873
 30
0.0
  0
VERTEX
  5
CB
330
98
100
AcDbEntity
  8
Graypants_Dish10v
370
    -3
100
AcDbVertex
100
AcDb2dVertex
 10
282.0906405790155
 20
-991.0387717969286
 30
0.0
  0
VERTEX
  5
CC
330
98
100
AcDbEntity
  8
Graypants_Dish10v
370
    -3
100
AcDbVertex
100
AcDb2dVertex
 10
282.0735815181457
 20
-991.0356533097979
 30
0.0
  0
VERTEX
  5
CD
330
98
100
AcDbEntity
  8
Graypants_Dish10v
370
    -3
100
AcDbVertex
100
AcDb2dVertex
 10
282.0566408616651
 20
-991.0319451191674
 30
0.0
  0
VERTEX
  5
CE
330
98
100
AcDbEntity
  8
Graypants_Dish10v
370
    -3
100
AcDbVertex
100
AcDb2dVertex
 10
282.03983898827
 20
-991.0276516857905
 30
0.0
  0
VERTEX
  5
CF
330
98
100
AcDbEntity
  8
Graypants_Dish10v
370
    -3
100
AcDbVertex
100
AcDb2dVertex
 10
282.0231961097082
 20
-991.0227781744356
 30
0.0
  0
VERTEX
  5
D0
330
98
100
AcDbEntity
  8
Graypants_Dish10v
370
    -3
100
AcDbVertex
100
AcDb2dVertex
 10
282.0067322464653
 20
-991.0173304476746
 30
0.0
  0
VERTEX
  5
D1
330
98
100
AcDbEntity
  8
Graypants_Dish10v
370
    -3
100
AcDbVertex
100
AcDb2dVertex
 10
281.9904672036809
 20
-991.0113150588286
 30
0.0
  0
VERTEX
  5
D2
330
98
100
AcDbEntity
  8
Graypants_Dish10v
370
    -3
100
AcDbVertex
100
AcDb2dVertex
 10
281.9744205473244
 20
-991.0047392440864
 30
0.0
  0
VERTEX
  5
D3
330
98
100
AcDbEntity
  8
Graypants_Dish10v
370
    -3
100
AcDbVertex
100
AcDb2dVertex
 10
281.9586115806583
 20
-990.9976109137984
 30
0.0
  0
VERTEX
  5
D4
330
98
100
AcDbEntity
  8
Graypants_Dish10v
370
    -3
100
AcDbVertex
100
AcDb2dVertex
 10
281.943059321017
 20
-990.9899386429615
 30
0.0
  0
VERTEX
  5
D5
330
98
100
AcDbEntity
  8
Graypants_Dish10v
370
    -3
100
AcDbVertex
100
AcDb2dVertex
 10
281.9277824769301
 20
-990.9817316609038
 30
0.0
  0
VERTEX
  5
D6
330
98
100
AcDbEntity
  8
Graypants_Dish10v
370
    -3
100
AcDbVertex
100
AcDb2dVertex
 10
281.9127994256175
 20
-990.9729998401824
 30
0.0
  0
VERTEX
  5
D7
330
98
100
AcDbEntity
  8
Graypants_Dish10v
370
    -3
100
AcDbVertex
100
AcDb2dVertex
 10
281.898128190882
 20
-990.9637536847066
 30
0.0
  0
VERTEX
  5
D8
330
98
100
AcDbEntity
  8
Graypants_Dish10v
370
    -3
100
AcDbVertex
100
AcDb2dVertex
 10
281.8837864214279
 20
-990.954004317103
 30
0.0
  0
VERTEX
  5
D9
330
98
100
AcDbEntity
  8
Graypants_Dish10v
370
    -3
100
AcDbVertex
100
AcDb2dVertex
 10
281.8697913696304
 20
-990.9437634653352
 30
0.0
  0
VERTEX
  5
DA
330
98
100
AcDbEntity
  8
Graypants_Dish10v
370
    -3
100
AcDbVertex
100
AcDb2dVertex
 10
281.8561598707823
 20
-990.9330434485954
 30
0.0
  0
VERTEX
  5
DB
330
98
100
AcDbEntity
  8
Graypants_Dish10v
370
    -3
100
AcDbVertex
100
AcDb2dVertex
 10
281.8429083228417
 20
-990.9218571624859
 30
0.0
  0
VERTEX
  5
DC
330
98
100
AcDbEntity
  8
Graypants_Dish10v
370
    -3
100
AcDbVertex
100
AcDb2dVertex
 10
281.8300526667061
 20
-990.9102180635057
 30
0.0
  0
VERTEX
  5
DD
330
98
100
AcDbEntity
  8
Graypants_Dish10v
370
    -3
100
AcDbVertex
100
AcDb2dVertex
 10
281.8176083670368
 20
-990.8981401528632
 30
0.0
  0
VERTEX
  5
DE
330
98
100
AcDbEntity
  8
Graypants_Dish10v
370
    -3
100
AcDbVertex
100
AcDb2dVertex
 10
281.8055903936553
 20
-990.8856379596338
 30
0.0
  0
VERTEX
  5
DF
330
98
100
AcDbEntity
  8
Graypants_Dish10v
370
    -3
100
AcDbVertex
100
AcDb2dVertex
 10
281.7940132035354
 20
-990.8727265232817
 30
0.0
  0
VERTEX
  5
E0
330
98
100
AcDbEntity
  8
Graypants_Dish10v
370
    -3
100
AcDbVertex
100
AcDb2dVertex
 10
281.7828907234127
 20
-990.8594213755687
 30
0.0
  0
VERTEX
  5
E1
330
98
100
AcDbEntity
  8
Graypants_Dish10v
370
    -3
100
AcDbVertex
100
AcDb2dVertex
 10
281.7722363330309
 20
-990.8457385218699
 30
0.0
  0
VERTEX
  5
E2
330
98
100
AcDbEntity
  8
Graypants_Dish10v
370
    -3
100
AcDbVertex
100
AcDb2dVertex
 10
281.7620628490474
 20
-990.8316944219207
 30
0.0
  0
VERTEX
  5
E3
330
98
100
AcDbEntity
  8
Graypants_Dish10v
370
    -3
100
AcDbVertex
100
AcDb2dVertex
 10
281.7523825096146
 20
-990.817305970016
 30
0.0
  0
VERTEX
  5
E4
330
98
100
AcDbEntity
  8
Graypants_Dish10v
370
    -3
100
AcDbVertex
100
AcDb2dVertex
 10
281.743206959659
 20
-990.8025904746877
 30
0.0
  0
VERTEX
  5
E5
330
98
100
AcDbEntity
  8
Graypants_Dish10v
370
    -3
100
AcDbVertex
100
AcDb2dVertex
 10
281.7345472368724
 20
-990.7875656378831
 30
0.0
  0
VERTEX
  5
E6
330
98
100
AcDbEntity
  8
Graypants_Dish10v
370
    -3
100
AcDbVertex
100
AcDb2dVertex
 10
281.7264137584344
 20
-990.7722495336707
 30
0.0
  0
VERTEX
  5
E7
330
98
100
AcDbEntity
  8
Graypants_Dish10v
370
    -3
100
AcDbVertex
100
AcDb2dVertex
 10
281.7188163084809
 20
-990.756660586498
 30
0.0
  0
VERTEX
  5
E8
330
98
100
AcDbEntity
  8
Graypants_Dish10v
370
    -3
100
AcDbVertex
100
AcDb2dVertex
 10
281.7117640263347
 20
-990.7408175490281
 30
0.0
  0
VERTEX
  5
E9
330
98
100
AcDbEntity
  8
Graypants_Dish10v
370
    -3
100
AcDbVertex
100
AcDb2dVertex
 10
281.7052653955108
 20
-990.7247394795805
 30
0.0
  0
VERTEX
  5
EA
330
98
100
AcDbEntity
  8
Graypants_Dish10v
370
    -3
100
AcDbVertex
100
AcDb2dVertex
 10
280.4441252160506
 20
-987.3874503711517
 30
0.0
  0
VERTEX
  5
EB
330
98
100
AcDbEntity
  8
Graypants_Dish10v
370
    -3
100
AcDbVertex
100
AcDb2dVertex
 10
279.2195523617702
 20
-984.0365707149946
 30
0.0
  0
VERTEX
  5
EC
330
98
100
AcDbEntity
  8
Graypants_Dish10v
370
    -3
100
AcDbVertex
100
AcDb2dVertex
 10
278.0316932537403
 20
-980.672501172765
 30
0.0
  0
VERTEX
  5
ED
330
98
100
AcDbEntity
  8
Graypants_Dish10v
370
    -3
100
AcDbVertex
100
AcDb2dVertex
 10
276.8806899232021
 20
-977.2956439832207
 30
0.0
  0
VERTEX
  5
EE
330
98
100
AcDbEntity
  8
Graypants_Dish10v
370
    -3
100
AcDbVertex
100
AcDb2dVertex
 10
275.7666799945845
 20
-973.9064029141274
 30
0.0
  0
VERTEX
  5
EF
330
98
100
AcDbEntity
  8
Graypants_Dish10v
370
    -3
100
AcDbVertex
100
AcDb2dVertex
 10
274.6897966690493
 20
-970.5051832139799
 30
0.0
  0
VERTEX
  5
F0
330
98
100
AcDbEntity
  8
Graypants_Dish10v
370
    -3
100
AcDbVertex
100
AcDb2dVertex
 10
273.6501687085632
 20
-967.0923915635474
 30
0.0
  0
VERTEX
  5
F1
330
98
100
AcDbEntity
  8
Graypants_Dish10v
370
    -3
100
AcDbVertex
100
AcDb2dVertex
 10
272.6479204205031
 20
-963.668436027246
 30
0.0
  0
VERTEX
  5
F2
330
98
100
AcDbEntity
  8
Graypants_Dish10v
370
    -3
100
AcDbVertex
100
AcDb2dVertex
 10
271.6831716427919
 20
-960.2337260043487
 30
0.0
  0
VERTEX
  5
F3
330
98
100
AcDbEntity
  8
Graypants_Dish10v
370
    -3
100
AcDbVertex
100
AcDb2dVertex
 10
270.75603772957
 20
-956.7886721800317
 30
0.0
  0
VERTEX
  5
F4
330
98
100
AcDbEntity
  8
Graypants_Dish10v
370
    -3
100
AcDbVertex
100
AcDb2dVertex
 10
269.8666295374024
 20
-953.3336864762708
 30
0.0
  0
VERTEX
  5
F5
330
98
100
AcDbEntity
  8
Graypants_Dish10v
370
    -3
100
AcDbVertex
100
AcDb2dVertex
 10
269.0150534120237
 20
-949.8691820025874
 30
0.0
  0
VERTEX
  5
F6
330
98
100
AcDbEntity
  8
Graypants_Dish10v
370
    -3
100
AcDbVertex
100
AcDb2dVertex
 10
268.2014111756224
 20
-946.3955730066538
 30
0.0
  0
VERTEX
  5
F7
330
98
100
AcDbEntity
  8
Graypants_Dish10v
370
    -3
100
AcDbVertex
100
AcDb2dVertex
 10
267.4258001146662
 20
-942.9132748247616
 30
0.0
  0
VERTEX
  5
F8
330
98
100
AcDbEntity
  8
Graypants_Dish10v
370
    -3
100
AcDbVertex
100
AcDb2dVertex
 10
266.6883129682694
 20
-939.4227038321608
 30
0.0
  0
VERTEX
  5
F9
330
98
100
AcDbEntity
  8
Graypants_Dish10v
370
    -3
100
AcDbVertex
100
AcDb2dVertex
 10
265.9890379171043
 20
-935.9242773932735
 30
0.0
  0
VERTEX
  5
FA
330
98
100
AcDbEntity
  8
Graypants_Dish10v
370
    -3
100
AcDbVertex
100
AcDb2dVertex
 10
265.3280585728575
 20
-932.418413811791
 30
0.0
  0
VERTEX
  5
FB
330
98
100
AcDbEntity
  8
Graypants_Dish10v
370
    -3
100
AcDbVertex
100
AcDb2dVertex
 10
264.7054539682324
 20
-928.9055322806563
 30
0.0
  0
VERTEX
  5
FC
330
98
100
AcDbEntity
  8
Graypants_Dish10v
370
    -3
100
AcDbVertex
100
AcDb2dVertex
 10
264.1212985474996
 20
-925.386052831943
 30
0.0
  0
VERTEX
  5
FD
330
98
100
AcDbEntity
  8
Graypants_Dish10v
370
    -3
100
AcDbVertex
100
AcDb2dVertex
 10
263.5756621575953
 20
-921.8603962866313
 30
0.0
  0
VERTEX
  5
FE
330
98
100
AcDbEntity
  8
Graypants_Dish10v
370
    -3
100
AcDbVertex
100
AcDb2dVertex
 10
263.0686100397702
 20
-918.3289842042914
 30
0.0
  0
VERTEX
  5
FF
330
98
100
AcDbEntity
  8
Graypants_Dish10v
370
    -3
100
AcDbVertex
100
AcDb2dVertex
 10
262.600202821788
 20
-914.7922388326779
 30
0.0
  0
VERTEX
  5
100
330
98
100
AcDbEntity
  8
Graypants_Dish10v
370
    -3
100
AcDbVertex
100
AcDb2dVertex
 10
262.1704965106772
 20
-911.250583057242
 30
0.0
  0
VERTEX
  5
101
330
98
100
AcDbEntity
  8
Graypants_Dish10v
370
    -3
100
AcDbVertex
100
AcDb2dVertex
 10
261.7795424860332
 20
-907.7044403505673
 30
0.0
  0
VERTEX
  5
102
330
98
100
AcDbEntity
  8
Graypants_Dish10v
370
    -3
100
AcDbVertex
100
AcDb2dVertex
 10
261.4273874938759
 20
-904.154234721736
 30
0.0
  0
VERTEX
  5
103
330
98
100
AcDbEntity
  8
Graypants_Dish10v
370
    -3
100
AcDbVertex
100
AcDb2dVertex
 10
261.1140736410599
 20
-900.6003906656299
 30
0.0
  0
VERTEX
  5
104
330
98
100
AcDbEntity
  8
Graypants_Dish10v
370
    -3
100
AcDbVertex
100
AcDb2dVertex
 10
260.8396383902395
 20
-897.0433331121745
 30
0.0
  0
VERTEX
  5
105
330
98
100
AcDbEntity
  8
Graypants_Dish10v
370
    -3
100
AcDbVertex
100
AcDb2dVertex
 10
260.6041145553901
 20
-893.4834873755301
 30
0.0
  0
VERTEX
  5
106
330
98
100
AcDbEntity
  8
Graypants_Dish10v
370
    -3
100
AcDbVertex
100
AcDb2dVertex
 10
260.4075302978839
 20
-889.9212791032378
 30
0.0
  0
VERTEX
  5
107
330
98
100
AcDbEntity
  8
Graypants_Dish10v
370
    -3
100
AcDbVertex
100
AcDb2dVertex
 10
260.249909123123
 20
-886.3571342253247
 30
0.0
  0
VERTEX
  5
108
330
98
100
AcDbEntity
  8
Graypants_Dish10v
370
    -3
100
AcDbVertex
100
AcDb2dVertex
 10
260.1312698777292
 20
-882.7914789033762
 30
0.0
  0
VERTEX
  5
109
330
98
100
AcDbEntity
  8
Graypants_Dish10v
370
    -3
100
AcDbVertex
100
AcDb2dVertex
 10
260.0516267472898
 20
-879.2247394795802
 30
0.0
  0
VERTEX
  5
10A
330
98
100
AcDbEntity
  8
Graypants_Dish10v
370
    -3
100
AcDbVertex
100
AcDb2dVertex
 10
260.0516267472897
 20
-868.2247394795802
 30
0.0
  0
VERTEX
  5
10B
330
98
100
AcDbEntity
  8
Graypants_Dish10v
370
    -3
100
AcDbVertex
100
AcDb2dVertex
 10
260.1312698777293
 20
-864.6580000557842
 30
0.0
  0
VERTEX
  5
10C
330
98
100
AcDbEntity
  8
Graypants_Dish10v
370
    -3
100
AcDbVertex
100
AcDb2dVertex
 10
260.2499091231232
 20
-861.0923447338357
 30
0.0
  0
VERTEX
  5
10D
330
98
100
AcDbEntity
  8
Graypants_Dish10v
370
    -3
100
AcDbVertex
100
AcDb2dVertex
 10
260.4075302978842
 20
-857.5281998559226
 30
0.0
  0
VERTEX
  5
10E
330
98
100
AcDbEntity
  8
Graypants_Dish10v
370
    -3
100
AcDbVertex
100
AcDb2dVertex
 10
260.6041145553905
 20
-853.9659915836303
 30
0.0
  0
VERTEX
  5
10F
330
98
100
AcDbEntity
  8
Graypants_Dish10v
370
    -3
100
AcDbVertex
100
AcDb2dVertex
 10
260.8396383902401
 20
-850.4061458469861
 30
0.0
  0
VERTEX
  5
110
330
98
100
AcDbEntity
  8
Graypants_Dish10v
370
    -3
100
AcDbVertex
100
AcDb2dVertex
 10
261.1140736410605
 20
-846.8490882935307
 30
0.0
  0
VERTEX
  5
111
330
98
100
AcDbEntity
  8
Graypants_Dish10v
370
    -3
100
AcDbVertex
100
AcDb2dVertex
 10
261.4273874938766
 20
-843.2952442374246
 30
0.0
  0
VERTEX
  5
112
330
98
100
AcDbEntity
  8
Graypants_Dish10v
370
    -3
100
AcDbVertex
100
AcDb2dVertex
 10
261.7795424860339
 20
-839.7450386085932
 30
0.0
  0
VERTEX
  5
113
330
98
100
AcDbEntity
  8
Graypants_Dish10v
370
    -3
100
AcDbVertex
100
AcDb2dVertex
 10
262.170496510678
 20
-836.1988959019186
 30
0.0
  0
VERTEX
  5
114
330
98
100
AcDbEntity
  8
Graypants_Dish10v
370
    -3
100
AcDbVertex
100
AcDb2dVertex
 10
262.6002028217889
 20
-832.6572401264826
 30
0.0
  0
VERTEX
  5
115
330
98
100
AcDbEntity
  8
Graypants_Dish10v
370
    -3
100
AcDbVertex
100
AcDb2dVertex
 10
263.068610039771
 20
-829.1204947548694
 30
0.0
  0
VERTEX
  5
116
330
98
100
AcDbEntity
  8
Graypants_Dish10v
370
    -3
100
AcDbVertex
100
AcDb2dVertex
 10
263.5756621575963
 20
-825.5890826725295
 30
0.0
  0
VERTEX
  5
117
330
98
100
AcDbEntity
  8
Graypants_Dish10v
370
    -3
100
AcDbVertex
100
AcDb2dVertex
 10
264.1212985475007
 20
-822.0634261272178
 30
0.0
  0
VERTEX
  5
118
330
98
100
AcDbEntity
  8
Graypants_Dish10v
370
    -3
100
AcDbVertex
100
AcDb2dVertex
 10
264.7054539682335
 20
-818.5439466785044
 30
0.0
  0
VERTEX
  5
119
330
98
100
AcDbEntity
  8
Graypants_Dish10v
370
    -3
100
AcDbVertex
100
AcDb2dVertex
 10
265.3280585728585
 20
-815.0310651473698
 30
0.0
  0
VERTEX
  5
11A
330
98
100
AcDbEntity
  8
Graypants_Dish10v
370
    -3
100
AcDbVertex
100
AcDb2dVertex
 10
265.9890379171053
 20
-811.5252015658872
 30
0.0
  0
VERTEX
  5
11B
330
98
100
AcDbEntity
  8
Graypants_Dish10v
370
    -3
100
AcDbVertex
100
AcDb2dVertex
 10
266.6883129682705
 20
-808.026775127
 30
0.0
  0
VERTEX
  5
11C
330
98
100
AcDbEntity
  8
Graypants_Dish10v
370
    -3
100
AcDbVertex
100
AcDb2dVertex
 10
267.4258001146673
 20
-804.5362041343991
 30
0.0
  0
VERTEX
  5
11D
330
98
100
AcDbEntity
  8
Graypants_Dish10v
370
    -3
100
AcDbVertex
100
AcDb2dVertex
 10
268.2014111756234
 20
-801.053905952507
 30
0.0
  0
VERTEX
  5
11E
330
98
100
AcDbEntity
  8
Graypants_Dish10v
370
    -3
100
AcDbVertex
100
AcDb2dVertex
 10
269.0150534120248
 20
-797.5802969565734
 30
0.0
  0
VERTEX
  5
11F
330
98
100
AcDbEntity
  8
Graypants_Dish10v
370
    -3
100
AcDbVertex
100
AcDb2dVertex
 10
269.8666295374034
 20
-794.11579248289
 30
0.0
  0
VERTEX
  5
120
330
98
100
AcDbEntity
  8
Graypants_Dish10v
370
    -3
100
AcDbVertex
100
AcDb2dVertex
 10
270.756037729571
 20
-790.6608067791292
 30
0.0
  0
VERTEX
  5
121
330
98
100
AcDbEntity
  8
Graypants_Dish10v
370
    -3
100
AcDbVertex
100
AcDb2dVertex
 10
271.6831716427928
 20
-787.2157529548122
 30
0.0
  0
VERTEX
  5
122
330
98
100
AcDbEntity
  8
Graypants_Dish10v
370
    -3
100
AcDbVertex
100
AcDb2dVertex
 10
272.647920420504
 20
-783.7810429319147
 30
0.0
  0
VERTEX
  5
123
330
98
100
AcDbEntity
  8
Graypants_Dish10v
370
    -3
100
AcDbVertex
100
AcDb2dVertex
 10
273.650168708564
 20
-780.3570873956136
 30
0.0
  0
VERTEX
  5
124
330
98
100
AcDbEntity
  8
Graypants_Dish10v
370
    -3
100
AcDbVertex
100
AcDb2dVertex
 10
274.6897966690499
 20
-776.944295745181
 30
0.0
  0
VERTEX
  5
125
330
98
100
AcDbEntity
  8
Graypants_Dish10v
370
    -3
100
AcDbVertex
100
AcDb2dVertex
 10
275.7666799945852
 20
-773.5430760450336
 30
0.0
  0
VERTEX
  5
126
330
98
100
AcDbEntity
  8
Graypants_Dish10v
370
    -3
100
AcDbVertex
100
AcDb2dVertex
 10
276.8806899232026
 20
-770.1538349759402
 30
0.0
  0
VERTEX
  5
127
330
98
100
AcDbEntity
  8
Graypants_Dish10v
370
    -3
100
AcDbVertex
100
AcDb2dVertex
 10
278.0316932537407
 20
-766.7769777863958
 30
0.0
  0
VERTEX
  5
128
330
98
100
AcDbEntity
  8
Graypants_Dish10v
370
    -3
100
AcDbVertex
100
AcDb2dVertex
 10
279.2195523617705
 20
-763.4129082441661
 30
0.0
  0
VERTEX
  5
129
330
98
100
AcDbEntity
  8
Graypants_Dish10v
370
    -3
100
AcDbVertex
100
AcDb2dVertex
 10
280.4441252160508
 20
-760.0620285880091
 30
0.0
  0
VERTEX
  5
12A
330
98
100
AcDbEntity
  8
Graypants_Dish10v
370
    -3
100
AcDbVertex
100
AcDb2dVertex
 10
281.7052653955109
 20
-756.7247394795802
 30
0.0
  0
VERTEX
  5
12B
330
98
100
AcDbEntity
  8
Graypants_Dish10v
370
    -3
100
AcDbVertex
100
AcDb2dVertex
 10
281.7117640263348
 20
-756.7086614101327
 30
0.0
  0
VERTEX
  5
12C
330
98
100
AcDbEntity
  8
Graypants_Dish10v
370
    -3
100
AcDbVertex
100
AcDb2dVertex
 10
281.7188163084811
 20
-756.6928183726626
 30
0.0
  0
VERTEX
  5
12D
330
98
100
AcDbEntity
  8
Graypants_Dish10v
370
    -3
100
AcDbVertex
100
AcDb2dVertex
 10
281.7264137584345
 20
-756.6772294254899
 30
0.0
  0
VERTEX
  5
12E
330
98
100
AcDbEntity
  8
Graypants_Dish10v
370
    -3
100
AcDbVertex
100
AcDb2dVertex
 10
281.7345472368726
 20
-756.6619133212777
 30
0.0
  0
VERTEX
  5
12F
330
98
100
AcDbEntity
  8
Graypants_Dish10v
370
    -3
100
AcDbVertex
100
AcDb2dVertex
 10
281.7432069596591
 20
-756.646888484473
 30
0.0
  0
VERTEX
  5
130
330
98
100
AcDbEntity
  8
Graypants_Dish10v
370
    -3
100
AcDbVertex
100
AcDb2dVertex
 10
281.7523825096148
 20
-756.6321729891447
 30
0.0
  0
VERTEX
  5
131
330
98
100
AcDbEntity
  8
Graypants_Dish10v
370
    -3
100
AcDbVertex
100
AcDb2dVertex
 10
281.7620628490475
 20
-756.61778453724
 30
0.0
  0
VERTEX
  5
132
330
98
100
AcDbEntity
  8
Graypants_Dish10v
370
    -3
100
AcDbVertex
100
AcDb2dVertex
 10
281.7722363330312
 20
-756.603740437291
 30
0.0
  0
VERTEX
  5
133
330
98
100
AcDbEntity
  8
Graypants_Dish10v
370
    -3
100
AcDbVertex
100
AcDb2dVertex
 10
281.7828907234128
 20
-756.5900575835923
 30
0.0
  0
VERTEX
  5
134
330
98
100
AcDbEntity
  8
Graypants_Dish10v
370
    -3
100
AcDbVertex
100
AcDb2dVertex
 10
281.7940132035355
 20
-756.5767524358793
 30
0.0
  0
VERTEX
  5
135
330
98
100
AcDbEntity
  8
Graypants_Dish10v
370
    -3
100
AcDbVertex
100
AcDb2dVertex
 10
281.8055903936555
 20
-756.5638409995272
 30
0.0
  0
VERTEX
  5
136
330
98
100
AcDbEntity
  8
Graypants_Dish10v
370
    -3
100
AcDbVertex
100
AcDb2dVertex
 10
281.817608367037
 20
-756.5513388062977
 30
0.0
  0
VERTEX
  5
137
330
98
100
AcDbEntity
  8
Graypants_Dish10v
370
    -3
100
AcDbVertex
100
AcDb2dVertex
 10
281.8300526667063
 20
-756.5392608956553
 30
0.0
  0
VERTEX
  5
138
330
98
100
AcDbEntity
  8
Graypants_Dish10v
370
    -3
100
AcDbVertex
100
AcDb2dVertex
 10
281.8429083228418
 20
-756.527621796675
 30
0.0
  0
VERTEX
  5
139
330
98
100
AcDbEntity
  8
Graypants_Dish10v
370
    -3
100
AcDbVertex
100
AcDb2dVertex
 10
281.8561598707824
 20
-756.5164355105657
 30
0.0
  0
VERTEX
  5
13A
330
98
100
AcDbEntity
  8
Graypants_Dish10v
370
    -3
100
AcDbVertex
100
AcDb2dVertex
 10
281.8697913696305
 20
-756.5057154938258
 30
0.0
  0
VERTEX
  5
13B
330
98
100
AcDbEntity
  8
Graypants_Dish10v
370
    -3
100
AcDbVertex
100
AcDb2dVertex
 10
281.883786421428
 20
-756.495474642058
 30
0.0
  0
VERTEX
  5
13C
330
98
100
AcDbEntity
  8
Graypants_Dish10v
370
    -3
100
AcDbVertex
100
AcDb2dVertex
 10
281.8981281908821
 20
-756.4857252744544
 30
0.0
  0
VERTEX
  5
13D
330
98
100
AcDbEntity
  8
Graypants_Dish10v
370
    -3
100
AcDbVertex
100
AcDb2dVertex
 10
281.9127994256176
 20
-756.4764791189787
 30
0.0
  0
VERTEX
  5
13E
330
98
100
AcDbEntity
  8
Graypants_Dish10v
370
    -3
100
AcDbVertex
100
AcDb2dVertex
 10
281.9277824769302
 20
-756.4677472982573
 30
0.0
  0
VERTEX
  5
13F
330
98
100
AcDbEntity
  8
Graypants_Dish10v
370
    -3
100
AcDbVertex
100
AcDb2dVertex
 10
281.9430593210171
 20
-756.4595403161997
 30
0.0
  0
VERTEX
  5
140
330
98
100
AcDbEntity
  8
Graypants_Dish10v
370
    -3
100
AcDbVertex
100
AcDb2dVertex
 10
281.9586115806584
 20
-756.4518680453627
 30
0.0
  0
VERTEX
  5
141
330
98
100
AcDbEntity
  8
Graypants_Dish10v
370
    -3
100
AcDbVertex
100
AcDb2dVertex
 10
281.9744205473245
 20
-756.4447397150748
 30
0.0
  0
VERTEX
  5
142
330
98
100
AcDbEntity
  8
Graypants_Dish10v
370
    -3
100
AcDbVertex
100
AcDb2dVertex
 10
281.9904672036809
 20
-756.4381639003326
 30
0.0
  0
VERTEX
  5
143
330
98
100
AcDbEntity
  8
Graypants_Dish10v
370
    -3
100
AcDbVertex
100
AcDb2dVertex
 10
282.0067322464653
 20
-756.4321485114867
 30
0.0
  0
VERTEX
  5
144
330
98
100
AcDbEntity
  8
Graypants_Dish10v
370
    -3
100
AcDbVertex
100
AcDb2dVertex
 10
282.0231961097083
 20
-756.4267007847255
 30
0.0
  0
VERTEX
  5
145
330
98
100
AcDbEntity
  8
Graypants_Dish10v
370
    -3
100
AcDbVertex
100
AcDb2dVertex
 10
282.03983898827
 20
-756.4218272733707
 30
0.0
  0
VERTEX
  5
146
330
98
100
AcDbEntity
  8
Graypants_Dish10v
370
    -3
100
AcDbVertex
100
AcDb2dVertex
 10
282.0566408616651
 20
-756.4175338399937
 30
0.0
  0
VERTEX
  5
147
330
98
100
AcDbEntity
  8
Graypants_Dish10v
370
    -3
100
AcDbVertex
100
AcDb2dVertex
 10
282.0735815181457
 20
-756.4138256493632
 30
0.0
  0
VERTEX
  5
148
330
98
100
AcDbEntity
  8
Graypants_Dish10v
370
    -3
100
AcDbVertex
100
AcDb2dVertex
 10
282.0906405790155
 20
-756.4107071622327
 30
0.0
  0
VERTEX
  5
149
330
98
100
AcDbEntity
  8
Graypants_Dish10v
370
    -3
100
AcDbVertex
100
AcDb2dVertex
 10
282.1077975231443
 20
-756.408182129974
 30
0.0
  0
VERTEX
  5
14A
330
98
100
AcDbEntity
  8
Graypants_Dish10v
370
    -3
100
AcDbVertex
100
AcDb2dVertex
 10
282.1250317116533
 20
-756.4062535900646
 30
0.0
  0
VERTEX
  5
14B
330
98
100
AcDbEntity
  8
Graypants_Dish10v
370
    -3
100
AcDbVertex
100
AcDb2dVertex
 10
282.1423224127431
 20
-756.4049238624343
 30
0.0
  0
VERTEX
  5
14C
330
98
100
AcDbEntity
  8
Graypants_Dish10v
370
    -3
100
AcDbVertex
100
AcDb2dVertex
 10
282.1596488266325
 20
-756.4041945466736
 30
0.0
  0
VERTEX
  5
14D
330
98
100
AcDbEntity
  8
Graypants_Dish10v
370
    -3
100
AcDbVertex
100
AcDb2dVertex
 10
282.1769901105799
 20
-756.40406652011
 30
0.0
  0
VERTEX
  5
14E
330
98
100
AcDbEntity
  8
Graypants_Dish10v
370
    -3
100
AcDbVertex
100
AcDb2dVertex
 10
282.1943254039558
 20
-756.4045399367527
 30
0.0
  0
VERTEX
  5
14F
330
98
100
AcDbEntity
  8
Graypants_Dish10v
370
    -3
100
AcDbVertex
100
AcDb2dVertex
 10
282.2116338533369
 20
-756.4056142271069
 30
0.0
  0
VERTEX
  5
150
330
98
100
AcDbEntity
  8
Graypants_Dish10v
370
    -3
100
AcDbVertex
100
AcDb2dVertex
 10
282.2288946375921
 20
-756.4072880988591
 30
0.0
  0
VERTEX
  5
151
330
98
100
AcDbEntity
  8
Graypants_Dish10v
370
    -3
100
AcDbVertex
100
AcDb2dVertex
 10
282.2460869929285
 20
-756.4095595384321
 30
0.0
  0
VERTEX
  5
152
330
98
100
AcDbEntity
  8
Graypants_Dish10v
370
    -3
100
AcDbVertex
100
AcDb2dVertex
 10
282.2631902378697
 20
-756.4124258134063
 30
0.0
  0
VERTEX
  5
153
330
98
100
AcDbEntity
  8
Graypants_Dish10v
370
    -3
100
AcDbVertex
100
AcDb2dVertex
 10
282.2801837981341
 20
-756.4158834758077
 30
0.0
  0
VERTEX
  5
154
330
98
100
AcDbEntity
  8
Graypants_Dish10v
370
    -3
100
AcDbVertex
100
AcDb2dVertex
 10
282.2970472313853
 20
-756.4199283662549
 30
0.0
  0
VERTEX
  5
155
330
98
100
AcDbEntity
  8
Graypants_Dish10v
370
    -3
100
AcDbVertex
100
AcDb2dVertex
 10
282.3137602518223
 20
-756.4245556189626
 30
0.0
  0
VERTEX
  5
156
330
98
100
AcDbEntity
  8
Graypants_Dish10v
370
    -3
100
AcDbVertex
100
AcDb2dVertex
 10
282.3303027545825
 20
-756.4297596675954
 30
0.0
  0
VERTEX
  5
157
330
98
100
AcDbEntity
  8
Graypants_Dish10v
370
    -3
100
AcDbVertex
100
AcDb2dVertex
 10
282.3466548399273
 20
-756.4355342519633
 30
0.0
  0
VERTEX
  5
158
330
98
100
AcDbEntity
  8
Graypants_Dish10v
370
    -3
100
AcDbVertex
100
AcDb2dVertex
 10
282.3627968371796
 20
-756.4418724255529
 30
0.0
  0
VERTEX
  5
159
330
98
100
AcDbEntity
  8
Graypants_Dish10v
370
    -3
100
AcDbVertex
100
AcDb2dVertex
 10
282.3787093283873
 20
-756.4487665638828
 30
0.0
  0
VERTEX
  5
15A
330
98
100
AcDbEntity
  8
Graypants_Dish10v
370
    -3
100
AcDbVertex
100
AcDb2dVertex
 10
282.3943731716813
 20
-756.4562083736766
 30
0.0
  0
VERTEX
  5
15B
330
98
100
AcDbEntity
  8
Graypants_Dish10v
370
    -3
100
AcDbVertex
100
AcDb2dVertex
 10
282.4097695243028
 20
-756.4641889028383
 30
0.0
  0
VERTEX
  5
15C
330
98
100
AcDbEntity
  8
Graypants_Dish10v
370
    -3
100
AcDbVertex
100
AcDb2dVertex
 10
282.4248798652697
 20
-756.4726985512217
 30
0.0
  0
VERTEX
  5
15D
330
98
100
AcDbEntity
  8
Graypants_Dish10v
370
    -3
100
AcDbVertex
100
AcDb2dVertex
 10
282.4396860176567
 20
-756.4817270821786
 30
0.0
  0
VERTEX
  5
15E
330
98
100
AcDbEntity
  8
Graypants_Dish10v
370
    -3
100
AcDbVertex
100
AcDb2dVertex
 10
282.4541701704608
 20
-756.4912636348729
 30
0.0
  0
VERTEX
  5
15F
330
98
100
AcDbEntity
  8
Graypants_Dish10v
370
    -3
100
AcDbVertex
100
AcDb2dVertex
 10
282.4683149000272
 20
-756.5012967373463
 30
0.0
  0
VERTEX
  5
160
330
98
100
AcDbEntity
  8
Graypants_Dish10v
370
    -3
100
AcDbVertex
100
AcDb2dVertex
 10
282.4821031910089
 20
-756.5118143203172
 30
0.0
  0
VERTEX
  5
161
330
98
100
AcDbEntity
  8
Graypants_Dish10v
370
    -3
100
AcDbVertex
100
AcDb2dVertex
 10
282.4955184568353
 20
-756.5228037317005
 30
0.0
  0
VERTEX
  5
162
330
98
100
AcDbEntity
  8
Graypants_Dish10v
370
    -3
100
AcDbVertex
100
AcDb2dVertex
 10
282.508544559665
 20
-756.5342517518269
 30
0.0
  0
VERTEX
  5
163
330
98
100
AcDbEntity
  8
Graypants_Dish10v
370
    -3
100
AcDbVertex
100
AcDb2dVertex
 10
282.5211658297987
 20
-756.5461446093456
 30
0.0
  0
VERTEX
  5
164
330
98
100
AcDbEntity
  8
Graypants_Dish10v
370
    -3
100
AcDbVertex
100
AcDb2dVertex
 10
282.5333670845289
 20
-756.55846799779
 30
0.0
  0
VERTEX
  5
165
330
98
100
AcDbEntity
  8
Graypants_Dish10v
370
    -3
100
AcDbVertex
100
AcDb2dVertex
 10
282.5451336464043
 20
-756.5712070927885
 30
0.0
  0
VERTEX
  5
166
330
98
100
AcDbEntity
  8
Graypants_Dish10v
370
    -3
100
AcDbVertex
100
AcDb2dVertex
 10
282.5564513608851
 20
-756.5843465698966
 30
0.0
  0
VERTEX
  5
167
330
98
100
AcDbEntity
  8
Graypants_Dish10v
370
    -3
100
AcDbVertex
100
AcDb2dVertex
 10
282.5673066133712
 20
-756.597870623032
 30
0.0
  0
VERTEX
  5
168
330
98
100
AcDbEntity
  8
Graypants_Dish10v
370
    -3
100
AcDbVertex
100
AcDb2dVertex
 10
282.5776863455793
 20
-756.6117629834879
 30
0.0
  0
VERTEX
  5
169
330
98
100
AcDbEntity
  8
Graypants_Dish10v
370
    -3
100
AcDbVertex
100
AcDb2dVertex
 10
282.5875780712511
 20
-756.6260069395038
 30
0.0
  0
VERTEX
  5
16A
330
98
100
AcDbEntity
  8
Graypants_Dish10v
370
    -3
100
AcDbVertex
100
AcDb2dVertex
 10
282.5969698911739
 20
-756.6405853563685
 30
0.0
  0
VERTEX
  5
16B
330
98
100
AcDbEntity
  8
Graypants_Dish10v
370
    -3
100
AcDbVertex
100
AcDb2dVertex
 10
282.6058505074949
 20
-756.6554806970328
 30
0.0
  0
VERTEX
  5
16C
330
98
100
AcDbEntity
  8
Graypants_Dish10v
370
    -3
100
AcDbVertex
100
AcDb2dVertex
 10
282.6142092373116
 20
-756.6706750432049
 30
0.0
  0
VERTEX
  5
16D
330
98
100
AcDbEntity
  8
Graypants_Dish10v
370
    -3
100
AcDbVertex
100
AcDb2dVertex
 10
282.6220360255224
 20
-756.6861501169058
 30
0.0
  0
VERTEX
  5
16E
330
98
100
AcDbEntity
  8
Graypants_Dish10v
370
    -3
100
AcDbVertex
100
AcDb2dVertex
 10
282.6293214569235
 20
-756.701887302456
 30
0.0
  0
VERTEX
  5
16F
330
98
100
AcDbEntity
  8
Graypants_Dish10v
370
    -3
100
AcDbVertex
100
AcDb2dVertex
 10
282.6360567675335
 20
-756.7178676688702
 30
0.0
  0
VERTEX
  5
170
330
98
100
AcDbEntity
  8
Graypants_Dish10v
370
    -3
100
AcDbVertex
100
AcDb2dVertex
 10
282.6422338551371
 20
-756.7340719926291
 30
0.0
  0
VERTEX
  5
171
330
98
100
AcDbEntity
  8
Graypants_Dish10v
370
    -3
100
AcDbVertex
100
AcDb2dVertex
 10
282.6478452890309
 20
-756.7504807808051
 30
0.0
  0
VERTEX
  5
172
330
98
100
AcDbEntity
  8
Graypants_Dish10v
370
    -3
100
AcDbVertex
100
AcDb2dVertex
 10
282.6528843189624
 20
-756.7670742945106
 30
0.0
  0
VERTEX
  5
173
330
98
100
AcDbEntity
  8
Graypants_Dish10v
370
    -3
100
AcDbVertex
100
AcDb2dVertex
 10
282.6573448832505
 20
-756.7838325726434
 30
0.0
  0
VERTEX
  5
174
330
98
100
AcDbEntity
  8
Graypants_Dish10v
370
    -3
100
AcDbVertex
100
AcDb2dVertex
 10
282.6612216160767
 20
-756.8007354558987
 30
0.0
  0
VERTEX
  5
175
330
98
100
AcDbEntity
  8
Graypants_Dish10v
370
    -3
100
AcDbVertex
100
AcDb2dVertex
 10
282.6645098539405
 20
-756.8177626110191
 30
0.0
  0
VERTEX
  5
176
330
98
100
AcDbEntity
  8
Graypants_Dish10v
370
    -3
100
AcDbVertex
100
AcDb2dVertex
 10
282.6672056412691
 20
-756.8348935552553
 30
0.0
  0
VERTEX
  5
177
330
98
100
AcDbEntity
  8
Graypants_Dish10v
370
    -3
100
AcDbVertex
100
AcDb2dVertex
 10
282.6693057351757
 20
-756.8521076810051
 30
0.0
  0
VERTEX
  5
178
330
98
100
AcDbEntity
  8
Graypants_Dish10v
370
    -3
100
AcDbVertex
100
AcDb2dVertex
 10
282.6708076093605
 20
-756.8693842806034
 30
0.0
  0
VERTEX
  5
179
330
98
100
AcDbEntity
  8
Graypants_Dish10v
370
    -3
100
AcDbVertex
100
AcDb2dVertex
 10
282.67170945715
 20
-756.8867025712325
 30
0.0
  0
VERTEX
  5
17A
330
98
100
AcDbEntity
  8
Graypants_Dish10v
370
    -3
100
AcDbVertex
100
AcDb2dVertex
 10
282.6720101936697
 20
-756.9040417199224
 30
0.0
  0
SEQEND
  5
17B
330
98
100
AcDbEntity
  8
Graypants_Dish10v
370
    -3
  0
POLYLINE
  5
17C
330
1F
100
AcDbEntity
  8
Graypants_Dish10v
370
    -3
100
AcDb2dPolyline
 66
     1
 10
0.0
 20
0.0
 30
0.0
  0
VERTEX
  5
17D
330
17C
100
AcDbEntity
  8
Graypants_Dish10v
370
    -3
100
AcDbVertex
100
AcDb2dVertex
 10
289.872338576347
 20
-752.7247394795802
 30
0.0
  0
VERTEX
  5
17E
330
17C
100
AcDbEntity
  8
Graypants_Dish10v
370
    -3
100
AcDbVertex
100
AcDb2dVertex
 10
289.8720031690735
 20
-354.9847394795802
 30
0.0
  0
VERTEX
  5
17F
330
17C
100
AcDbEntity
  8
Graypants_Dish10v
370
    -3
100
AcDbVertex
100
AcDb2dVertex
 10
285.4720031690736
 20
-354.9847394795802
 30
0.0
  0
VERTEX
  5
180
330
17C
100
AcDbEntity
  8
Graypants_Dish10v
370
    -3
100
AcDbVertex
100
AcDb2dVertex
 10
285.4720031690736
 20
-752.7247394795802
 30
0.0
  0
SEQEND
  5
181
330
17C
100
AcDbEntity
  8
Graypants_Dish10v
370
    -3
  0
POLYLINE
  5
182
330
1F
100
AcDbEntity
  8
Graypants_Dish10v
370
    -3
100
AcDb2dPolyline
 66
     1
 10
0.0
 20
0.0
 30
0.0
  0
VERTEX
  5
183
330
182
100
AcDbEntity
  8
Graypants_Dish10v
370
    -3
100
AcDbVertex
100
AcDb2dVertex
 10
3.552530605024288
 20
-752.7768515047535
 30
0.0
  0
VERTEX
  5
184
330
182
100
AcDbEntity
  8
Graypants_Dish10v
370
    -3
100
AcDbVertex
100
AcDb2dVertex
 10
3.55253060502281
 20
-354.9847394795802
 30
0.0
  0
VERTEX
  5
185
330
182
100
AcDbEntity
  8
Graypants_Dish10v
370
    -3
100
AcDbVertex
100
AcDb2dVertex
 10
7.952530605022787
 20
-354.9847394795802
 30
0.0
  0
VERTEX
  5
186
330
182
100
AcDbEntity
  8
Graypants_Dish10v
370
    -3
100
AcDbVertex
100
AcDb2dVertex
 10
7.952530605024265
 20
-752.9862439586632
 30
0.0
  0
SEQEND
  5
187
330
182
100
AcDbEntity
  8
Graypants_Dish10v
370
    -3
  0
CIRCLE
  5
188
330
1F
100
AcDbEntity
  8
Graypants_Dish10v
370
    -3
100
AcDbCircle
 10
0.0017005008471801
 20
-873.7247394795801
 30
0.0
 40
120.9999999999999
  0
POLYLINE
  5
189
330
1F
100
AcDbEntity
  8
Graypants_Dish10v
370
    -3
100
AcDb2dPolyline
 66
     1
 10
0.0
 20
0.0
 30
0.0
  0
VERTEX
  5
18A
330
189
100
AcDbEntity
  8
Graypants_Dish10v
370
    -3
100
AcDbVertex
100
AcDb2dVertex
 10
292.6719964622613
 20
-990.545437239238
 30
0.0
  0
VERTEX
  5
18B
330
189
100
AcDbEntity
  8
Graypants_Dish10v
370
    -3
100
AcDbVertex
100
AcDb2dVertex
 10
292.6722971987811
 20
-990.562776387928
 30
0.0
  0
VERTEX
  5
18C
330
189
100
AcDbEntity
  8
Graypants_Dish10v
370
    -3
100
AcDbVertex
100
AcDb2dVertex
 10
292.6731990465705
 20
-990.580094678557
 30
0.0
  0
VERTEX
  5
18D
330
189
100
AcDbEntity
  8
Graypants_Dish10v
370
    -3
100
AcDbVertex
100
AcDb2dVertex
 10
292.6747009207553
 20
-990.5973712781553
 30
0.0
  0
VERTEX
  5
18E
330
189
100
AcDbEntity
  8
Graypants_Dish10v
370
    -3
100
AcDbVertex
100
AcDb2dVertex
 10
292.6768010146618
 20
-990.614585403905
 30
0.0
  0
VERTEX
  5
18F
330
189
100
AcDbEntity
  8
Graypants_Dish10v
370
    -3
100
AcDbVertex
100
AcDb2dVertex
 10
292.6794968019904
 20
-990.6317163481414
 30
0.0
  0
VERTEX
  5
190
330
189
100
AcDbEntity
  8
Graypants_Dish10v
370
    -3
100
AcDbVertex
100
AcDb2dVertex
 10
292.6827850398543
 20
-990.6487435032618
 30
0.0
  0
VERTEX
  5
191
330
189
100
AcDbEntity
  8
Graypants_Dish10v
370
    -3
100
AcDbVertex
100
AcDb2dVertex
 10
292.6866617726804
 20
-990.6656463865171
 30
0.0
  0
VERTEX
  5
192
330
189
100
AcDbEntity
  8
Graypants_Dish10v
370
    -3
100
AcDbVertex
100
AcDb2dVertex
 10
292.6911223369685
 20
-990.6824046646499
 30
0.0
  0
VERTEX
  5
193
330
189
100
AcDbEntity
  8
Graypants_Dish10v
370
    -3
100
AcDbVertex
100
AcDb2dVertex
 10
292.6961613669
 20
-990.6989981783555
 30
0.0
  0
VERTEX
  5
194
330
189
100
AcDbEntity
  8
Graypants_Dish10v
370
    -3
100
AcDbVertex
100
AcDb2dVertex
 10
292.7017728007937
 20
-990.7154069665314
 30
0.0
  0
VERTEX
  5
195
330
189
100
AcDbEntity
  8
Graypants_Dish10v
370
    -3
100
AcDbVertex
100
AcDb2dVertex
 10
292.7079498883973
 20
-990.7316112902903
 30
0.0
  0
VERTEX
  5
196
330
189
100
AcDbEntity
  8
Graypants_Dish10v
370
    -3
100
AcDbVertex
100
AcDb2dVertex
 10
292.7146851990072
 20
-990.7475916567047
 30
0.0
  0
VERTEX
  5
197
330
189
100
AcDbEntity
  8
Graypants_Dish10v
370
    -3
100
AcDbVertex
100
AcDb2dVertex
 10
292.7219706304084
 20
-990.763328842255
 30
0.0
  0
VERTEX
  5
198
330
189
100
AcDbEntity
  8
Graypants_Dish10v
370
    -3
100
AcDbVertex
100
AcDb2dVertex
 10
292.7297974186192
 20
-990.7788039159559
 30
0.0
  0
VERTEX
  5
199
330
189
100
AcDbEntity
  8
Graypants_Dish10v
370
    -3
100
AcDbVertex
100
AcDb2dVertex
 10
292.7381561484358
 20
-990.7939982621281
 30
0.0
  0
VERTEX
  5
19A
330
189
100
AcDbEntity
  8
Graypants_Dish10v
370
    -3
100
AcDbVertex
100
AcDb2dVertex
 10
292.7470367647569
 20
-990.8088936027923
 30
0.0
  0
VERTEX
  5
19B
330
189
100
AcDbEntity
  8
Graypants_Dish10v
370
    -3
100
AcDbVertex
100
AcDb2dVertex
 10
292.7564285846797
 20
-990.8234720196571
 30
0.0
  0
VERTEX
  5
19C
330
189
100
AcDbEntity
  8
Graypants_Dish10v
370
    -3
100
AcDbVertex
100
AcDb2dVertex
 10
292.7663203103514
 20
-990.837715975673
 30
0.0
  0
VERTEX
  5
19D
330
189
100
AcDbEntity
  8
Graypants_Dish10v
370
    -3
100
AcDbVertex
100
AcDb2dVertex
 10
292.7767000425595
 20
-990.8516083361288
 30
0.0
  0
VERTEX
  5
19E
330
189
100
AcDbEntity
  8
Graypants_Dish10v
370
    -3
100
AcDbVertex
100
AcDb2dVertex
 10
292.7875552950456
 20
-990.8651323892641
 30
0.0
  0
VERTEX
  5
19F
330
189
100
AcDbEntity
  8
Graypants_Dish10v
370
    -3
100
AcDbVertex
100
AcDb2dVertex
 10
292.7988730095265
 20
-990.8782718663724
 30
0.0
  0
VERTEX
  5
1A0
330
189
100
AcDbEntity
  8
Graypants_Dish10v
370
    -3
100
AcDbVertex
100
AcDb2dVertex
 10
292.8106395714018
 20
-990.891010961371
 30
0.0
  0
VERTEX
  5
1A1
330
189
100
AcDbEntity
  8
Graypants_Dish10v
370
    -3
100
AcDbVertex
100
AcDb2dVertex
 10
292.822840826132
 20
-990.9033343498154
 30
0.0
  0
VERTEX
  5
1A2
330
189
100
AcDbEntity
  8
Graypants_Dish10v
370
    -3
100
AcDbVertex
100
AcDb2dVertex
 10
292.8354620962657
 20
-990.915227207334
 30
0.0
  0
VERTEX
  5
1A3
330
189
100
AcDbEntity
  8
Graypants_Dish10v
370
    -3
100
AcDbVertex
100
AcDb2dVertex
 10
292.8484881990955
 20
-990.9266752274605
 30
0.0
  0
VERTEX
  5
1A4
330
189
100
AcDbEntity
  8
Graypants_Dish10v
370
    -3
100
AcDbVertex
100
AcDb2dVertex
 10
292.8619034649219
 20
-990.9376646388438
 30
0.0
  0
VERTEX
  5
1A5
330
189
100
AcDbEntity
  8
Graypants_Dish10v
370
    -3
100
AcDbVertex
100
AcDb2dVertex
 10
292.8756917559035
 20
-990.9481822218147
 30
0.0
  0
VERTEX
  5
1A6
330
189
100
AcDbEntity
  8
Graypants_Dish10v
370
    -3
100
AcDbVertex
100
AcDb2dVertex
 10
292.8898364854699
 20
-990.9582153242882
 30
0.0
  0
VERTEX
  5
1A7
330
189
100
AcDbEntity
  8
Graypants_Dish10v
370
    -3
100
AcDbVertex
100
AcDb2dVertex
 10
292.904320638274
 20
-990.9677518769826
 30
0.0
  0
VERTEX
  5
1A8
330
189
100
AcDbEntity
  8
Graypants_Dish10v
370
    -3
100
AcDbVertex
100
AcDb2dVertex
 10
292.9191267906611
 20
-990.9767804079394
 30
0.0
  0
VERTEX
  5
1A9
330
189
100
AcDbEntity
  8
Graypants_Dish10v
370
    -3
100
AcDbVertex
100
AcDb2dVertex
 10
292.934237131628
 20
-990.9852900563228
 30
0.0
  0
VERTEX
  5
1AA
330
189
100
AcDbEntity
  8
Graypants_Dish10v
370
    -3
100
AcDbVertex
100
AcDb2dVertex
 10
292.9496334842495
 20
-990.9932705854844
 30
0.0
  0
VERTEX
  5
1AB
330
189
100
AcDbEntity
  8
Graypants_Dish10v
370
    -3
100
AcDbVertex
100
AcDb2dVertex
 10
292.9652973275435
 20
-991.0007123952784
 30
0.0
  0
VERTEX
  5
1AC
330
189
100
AcDbEntity
  8
Graypants_Dish10v
370
    -3
100
AcDbVertex
100
AcDb2dVertex
 10
292.9812098187512
 20
-991.0076065336084
 30
0.0
  0
VERTEX
  5
1AD
330
189
100
AcDbEntity
  8
Graypants_Dish10v
370
    -3
100
AcDbVertex
100
AcDb2dVertex
 10
292.9973518160035
 20
-991.0139447071979
 30
0.0
  0
VERTEX
  5
1AE
330
189
100
AcDbEntity
  8
Graypants_Dish10v
370
    -3
100
AcDbVertex
100
AcDb2dVertex
 10
293.0137039013484
 20
-991.0197192915658
 30
0.0
  0
VERTEX
  5
1AF
330
189
100
AcDbEntity
  8
Graypants_Dish10v
370
    -3
100
AcDbVertex
100
AcDb2dVertex
 10
293.0302464041086
 20
-991.0249233401986
 30
0.0
  0
VERTEX
  5
1B0
330
189
100
AcDbEntity
  8
Graypants_Dish10v
370
    -3
100
AcDbVertex
100
AcDb2dVertex
 10
293.0469594245455
 20
-991.0295505929063
 30
0.0
  0
VERTEX
  5
1B1
330
189
100
AcDbEntity
  8
Graypants_Dish10v
370
    -3
100
AcDbVertex
100
AcDb2dVertex
 10
293.0638228577967
 20
-991.0335954833535
 30
0.0
  0
VERTEX
  5
1B2
330
189
100
AcDbEntity
  8
Graypants_Dish10v
370
    -3
100
AcDbVertex
100
AcDb2dVertex
 10
293.0808164180613
 20
-991.0370531457548
 30
0.0
  0
VERTEX
  5
1B3
330
189
100
AcDbEntity
  8
Graypants_Dish10v
370
    -3
100
AcDbVertex
100
AcDb2dVertex
 10
293.0979196630025
 20
-991.0399194207291
 30
0.0
  0
VERTEX
  5
1B4
330
189
100
AcDbEntity
  8
Graypants_Dish10v
370
    -3
100
AcDbVertex
100
AcDb2dVertex
 10
293.1151120183388
 20
-991.0421908603021
 30
0.0
  0
VERTEX
  5
1B5
330
189
100
AcDbEntity
  8
Graypants_Dish10v
370
    -3
100
AcDbVertex
100
AcDb2dVertex
 10
293.132372802594
 20
-991.0438647320544
 30
0.0
  0
VERTEX
  5
1B6
330
189
100
AcDbEntity
  8
Graypants_Dish10v
370
    -3
100
AcDbVertex
100
AcDb2dVertex
 10
293.1496812519752
 20
-991.0449390224086
 30
0.0
  0
VERTEX
  5
1B7
330
189
100
AcDbEntity
  8
Graypants_Dish10v
370
    -3
100
AcDbVertex
100
AcDb2dVertex
 10
293.1670165453511
 20
-991.0454124390512
 30
0.0
  0
VERTEX
  5
1B8
330
189
100
AcDbEntity
  8
Graypants_Dish10v
370
    -3
100
AcDbVertex
100
AcDb2dVertex
 10
293.1843578292986
 20
-991.0452844124876
 30
0.0
  0
VERTEX
  5
1B9
330
189
100
AcDbEntity
  8
Graypants_Dish10v
370
    -3
100
AcDbVertex
100
AcDb2dVertex
 10
293.201684243188
 20
-991.0445550967269
 30
0.0
  0
VERTEX
  5
1BA
330
189
100
AcDbEntity
  8
Graypants_Dish10v
370
    -3
100
AcDbVertex
100
AcDb2dVertex
 10
293.2189749442777
 20
-991.0432253690967
 30
0.0
  0
VERTEX
  5
1BB
330
189
100
AcDbEntity
  8
Graypants_Dish10v
370
    -3
100
AcDbVertex
100
AcDb2dVertex
 10
293.2362091327868
 20
-991.0412968291873
 30
0.0
  0
VERTEX
  5
1BC
330
189
100
AcDbEntity
  8
Graypants_Dish10v
370
    -3
100
AcDbVertex
100
AcDb2dVertex
 10
293.2533660769155
 20
-991.0387717969286
 30
0.0
  0
VERTEX
  5
1BD
330
189
100
AcDbEntity
  8
Graypants_Dish10v
370
    -3
100
AcDbVertex
100
AcDb2dVertex
 10
293.2704251377854
 20
-991.0356533097979
 30
0.0
  0
VERTEX
  5
1BE
330
189
100
AcDbEntity
  8
Graypants_Dish10v
370
    -3
100
AcDbVertex
100
AcDb2dVertex
 10
293.2873657942661
 20
-991.0319451191674
 30
0.0
  0
VERTEX
  5
1BF
330
189
100
AcDbEntity
  8
Graypants_Dish10v
370
    -3
100
AcDbVertex
100
AcDb2dVertex
 10
293.3041676676611
 20
-991.0276516857905
 30
0.0
  0
VERTEX
  5
1C0
330
189
100
AcDbEntity
  8
Graypants_Dish10v
370
    -3
100
AcDbVertex
100
AcDb2dVertex
 10
293.3208105462229
 20
-991.0227781744356
 30
0.0
  0
VERTEX
  5
1C1
330
189
100
AcDbEntity
  8
Graypants_Dish10v
370
    -3
100
AcDbVertex
100
AcDb2dVertex
 10
293.3372744094659
 20
-991.0173304476746
 30
0.0
  0
VERTEX
  5
1C2
330
189
100
AcDbEntity
  8
Graypants_Dish10v
370
    -3
100
AcDbVertex
100
AcDb2dVertex
 10
293.3535394522503
 20
-991.0113150588286
 30
0.0
  0
VERTEX
  5
1C3
330
189
100
AcDbEntity
  8
Graypants_Dish10v
370
    -3
100
AcDbVertex
100
AcDb2dVertex
 10
293.3695861086067
 20
-991.0047392440864
 30
0.0
  0
VERTEX
  5
1C4
330
189
100
AcDbEntity
  8
Graypants_Dish10v
370
    -3
100
AcDbVertex
100
AcDb2dVertex
 10
293.3853950752728
 20
-990.9976109137984
 30
0.0
  0
VERTEX
  5
1C5
330
189
100
AcDbEntity
  8
Graypants_Dish10v
370
    -3
100
AcDbVertex
100
AcDb2dVertex
 10
293.4009473349142
 20
-990.9899386429615
 30
0.0
  0
VERTEX
  5
1C6
330
189
100
AcDbEntity
  8
Graypants_Dish10v
370
    -3
100
AcDbVertex
100
AcDb2dVertex
 10
293.416224179001
 20
-990.9817316609038
 30
0.0
  0
VERTEX
  5
1C7
330
189
100
AcDbEntity
  8
Graypants_Dish10v
370
    -3
100
AcDbVertex
100
AcDb2dVertex
 10
293.4312072303136
 20
-990.9729998401824
 30
0.0
  0
VERTEX
  5
1C8
330
189
100
AcDbEntity
  8
Graypants_Dish10v
370
    -3
100
AcDbVertex
100
AcDb2dVertex
 10
293.4458784650491
 20
-990.9637536847067
 30
0.0
  0
VERTEX
  5
1C9
330
189
100
AcDbEntity
  8
Graypants_Dish10v
370
    -3
100
AcDbVertex
100
AcDb2dVertex
 10
293.4602202345033
 20
-990.954004317103
 30
0.0
  0
VERTEX
  5
1CA
330
189
100
AcDbEntity
  8
Graypants_Dish10v
370
    -3
100
AcDbVertex
100
AcDb2dVertex
 10
293.4742152863007
 20
-990.9437634653352
 30
0.0
  0
VERTEX
  5
1CB
330
189
100
AcDbEntity
  8
Graypants_Dish10v
370
    -3
100
AcDbVertex
100
AcDb2dVertex
 10
293.4878467851489
 20
-990.9330434485954
 30
0.0
  0
VERTEX
  5
1CC
330
189
100
AcDbEntity
  8
Graypants_Dish10v
370
    -3
100
AcDbVertex
100
AcDb2dVertex
 10
293.5010983330895
 20
-990.9218571624859
 30
0.0
  0
VERTEX
  5
1CD
330
189
100
AcDbEntity
  8
Graypants_Dish10v
370
    -3
100
AcDbVertex
100
AcDb2dVertex
 10
293.513953989225
 20
-990.9102180635057
 30
0.0
  0
VERTEX
  5
1CE
330
189
100
AcDbEntity
  8
Graypants_Dish10v
370
    -3
100
AcDbVertex
100
AcDb2dVertex
 10
293.5263982888943
 20
-990.8981401528632
 30
0.0
  0
VERTEX
  5
1CF
330
189
100
AcDbEntity
  8
Graypants_Dish10v
370
    -3
100
AcDbVertex
100
AcDb2dVertex
 10
293.5384162622759
 20
-990.8856379596338
 30
0.0
  0
VERTEX
  5
1D0
330
189
100
AcDbEntity
  8
Graypants_Dish10v
370
    -3
100
AcDbVertex
100
AcDb2dVertex
 10
293.5499934523957
 20
-990.8727265232817
 30
0.0
  0
VERTEX
  5
1D1
330
189
100
AcDbEntity
  8
Graypants_Dish10v
370
    -3
100
AcDbVertex
100
AcDb2dVertex
 10
293.5611159325184
 20
-990.8594213755687
 30
0.0
  0
VERTEX
  5
1D2
330
189
100
AcDbEntity
  8
Graypants_Dish10v
370
    -3
100
AcDbVertex
100
AcDb2dVertex
 10
293.5717703229002
 20
-990.84573852187
 30
0.0
  0
VERTEX
  5
1D3
330
189
100
AcDbEntity
  8
Graypants_Dish10v
370
    -3
100
AcDbVertex
100
AcDb2dVertex
 10
293.5819438068837
 20
-990.8316944219207
 30
0.0
  0
VERTEX
  5
1D4
330
189
100
AcDbEntity
  8
Graypants_Dish10v
370
    -3
100
AcDbVertex
100
AcDb2dVertex
 10
293.5916241463165
 20
-990.817305970016
 30
0.0
  0
VERTEX
  5
1D5
330
189
100
AcDbEntity
  8
Graypants_Dish10v
370
    -3
100
AcDbVertex
100
AcDb2dVertex
 10
293.6007996962721
 20
-990.8025904746877
 30
0.0
  0
VERTEX
  5
1D6
330
189
100
AcDbEntity
  8
Graypants_Dish10v
370
    -3
100
AcDbVertex
100
AcDb2dVertex
 10
293.6094594190587
 20
-990.7875656378831
 30
0.0
  0
VERTEX
  5
1D7
330
189
100
AcDbEntity
  8
Graypants_Dish10v
370
    -3
100
AcDbVertex
100
AcDb2dVertex
 10
293.6175928974968
 20
-990.7722495336707
 30
0.0
  0
VERTEX
  5
1D8
330
189
100
AcDbEntity
  8
Graypants_Dish10v
370
    -3
100
AcDbVertex
100
AcDb2dVertex
 10
293.6251903474502
 20
-990.756660586498
 30
0.0
  0
VERTEX
  5
1D9
330
189
100
AcDbEntity
  8
Graypants_Dish10v
370
    -3
100
AcDbVertex
100
AcDb2dVertex
 10
293.6322426295964
 20
-990.7408175490281
 30
0.0
  0
VERTEX
  5
1DA
330
189
100
AcDbEntity
  8
Graypants_Dish10v
370
    -3
100
AcDbVertex
100
AcDb2dVertex
 10
293.6387412604203
 20
-990.7247394795805
 30
0.0
  0
VERTEX
  5
1DB
330
189
100
AcDbEntity
  8
Graypants_Dish10v
370
    -3
100
AcDbVertex
100
AcDb2dVertex
 10
294.8998814398806
 20
-987.3874503711518
 30
0.0
  0
VERTEX
  5
1DC
330
189
100
AcDbEntity
  8
Graypants_Dish10v
370
    -3
100
AcDbVertex
100
AcDb2dVertex
 10
296.124454294161
 20
-984.0365707149947
 30
0.0
  0
VERTEX
  5
1DD
330
189
100
AcDbEntity
  8
Graypants_Dish10v
370
    -3
100
AcDbVertex
100
AcDb2dVertex
 10
297.3123134021908
 20
-980.672501172765
 30
0.0
  0
VERTEX
  5
1DE
330
189
100
AcDbEntity
  8
Graypants_Dish10v
370
    -3
100
AcDbVertex
100
AcDb2dVertex
 10
298.4633167327291
 20
-977.2956439832208
 30
0.0
  0
VERTEX
  5
1DF
330
189
100
AcDbEntity
  8
Graypants_Dish10v
370
    -3
100
AcDbVertex
100
AcDb2dVertex
 10
299.5773266613466
 20
-973.9064029141274
 30
0.0
  0
VERTEX
  5
1E0
330
189
100
AcDbEntity
  8
Graypants_Dish10v
370
    -3
100
AcDbVertex
100
AcDb2dVertex
 10
300.6542099868819
 20
-970.5051832139799
 30
0.0
  0
VERTEX
  5
1E1
330
189
100
AcDbEntity
  8
Graypants_Dish10v
370
    -3
100
AcDbVertex
100
AcDb2dVertex
 10
301.693837947368
 20
-967.0923915635474
 30
0.0
  0
VERTEX
  5
1E2
330
189
100
AcDbEntity
  8
Graypants_Dish10v
370
    -3
100
AcDbVertex
100
AcDb2dVertex
 10
302.6960862354281
 20
-963.6684360272461
 30
0.0
  0
VERTEX
  5
1E3
330
189
100
AcDbEntity
  8
Graypants_Dish10v
370
    -3
100
AcDbVertex
100
AcDb2dVertex
 10
303.6608350131393
 20
-960.2337260043487
 30
0.0
  0
VERTEX
  5
1E4
330
189
100
AcDbEntity
  8
Graypants_Dish10v
370
    -3
100
AcDbVertex
100
AcDb2dVertex
 10
304.5879689263611
 20
-956.7886721800318
 30
0.0
  0
VERTEX
  5
1E5
330
189
100
AcDbEntity
  8
Graypants_Dish10v
370
    -3
100
AcDbVertex
100
AcDb2dVertex
 10
305.4773771185288
 20
-953.3336864762708
 30
0.0
  0
VERTEX
  5
1E6
330
189
100
AcDbEntity
  8
Graypants_Dish10v
370
    -3
100
AcDbVertex
100
AcDb2dVertex
 10
306.3289532439074
 20
-949.8691820025874
 30
0.0
  0
VERTEX
  5
1E7
330
189
100
AcDbEntity
  8
Graypants_Dish10v
370
    -3
100
AcDbVertex
100
AcDb2dVertex
 10
307.1425954803088
 20
-946.3955730066538
 30
0.0
  0
VERTEX
  5
1E8
330
189
100
AcDbEntity
  8
Graypants_Dish10v
370
    -3
100
AcDbVertex
100
AcDb2dVertex
 10
307.918206541265
 20
-942.9132748247616
 30
0.0
  0
VERTEX
  5
1E9
330
189
100
AcDbEntity
  8
Graypants_Dish10v
370
    -3
100
AcDbVertex
100
AcDb2dVertex
 10
308.6556936876618
 20
-939.4227038321609
 30
0.0
  0
VERTEX
  5
1EA
330
189
100
AcDbEntity
  8
Graypants_Dish10v
370
    -3
100
AcDbVertex
100
AcDb2dVertex
 10
309.3549687388269
 20
-935.9242773932735
 30
0.0
  0
VERTEX
  5
1EB
330
189
100
AcDbEntity
  8
Graypants_Dish10v
370
    -3
100
AcDbVertex
100
AcDb2dVertex
 10
310.0159480830737
 20
-932.418413811791
 30
0.0
  0
VERTEX
  5
1EC
330
189
100
AcDbEntity
  8
Graypants_Dish10v
370
    -3
100
AcDbVertex
100
AcDb2dVertex
 10
310.6385526876988
 20
-928.9055322806563
 30
0.0
  0
VERTEX
  5
1ED
330
189
100
AcDbEntity
  8
Graypants_Dish10v
370
    -3
100
AcDbVertex
100
AcDb2dVertex
 10
311.2227081084316
 20
-925.386052831943
 30
0.0
  0
VERTEX
  5
1EE
330
189
100
AcDbEntity
  8
Graypants_Dish10v
370
    -3
100
AcDbVertex
100
AcDb2dVertex
 10
311.7683444983358
 20
-921.8603962866313
 30
0.0
  0
VERTEX
  5
1EF
330
189
100
AcDbEntity
  8
Graypants_Dish10v
370
    -3
100
AcDbVertex
100
AcDb2dVertex
 10
312.275396616161
 20
-918.3289842042914
 30
0.0
  0
VERTEX
  5
1F0
330
189
100
AcDbEntity
  8
Graypants_Dish10v
370
    -3
100
AcDbVertex
100
AcDb2dVertex
 10
312.7438038341432
 20
-914.7922388326779
 30
0.0
  0
VERTEX
  5
1F1
330
189
100
AcDbEntity
  8
Graypants_Dish10v
370
    -3
100
AcDbVertex
100
AcDb2dVertex
 10
313.173510145254
 20
-911.250583057242
 30
0.0
  0
VERTEX
  5
1F2
330
189
100
AcDbEntity
  8
Graypants_Dish10v
370
    -3
100
AcDbVertex
100
AcDb2dVertex
 10
313.564464169898
 20
-907.7044403505673
 30
0.0
  0
VERTEX
  5
1F3
330
189
100
AcDbEntity
  8
Graypants_Dish10v
370
    -3
100
AcDbVertex
100
AcDb2dVertex
 10
313.9166191620553
 20
-904.154234721736
 30
0.0
  0
VERTEX
  5
1F4
330
189
100
AcDbEntity
  8
Graypants_Dish10v
370
    -3
100
AcDbVertex
100
AcDb2dVertex
 10
314.2299330148713
 20
-900.6003906656299
 30
0.0
  0
VERTEX
  5
1F5
330
189
100
AcDbEntity
  8
Graypants_Dish10v
370
    -3
100
AcDbVertex
100
AcDb2dVertex
 10
314.5043682656917
 20
-897.0433331121745
 30
0.0
  0
VERTEX
  5
1F6
330
189
100
AcDbEntity
  8
Graypants_Dish10v
370
    -3
100
AcDbVertex
100
AcDb2dVertex
 10
314.7398921005411
 20
-893.4834873755301
 30
0.0
  0
VERTEX
  5
1F7
330
189
100
AcDbEntity
  8
Graypants_Dish10v
370
    -3
100
AcDbVertex
100
AcDb2dVertex
 10
314.9364763580473
 20
-889.9212791032378
 30
0.0
  0
VERTEX
  5
1F8
330
189
100
AcDbEntity
  8
Graypants_Dish10v
370
    -3
100
AcDbVertex
100
AcDb2dVertex
 10
315.0940975328082
 20
-886.3571342253247
 30
0.0
  0
VERTEX
  5
1F9
330
189
100
AcDbEntity
  8
Graypants_Dish10v
370
    -3
100
AcDbVertex
100
AcDb2dVertex
 10
315.212736778202
 20
-882.7914789033762
 30
0.0
  0
VERTEX
  5
1FA
330
189
100
AcDbEntity
  8
Graypants_Dish10v
370
    -3
100
AcDbVertex
100
AcDb2dVertex
 10
315.2923799086414
 20
-879.2247394795802
 30
0.0
  0
VERTEX
  5
1FB
330
189
100
AcDbEntity
  8
Graypants_Dish10v
370
    -3
100
AcDbVertex
100
AcDb2dVertex
 10
315.2923799086414
 20
-868.2247394795802
 30
0.0
  0
VERTEX
  5
1FC
330
189
100
AcDbEntity
  8
Graypants_Dish10v
370
    -3
100
AcDbVertex
100
AcDb2dVertex
 10
315.2127367782019
 20
-864.6580000557842
 30
0.0
  0
VERTEX
  5
1FD
330
189
100
AcDbEntity
  8
Graypants_Dish10v
370
    -3
100
AcDbVertex
100
AcDb2dVertex
 10
315.0940975328079
 20
-861.0923447338357
 30
0.0
  0
VERTEX
  5
1FE
330
189
100
AcDbEntity
  8
Graypants_Dish10v
370
    -3
100
AcDbVertex
100
AcDb2dVertex
 10
314.936476358047
 20
-857.5281998559226
 30
0.0
  0
VERTEX
  5
1FF
330
189
100
AcDbEntity
  8
Graypants_Dish10v
370
    -3
100
AcDbVertex
100
AcDb2dVertex
 10
314.7398921005406
 20
-853.9659915836304
 30
0.0
  0
VERTEX
  5
200
330
189
100
AcDbEntity
  8
Graypants_Dish10v
370
    -3
100
AcDbVertex
100
AcDb2dVertex
 10
314.504368265691
 20
-850.4061458469861
 30
0.0
  0
VERTEX
  5
201
330
189
100
AcDbEntity
  8
Graypants_Dish10v
370
    -3
100
AcDbVertex
100
AcDb2dVertex
 10
314.2299330148707
 20
-846.8490882935307
 30
0.0
  0
VERTEX
  5
202
330
189
100
AcDbEntity
  8
Graypants_Dish10v
370
    -3
100
AcDbVertex
100
AcDb2dVertex
 10
313.9166191620545
 20
-843.2952442374246
 30
0.0
  0
VERTEX
  5
203
330
189
100
AcDbEntity
  8
Graypants_Dish10v
370
    -3
100
AcDbVertex
100
AcDb2dVertex
 10
313.5644641698971
 20
-839.7450386085932
 30
0.0
  0
VERTEX
  5
204
330
189
100
AcDbEntity
  8
Graypants_Dish10v
370
    -3
100
AcDbVertex
100
AcDb2dVertex
 10
313.1735101452531
 20
-836.1988959019186
 30
0.0
  0
VERTEX
  5
205
330
189
100
AcDbEntity
  8
Graypants_Dish10v
370
    -3
100
AcDbVertex
100
AcDb2dVertex
 10
312.7438038341422
 20
-832.6572401264826
 30
0.0
  0
VERTEX
  5
206
330
189
100
AcDbEntity
  8
Graypants_Dish10v
370
    -3
100
AcDbVertex
100
AcDb2dVertex
 10
312.27539661616
 20
-829.1204947548692
 30
0.0
  0
VERTEX
  5
207
330
189
100
AcDbEntity
  8
Graypants_Dish10v
370
    -3
100
AcDbVertex
100
AcDb2dVertex
 10
311.7683444983348
 20
-825.5890826725295
 30
0.0
  0
VERTEX
  5
208
330
189
100
AcDbEntity
  8
Graypants_Dish10v
370
    -3
100
AcDbVertex
100
AcDb2dVertex
 10
311.2227081084305
 20
-822.0634261272178
 30
0.0
  0
VERTEX
  5
209
330
189
100
AcDbEntity
  8
Graypants_Dish10v
370
    -3
100
AcDbVertex
100
AcDb2dVertex
 10
310.6385526876977
 20
-818.5439466785044
 30
0.0
  0
VERTEX
  5
20A
330
189
100
AcDbEntity
  8
Graypants_Dish10v
370
    -3
100
AcDbVertex
100
AcDb2dVertex
 10
310.0159480830725
 20
-815.0310651473698
 30
0.0
  0
VERTEX
  5
20B
330
189
100
AcDbEntity
  8
Graypants_Dish10v
370
    -3
100
AcDbVertex
100
AcDb2dVertex
 10
309.3549687388258
 20
-811.5252015658871
 30
0.0
  0
VERTEX
  5
20C
330
189
100
AcDbEntity
  8
Graypants_Dish10v
370
    -3
100
AcDbVertex
100
AcDb2dVertex
 10
308.6556936876606
 20
-808.026775127
 30
0.0
  0
VERTEX
  5
20D
330
189
100
AcDbEntity
  8
Graypants_Dish10v
370
    -3
100
AcDbVertex
100
AcDb2dVertex
 10
307.9182065412639
 20
-804.5362041343991
 30
0.0
  0
VERTEX
  5
20E
330
189
100
AcDbEntity
  8
Graypants_Dish10v
370
    -3
100
AcDbVertex
100
AcDb2dVertex
 10
307.1425954803076
 20
-801.053905952507
 30
0.0
  0
VERTEX
  5
20F
330
189
100
AcDbEntity
  8
Graypants_Dish10v
370
    -3
100
AcDbVertex
100
AcDb2dVertex
 10
306.3289532439063
 20
-797.5802969565734
 30
0.0
  0
VERTEX
  5
210
330
189
100
AcDbEntity
  8
Graypants_Dish10v
370
    -3
100
AcDbVertex
100
AcDb2dVertex
 10
305.4773771185276
 20
-794.11579248289
 30
0.0
  0
VERTEX
  5
211
330
189
100
AcDbEntity
  8
Graypants_Dish10v
370
    -3
100
AcDbVertex
100
AcDb2dVertex
 10
304.5879689263601
 20
-790.6608067791291
 30
0.0
  0
VERTEX
  5
212
330
189
100
AcDbEntity
  8
Graypants_Dish10v
370
    -3
100
AcDbVertex
100
AcDb2dVertex
 10
303.6608350131382
 20
-787.2157529548122
 30
0.0
  0
VERTEX
  5
213
330
189
100
AcDbEntity
  8
Graypants_Dish10v
370
    -3
100
AcDbVertex
100
AcDb2dVertex
 10
302.6960862354271
 20
-783.7810429319147
 30
0.0
  0
VERTEX
  5
214
330
189
100
AcDbEntity
  8
Graypants_Dish10v
370
    -3
100
AcDbVertex
100
AcDb2dVertex
 10
301.6938379473671
 20
-780.3570873956136
 30
0.0
  0
VERTEX
  5
215
330
189
100
AcDbEntity
  8
Graypants_Dish10v
370
    -3
100
AcDbVertex
100
AcDb2dVertex
 10
300.654209986881
 20
-776.944295745181
 30
0.0
  0
VERTEX
  5
216
330
189
100
AcDbEntity
  8
Graypants_Dish10v
370
    -3
100
AcDbVertex
100
AcDb2dVertex
 10
299.5773266613458
 20
-773.5430760450334
 30
0.0
  0
VERTEX
  5
217
330
189
100
AcDbEntity
  8
Graypants_Dish10v
370
    -3
100
AcDbVertex
100
AcDb2dVertex
 10
298.4633167327285
 20
-770.1538349759402
 30
0.0
  0
VERTEX
  5
218
330
189
100
AcDbEntity
  8
Graypants_Dish10v
370
    -3
100
AcDbVertex
100
AcDb2dVertex
 10
297.3123134021902
 20
-766.7769777863958
 30
0.0
  0
VERTEX
  5
219
330
189
100
AcDbEntity
  8
Graypants_Dish10v
370
    -3
100
AcDbVertex
100
AcDb2dVertex
 10
296.1244542941604
 20
-763.4129082441661
 30
0.0
  0
VERTEX
  5
21A
330
189
100
AcDbEntity
  8
Graypants_Dish10v
370
    -3
100
AcDbVertex
100
AcDb2dVertex
 10
294.8998814398801
 20
-760.0620285880091
 30
0.0
  0
VERTEX
  5
21B
330
189
100
AcDbEntity
  8
Graypants_Dish10v
370
    -3
100
AcDbVertex
100
AcDb2dVertex
 10
293.63874126042
 20
-756.7247394795802
 30
0.0
  0
VERTEX
  5
21C
330
189
100
AcDbEntity
  8
Graypants_Dish10v
370
    -3
100
AcDbVertex
100
AcDb2dVertex
 10
293.6322426295962
 20
-756.7086614101325
 30
0.0
  0
VERTEX
  5
21D
330
189
100
AcDbEntity
  8
Graypants_Dish10v
370
    -3
100
AcDbVertex
100
AcDb2dVertex
 10
293.6251903474499
 20
-756.6928183726626
 30
0.0
  0
VERTEX
  5
21E
330
189
100
AcDbEntity
  8
Graypants_Dish10v
370
    -3
100
AcDbVertex
100
AcDb2dVertex
 10
293.6175928974965
 20
-756.6772294254899
 30
0.0
  0
VERTEX
  5
21F
330
189
100
AcDbEntity
  8
Graypants_Dish10v
370
    -3
100
AcDbVertex
100
AcDb2dVertex
 10
293.6094594190585
 20
-756.6619133212777
 30
0.0
  0
VERTEX
  5
220
330
189
100
AcDbEntity
  8
Graypants_Dish10v
370
    -3
100
AcDbVertex
100
AcDb2dVertex
 10
293.6007996962719
 20
-756.646888484473
 30
0.0
  0
VERTEX
  5
221
330
189
100
AcDbEntity
  8
Graypants_Dish10v
370
    -3
100
AcDbVertex
100
AcDb2dVertex
 10
293.5916241463162
 20
-756.6321729891447
 30
0.0
  0
VERTEX
  5
222
330
189
100
AcDbEntity
  8
Graypants_Dish10v
370
    -3
100
AcDbVertex
100
AcDb2dVertex
 10
293.5819438068835
 20
-756.61778453724
 30
0.0
  0
VERTEX
  5
223
330
189
100
AcDbEntity
  8
Graypants_Dish10v
370
    -3
100
AcDbVertex
100
AcDb2dVertex
 10
293.5717703228999
 20
-756.6037404372909
 30
0.0
  0
VERTEX
  5
224
330
189
100
AcDbEntity
  8
Graypants_Dish10v
370
    -3
100
AcDbVertex
100
AcDb2dVertex
 10
293.5611159325182
 20
-756.5900575835922
 30
0.0
  0
VERTEX
  5
225
330
189
100
AcDbEntity
  8
Graypants_Dish10v
370
    -3
100
AcDbVertex
100
AcDb2dVertex
 10
293.5499934523954
 20
-756.5767524358791
 30
0.0
  0
VERTEX
  5
226
330
189
100
AcDbEntity
  8
Graypants_Dish10v
370
    -3
100
AcDbVertex
100
AcDb2dVertex
 10
293.5384162622756
 20
-756.563840999527
 30
0.0
  0
VERTEX
  5
227
330
189
100
AcDbEntity
  8
Graypants_Dish10v
370
    -3
100
AcDbVertex
100
AcDb2dVertex
 10
293.526398288894
 20
-756.5513388062976
 30
0.0
  0
VERTEX
  5
228
330
189
100
AcDbEntity
  8
Graypants_Dish10v
370
    -3
100
AcDbVertex
100
AcDb2dVertex
 10
293.5139539892247
 20
-756.5392608956552
 30
0.0
  0
VERTEX
  5
229
330
189
100
AcDbEntity
  8
Graypants_Dish10v
370
    -3
100
AcDbVertex
100
AcDb2dVertex
 10
293.5010983330892
 20
-756.5276217966749
 30
0.0
  0
VERTEX
  5
22A
330
189
100
AcDbEntity
  8
Graypants_Dish10v
370
    -3
100
AcDbVertex
100
AcDb2dVertex
 10
293.4878467851486
 20
-756.5164355105654
 30
0.0
  0
VERTEX
  5
22B
330
189
100
AcDbEntity
  8
Graypants_Dish10v
370
    -3
100
AcDbVertex
100
AcDb2dVertex
 10
293.4742152863005
 20
-756.5057154938257
 30
0.0
  0
VERTEX
  5
22C
330
189
100
AcDbEntity
  8
Graypants_Dish10v
370
    -3
100
AcDbVertex
100
AcDb2dVertex
 10
293.460220234503
 20
-756.4954746420578
 30
0.0
  0
VERTEX
  5
22D
330
189
100
AcDbEntity
  8
Graypants_Dish10v
370
    -3
100
AcDbVertex
100
AcDb2dVertex
 10
293.4458784650488
 20
-756.4857252744542
 30
0.0
  0
VERTEX
  5
22E
330
189
100
AcDbEntity
  8
Graypants_Dish10v
370
    -3
100
AcDbVertex
100
AcDb2dVertex
 10
293.4312072303134
 20
-756.4764791189785
 30
0.0
  0
VERTEX
  5
22F
330
189
100
AcDbEntity
  8
Graypants_Dish10v
370
    -3
100
AcDbVertex
100
AcDb2dVertex
 10
293.4162241790008
 20
-756.4677472982571
 30
0.0
  0
VERTEX
  5
230
330
189
100
AcDbEntity
  8
Graypants_Dish10v
370
    -3
100
AcDbVertex
100
AcDb2dVertex
 10
293.400947334914
 20
-756.4595403161995
 30
0.0
  0
VERTEX
  5
231
330
189
100
AcDbEntity
  8
Graypants_Dish10v
370
    -3
100
AcDbVertex
100
AcDb2dVertex
 10
293.3853950752726
 20
-756.4518680453626
 30
0.0
  0
VERTEX
  5
232
330
189
100
AcDbEntity
  8
Graypants_Dish10v
370
    -3
100
AcDbVertex
100
AcDb2dVertex
 10
293.3695861086065
 20
-756.4447397150745
 30
0.0
  0
VERTEX
  5
233
330
189
100
AcDbEntity
  8
Graypants_Dish10v
370
    -3
100
AcDbVertex
100
AcDb2dVertex
 10
293.3535394522501
 20
-756.4381639003324
 30
0.0
  0
VERTEX
  5
234
330
189
100
AcDbEntity
  8
Graypants_Dish10v
370
    -3
100
AcDbVertex
100
AcDb2dVertex
 10
293.3372744094656
 20
-756.4321485114864
 30
0.0
  0
VERTEX
  5
235
330
189
100
AcDbEntity
  8
Graypants_Dish10v
370
    -3
100
AcDbVertex
100
AcDb2dVertex
 10
293.3208105462227
 20
-756.4267007847253
 30
0.0
  0
VERTEX
  5
236
330
189
100
AcDbEntity
  8
Graypants_Dish10v
370
    -3
100
AcDbVertex
100
AcDb2dVertex
 10
293.304167667661
 20
-756.4218272733706
 30
0.0
  0
VERTEX
  5
237
330
189
100
AcDbEntity
  8
Graypants_Dish10v
370
    -3
100
AcDbVertex
100
AcDb2dVertex
 10
293.287365794266
 20
-756.4175338399936
 30
0.0
  0
VERTEX
  5
238
330
189
100
AcDbEntity
  8
Graypants_Dish10v
370
    -3
100
AcDbVertex
100
AcDb2dVertex
 10
293.2704251377853
 20
-756.413825649363
 30
0.0
  0
VERTEX
  5
239
330
189
100
AcDbEntity
  8
Graypants_Dish10v
370
    -3
100
AcDbVertex
100
AcDb2dVertex
 10
293.2533660769154
 20
-756.4107071622325
 30
0.0
  0
VERTEX
  5
23A
330
189
100
AcDbEntity
  8
Graypants_Dish10v
370
    -3
100
AcDbVertex
100
AcDb2dVertex
 10
293.2362091327867
 20
-756.4081821299737
 30
0.0
  0
VERTEX
  5
23B
330
189
100
AcDbEntity
  8
Graypants_Dish10v
370
    -3
100
AcDbVertex
100
AcDb2dVertex
 10
293.2189749442776
 20
-756.4062535900644
 30
0.0
  0
VERTEX
  5
23C
330
189
100
AcDbEntity
  8
Graypants_Dish10v
370
    -3
100
AcDbVertex
100
AcDb2dVertex
 10
293.2016842431879
 20
-756.4049238624341
 30
0.0
  0
VERTEX
  5
23D
330
189
100
AcDbEntity
  8
Graypants_Dish10v
370
    -3
100
AcDbVertex
100
AcDb2dVertex
 10
293.1843578292984
 20
-756.4041945466734
 30
0.0
  0
VERTEX
  5
23E
330
189
100
AcDbEntity
  8
Graypants_Dish10v
370
    -3
100
AcDbVertex
100
AcDb2dVertex
 10
293.1670165453511
 20
-756.4040665201098
 30
0.0
  0
VERTEX
  5
23F
330
189
100
AcDbEntity
  8
Graypants_Dish10v
370
    -3
100
AcDbVertex
100
AcDb2dVertex
 10
293.1496812519752
 20
-756.4045399367524
 30
0.0
  0
VERTEX
  5
240
330
189
100
AcDbEntity
  8
Graypants_Dish10v
370
    -3
100
AcDbVertex
100
AcDb2dVertex
 10
293.132372802594
 20
-756.4056142271065
 30
0.0
  0
VERTEX
  5
241
330
189
100
AcDbEntity
  8
Graypants_Dish10v
370
    -3
100
AcDbVertex
100
AcDb2dVertex
 10
293.1151120183388
 20
-756.4072880988589
 30
0.0
  0
VERTEX
  5
242
330
189
100
AcDbEntity
  8
Graypants_Dish10v
370
    -3
100
AcDbVertex
100
AcDb2dVertex
 10
293.0979196630025
 20
-756.4095595384318
 30
0.0
  0
VERTEX
  5
243
330
189
100
AcDbEntity
  8
Graypants_Dish10v
370
    -3
100
AcDbVertex
100
AcDb2dVertex
 10
293.0808164180613
 20
-756.4124258134061
 30
0.0
  0
VERTEX
  5
244
330
189
100
AcDbEntity
  8
Graypants_Dish10v
370
    -3
100
AcDbVertex
100
AcDb2dVertex
 10
293.0638228577968
 20
-756.4158834758076
 30
0.0
  0
VERTEX
  5
245
330
189
100
AcDbEntity
  8
Graypants_Dish10v
370
    -3
100
AcDbVertex
100
AcDb2dVertex
 10
293.0469594245455
 20
-756.4199283662547
 30
0.0
  0
VERTEX
  5
246
330
189
100
AcDbEntity
  8
Graypants_Dish10v
370
    -3
100
AcDbVertex
100
AcDb2dVertex
 10
293.0302464041087
 20
-756.4245556189624
 30
0.0
  0
VERTEX
  5
247
330
189
100
AcDbEntity
  8
Graypants_Dish10v
370
    -3
100
AcDbVertex
100
AcDb2dVertex
 10
293.0137039013484
 20
-756.4297596675951
 30
0.0
  0
VERTEX
  5
248
330
189
100
AcDbEntity
  8
Graypants_Dish10v
370
    -3
100
AcDbVertex
100
AcDb2dVertex
 10
292.9973518160036
 20
-756.4355342519631
 30
0.0
  0
VERTEX
  5
249
330
189
100
AcDbEntity
  8
Graypants_Dish10v
370
    -3
100
AcDbVertex
100
AcDb2dVertex
 10
292.9812098187512
 20
-756.4418724255526
 30
0.0
  0
VERTEX
  5
24A
330
189
100
AcDbEntity
  8
Graypants_Dish10v
370
    -3
100
AcDbVertex
100
AcDb2dVertex
 10
292.9652973275436
 20
-756.4487665638826
 30
0.0
  0
VERTEX
  5
24B
330
189
100
AcDbEntity
  8
Graypants_Dish10v
370
    -3
100
AcDbVertex
100
AcDb2dVertex
 10
292.9496334842496
 20
-756.4562083736764
 30
0.0
  0
VERTEX
  5
24C
330
189
100
AcDbEntity
  8
Graypants_Dish10v
370
    -3
100
AcDbVertex
100
AcDb2dVertex
 10
292.9342371316281
 20
-756.4641889028381
 30
0.0
  0
VERTEX
  5
24D
330
189
100
AcDbEntity
  8
Graypants_Dish10v
370
    -3
100
AcDbVertex
100
AcDb2dVertex
 10
292.9191267906612
 20
-756.4726985512215
 30
0.0
  0
VERTEX
  5
24E
330
189
100
AcDbEntity
  8
Graypants_Dish10v
370
    -3
100
AcDbVertex
100
AcDb2dVertex
 10
292.9043206382742
 20
-756.4817270821783
 30
0.0
  0
VERTEX
  5
24F
330
189
100
AcDbEntity
  8
Graypants_Dish10v
370
    -3
100
AcDbVertex
100
AcDb2dVertex
 10
292.88983648547
 20
-756.4912636348727
 30
0.0
  0
VERTEX
  5
250
330
189
100
AcDbEntity
  8
Graypants_Dish10v
370
    -3
100
AcDbVertex
100
AcDb2dVertex
 10
292.8756917559036
 20
-756.501296737346
 30
0.0
  0
VERTEX
  5
251
330
189
100
AcDbEntity
  8
Graypants_Dish10v
370
    -3
100
AcDbVertex
100
AcDb2dVertex
 10
292.861903464922
 20
-756.511814320317
 30
0.0
  0
VERTEX
  5
252
330
189
100
AcDbEntity
  8
Graypants_Dish10v
370
    -3
100
AcDbVertex
100
AcDb2dVertex
 10
292.8484881990956
 20
-756.5228037317004
 30
0.0
  0
VERTEX
  5
253
330
189
100
AcDbEntity
  8
Graypants_Dish10v
370
    -3
100
AcDbVertex
100
AcDb2dVertex
 10
292.8354620962658
 20
-756.5342517518268
 30
0.0
  0
VERTEX
  5
254
330
189
100
AcDbEntity
  8
Graypants_Dish10v
370
    -3
100
AcDbVertex
100
AcDb2dVertex
 10
292.8228408261321
 20
-756.5461446093454
 30
0.0
  0
VERTEX
  5
255
330
189
100
AcDbEntity
  8
Graypants_Dish10v
370
    -3
100
AcDbVertex
100
AcDb2dVertex
 10
292.8106395714019
 20
-756.5584679977899
 30
0.0
  0
VERTEX
  5
256
330
189
100
AcDbEntity
  8
Graypants_Dish10v
370
    -3
100
AcDbVertex
100
AcDb2dVertex
 10
292.7988730095266
 20
-756.5712070927883
 30
0.0
  0
VERTEX
  5
257
330
189
100
AcDbEntity
  8
Graypants_Dish10v
370
    -3
100
AcDbVertex
100
AcDb2dVertex
 10
292.7875552950458
 20
-756.5843465698965
 30
0.0
  0
VERTEX
  5
258
330
189
100
AcDbEntity
  8
Graypants_Dish10v
370
    -3
100
AcDbVertex
100
AcDb2dVertex
 10
292.7767000425596
 20
-756.5978706230319
 30
0.0
  0
VERTEX
  5
259
330
189
100
AcDbEntity
  8
Graypants_Dish10v
370
    -3
100
AcDbVertex
100
AcDb2dVertex
 10
292.7663203103515
 20
-756.6117629834878
 30
0.0
  0
VERTEX
  5
25A
330
189
100
AcDbEntity
  8
Graypants_Dish10v
370
    -3
100
AcDbVertex
100
AcDb2dVertex
 10
292.7564285846798
 20
-756.6260069395036
 30
0.0
  0
VERTEX
  5
25B
330
189
100
AcDbEntity
  8
Graypants_Dish10v
370
    -3
100
AcDbVertex
100
AcDb2dVertex
 10
292.747036764757
 20
-756.6405853563683
 30
0.0
  0
VERTEX
  5
25C
330
189
100
AcDbEntity
  8
Graypants_Dish10v
370
    -3
100
AcDbVertex
100
AcDb2dVertex
 10
292.7381561484359
 20
-756.6554806970327
 30
0.0
  0
VERTEX
  5
25D
330
189
100
AcDbEntity
  8
Graypants_Dish10v
370
    -3
100
AcDbVertex
100
AcDb2dVertex
 10
292.7297974186193
 20
-756.6706750432047
 30
0.0
  0
VERTEX
  5
25E
330
189
100
AcDbEntity
  8
Graypants_Dish10v
370
    -3
100
AcDbVertex
100
AcDb2dVertex
 10
292.7219706304084
 20
-756.6861501169057
 30
0.0
  0
VERTEX
  5
25F
330
189
100
AcDbEntity
  8
Graypants_Dish10v
370
    -3
100
AcDbVertex
100
AcDb2dVertex
 10
292.7146851990073
 20
-756.7018873024559
 30
0.0
  0
VERTEX
  5
260
330
189
100
AcDbEntity
  8
Graypants_Dish10v
370
    -3
100
AcDbVertex
100
AcDb2dVertex
 10
292.7079498883973
 20
-756.7178676688702
 30
0.0
  0
VERTEX
  5
261
330
189
100
AcDbEntity
  8
Graypants_Dish10v
370
    -3
100
AcDbVertex
100
AcDb2dVertex
 10
292.7017728007937
 20
-756.7340719926291
 30
0.0
  0
VERTEX
  5
262
330
189
100
AcDbEntity
  8
Graypants_Dish10v
370
    -3
100
AcDbVertex
100
AcDb2dVertex
 10
292.6961613669
 20
-756.750480780805
 30
0.0
  0
VERTEX
  5
263
330
189
100
AcDbEntity
  8
Graypants_Dish10v
370
    -3
100
AcDbVertex
100
AcDb2dVertex
 10
292.6911223369684
 20
-756.7670742945105
 30
0.0
  0
VERTEX
  5
264
330
189
100
AcDbEntity
  8
Graypants_Dish10v
370
    -3
100
AcDbVertex
100
AcDb2dVertex
 10
292.6866617726804
 20
-756.7838325726434
 30
0.0
  0
VERTEX
  5
265
330
189
100
AcDbEntity
  8
Graypants_Dish10v
370
    -3
100
AcDbVertex
100
AcDb2dVertex
 10
292.6827850398542
 20
-756.8007354558987
 30
0.0
  0
VERTEX
  5
266
330
189
100
AcDbEntity
  8
Graypants_Dish10v
370
    -3
100
AcDbVertex
100
AcDb2dVertex
 10
292.6794968019904
 20
-756.8177626110191
 30
0.0
  0
VERTEX
  5
267
330
189
100
AcDbEntity
  8
Graypants_Dish10v
370
    -3
100
AcDbVertex
100
AcDb2dVertex
 10
292.6768010146617
 20
-756.8348935552553
 30
0.0
  0
VERTEX
  5
268
330
189
100
AcDbEntity
  8
Graypants_Dish10v
370
    -3
100
AcDbVertex
100
AcDb2dVertex
 10
292.6747009207552
 20
-756.8521076810051
 30
0.0
  0
VERTEX
  5
269
330
189
100
AcDbEntity
  8
Graypants_Dish10v
370
    -3
100
AcDbVertex
100
AcDb2dVertex
 10
292.6731990465703
 20
-756.8693842806034
 30
0.0
  0
VERTEX
  5
26A
330
189
100
AcDbEntity
  8
Graypants_Dish10v
370
    -3
100
AcDbVertex
100
AcDb2dVertex
 10
292.6722971987809
 20
-756.8867025712324
 30
0.0
  0
VERTEX
  5
26B
330
189
100
AcDbEntity
  8
Graypants_Dish10v
370
    -3
100
AcDbVertex
100
AcDb2dVertex
 10
292.6719964622612
 20
-756.9040417199224
 30
0.0
  0
SEQEND
  5
26C
330
189
100
AcDbEntity
  8
Graypants_Dish10v
370
    -3
  0
POLYLINE
  5
26D
330
1F
100
AcDbEntity
  8
Graypants_Dish10v
370
    -3
100
AcDb2dPolyline
 66
     1
 10
0.0
 20
0.0
 30
0.0
 70
     1
  0
VERTEX
  5
26E
330
26D
100
AcDbEntity
  8
Graypants_Dish10v
370
    -3
100
AcDbVertex
100
AcDb2dVertex
 10
282.6720033279655
 20
-994.7247394795802
 30
0.0
  0
VERTEX
  5
26F
330
26D
100
AcDbEntity
  8
Graypants_Dish10v
370
    -3
100
AcDbVertex
100
AcDb2dVertex
 10
292.6720033279655
 20
-994.7247394795802
 30
0.0
  0
VERTEX
  5
270
330
26D
100
AcDbEntity
  8
Graypants_Dish10v
370
    -3
100
AcDbVertex
100
AcDb2dVertex
 10
292.6720033279656
 20
-752.7247394795802
 30
0.0
  0
VERTEX
  5
271
330
26D
100
AcDbEntity
  8
Graypants_Dish10v
370
    -3
100
AcDbVertex
100
AcDb2dVertex
 10
282.6720033279658
 20
-752.7247394795802
 30
0.0
  0
SEQEND
  5
272
330
26D
100
AcDbEntity
  8
Graypants_Dish10v
370
    -3
  0
CIRCLE
  5
274
330
1F
100
AcDbEntity
  8
Graypants_Dish10v
  6
Hidden
370
    -3
100
AcDbCircle
 10
0.0000000000000327
 20
0.0000000000000427
 30
0.0
 40
69.05625
  0
ARC
  5
275
330
1F
100
AcDbEntity
  8
Graypants_Dish10v
370
    -3
100
AcDbCircle
 10
-5.751704052752567
 20
0.0000004594294636
 30
0.0
 40
2.49999999810051
210
0.0
220
0.0
230
-1.0
100
AcDbArc
 50
90.01894318388354
 51
89.9724503721777
  0
LINE
  5
276
330
1F
100
AcDbEntity
  8
Graypants_Dish10v
370
    -3
100
AcDbLine
 10
5.001700500847107
 20
27.62037703650047
 30
0.0
 11
5.001700500847107
 21
29.0703770365004
 31
0.0
  0
CIRCLE
  5
277
330
1F
100
AcDbEntity
  8
Graypants_Dish10v
370
    -3
100
AcDbCircle
 10
-0.0017016182201814
 20
0.0000004558266797
 30
0.0
 40
0.750000000002765
210
0.0
220
0.0
230
-1.0
  0
POLYLINE
  5
278
330
1F
100
AcDbEntity
  8
Graypants_Dish10v
370
    -3
100
AcDb2dPolyline
 66
     1
 10
0.0
 20
0.0
 30
0.0
 70
     1
  0
VERTEX
  5
279
330
278
100
AcDbEntity
  8
Graypants_Dish10v
370
    -3
100
AcDbVertex
100
AcDb2dVertex
 10
-120.9982994991529
 20
-4.999999544174628
 30
0.0
  0
VERTEX
  5
27A
330
278
100
AcDbEntity
  8
Graypants_Dish10v
370
    -3
100
AcDbVertex
100
AcDb2dVertex
 10
-120.9982994991528
 20
5.000000455825372
 30
0.0
  0
VERTEX
  5
27B
330
278
100
AcDbEntity
  8
Graypants_Dish10v
370
    -3
100
AcDbVertex
100
AcDb2dVertex
 10
121.0017005008472
 20
5.000000455822928
 30
0.0
  0
VERTEX
  5
27C
330
278
100
AcDbEntity
  8
Graypants_Dish10v
370
    -3
100
AcDbVertex
100
AcDb2dVertex
 10
121.0017005008471
 20
-4.999999544177072
 30
0.0
  0
SEQEND
  5
27D
330
278
100
AcDbEntity
  8
Graypants_Dish10v
370
    -3
  0
POLYLINE
  5
27E
330
1F
100
AcDbEntity
  8
Graypants_Dish10v
370
    -3
100
AcDb2dPolyline
 66
     1
 10
0.0
 20
0.0
 30
0.0
  0
VERTEX
  5
27F
330
27E
100
AcDbEntity
  8
Graypants_Dish10v
370
    -3
100
AcDbVertex
100
AcDb2dVertex
 10
-4.998299499152779
 20
-27.62037612485121
 30
0.0
  0
VERTEX
  5
280
330
27E
100
AcDbEntity
  8
Graypants_Dish10v
370
    -3
100
AcDbVertex
100
AcDb2dVertex
 10
-4.998299499152779
 20
-29.07037612485125
 30
0.0
  0
VERTEX
  5
281
330
27E
100
AcDbEntity
  8
Graypants_Dish10v
370
    -3
100
AcDbVertex
100
AcDb2dVertex
 10
5.001700500847221
 20
-29.07037612485125
 30
0.0
  0
VERTEX
  5
282
330
27E
100
AcDbEntity
  8
Graypants_Dish10v
370
    -3
100
AcDbVertex
100
AcDb2dVertex
 10
5.001700500847221
 20
-27.62037612485121
 30
0.0
  0
SEQEND
  5
283
330
27E
100
AcDbEntity
  8
Graypants_Dish10v
370
    -3
  0
POLYLINE
  5
284
330
1F
100
AcDbEntity
  8
Graypants_Dish10v
370
    -3
100
AcDb2dPolyline
 66
     1
 10
0.0
 20
0.0
 30
0.0
  0
VERTEX
  5
285
330
284
100
AcDbEntity
  8
Graypants_Dish10v
370
    -3
100
AcDbVertex
100
AcDb2dVertex
 10
116.8250185007072
 20
-4.999999544177136
 30
0.0
  0
VERTEX
  5
286
330
284
100
AcDbEntity
  8
Graypants_Dish10v
370
    -3
100
AcDbVertex
100
AcDb2dVertex
 10
116.8423231082089
 20
-5.000389835761215
 30
0.0
  0
VERTEX
  5
287
330
284
100
AcDbEntity
  8
Graypants_Dish10v
370
    -3
100
AcDbVertex
100
AcDb2dVertex
 10
116.8596038376323
 20
-5.001378854925809
 30
0.0
  0
VERTEX
  5
288
330
284
100
AcDbEntity
  8
Graypants_Dish10v
370
    -3
100
AcDbVertex
100
AcDb2dVertex
 10
116.8768399796288
 20
-5.002965416423355
 30
0.0
  0
VERTEX
  5
289
330
284
100
AcDbEntity
  8
Graypants_Dish10v
370
    -3
100
AcDbVertex
100
AcDb2dVertex
 10
116.894010878284
 20
-5.005147618907333
 30
0.0
  0
VERTEX
  5
28A
330
284
100
AcDbEntity
  8
Graypants_Dish10v
370
    -3
100
AcDbVertex
100
AcDb2dVertex
 10
116.9110959558716
 20
-5.007922847210848
 30
0.0
  0
VERTEX
  5
28B
330
284
100
AcDbEntity
  8
Graypants_Dish10v
370
    -3
100
AcDbVertex
100
AcDb2dVertex
 10
116.9280747375137
 20
-5.011287775480675
 30
0.0
  0
VERTEX
  5
28C
330
284
100
AcDbEntity
  8
Graypants_Dish10v
370
    -3
100
AcDbVertex
100
AcDb2dVertex
 10
116.9449268757182
 20
-5.015238371162972
 30
0.0
  0
VERTEX
  5
28D
330
284
100
AcDbEntity
  8
Graypants_Dish10v
370
    -3
100
AcDbVertex
100
AcDb2dVertex
 10
116.9616321747636
 20
-5.019769899835931
 30
0.0
  0
VERTEX
  5
28E
330
284
100
AcDbEntity
  8
Graypants_Dish10v
370
    -3
100
AcDbVertex
100
AcDb2dVertex
 10
116.9781706149013
 20
-5.024876930883538
 30
0.0
  0
VERTEX
  5
28F
330
284
100
AcDbEntity
  8
Graypants_Dish10v
370
    -3
100
AcDbVertex
100
AcDb2dVertex
 10
116.9945223763477
 20
-5.030553344003661
 30
0.0
  0
VERTEX
  5
290
330
284
100
AcDbEntity
  8
Graypants_Dish10v
370
    -3
100
AcDbVertex
100
AcDb2dVertex
 10
117.0106678630362
 20
-5.036792336542668
 30
0.0
  0
VERTEX
  5
291
330
284
100
AcDbEntity
  8
Graypants_Dish10v
370
    -3
100
AcDbVertex
100
AcDb2dVertex
 10
117.0265877261013
 20
-5.043586431647769
 30
0.0
  0
VERTEX
  5
292
330
284
100
AcDbEntity
  8
Graypants_Dish10v
370
    -3
100
AcDbVertex
100
AcDb2dVertex
 10
117.0422628870666
 20
-5.050927487227334
 30
0.0
  0
VERTEX
  5
293
330
284
100
AcDbEntity
  8
Graypants_Dish10v
370
    -3
100
AcDbVertex
100
AcDb2dVertex
 10
117.0576745607083
 20
-5.058806705708431
 30
0.0
  0
VERTEX
  5
294
330
284
100
AcDbEntity
  8
Graypants_Dish10v
370
    -3
100
AcDbVertex
100
AcDb2dVertex
 10
117.0728042775676
 20
-5.067214644579901
 30
0.0
  0
VERTEX
  5
295
330
284
100
AcDbEntity
  8
Graypants_Dish10v
370
    -3
100
AcDbVertex
100
AcDb2dVertex
 10
117.0876339060849
 20
-5.076141227708329
 30
0.0
  0
VERTEX
  5
296
330
284
100
AcDbEntity
  8
Graypants_Dish10v
370
    -3
100
AcDbVertex
100
AcDb2dVertex
 10
117.1021456743285
 20
-5.085575757413356
 30
0.0
  0
VERTEX
  5
297
330
284
100
AcDbEntity
  8
Graypants_Dish10v
370
    -3
100
AcDbVertex
100
AcDb2dVertex
 10
117.1163221912926
 20
-5.095506927287848
 30
0.0
  0
VERTEX
  5
298
330
284
100
AcDbEntity
  8
Graypants_Dish10v
370
    -3
100
AcDbVertex
100
AcDb2dVertex
 10
117.1301464677391
 20
-5.105922835747583
 30
0.0
  0
VERTEX
  5
299
330
284
100
AcDbEntity
  8
Graypants_Dish10v
370
    -3
100
AcDbVertex
100
AcDb2dVertex
 10
117.1436019365572
 20
-5.116811000294188
 30
0.0
  0
VERTEX
  5
29A
330
284
100
AcDbEntity
  8
Graypants_Dish10v
370
    -3
100
AcDbVertex
100
AcDb2dVertex
 10
117.156672472618
 20
-5.128158372474258
 30
0.0
  0
VERTEX
  5
29B
330
284
100
AcDbEntity
  8
Graypants_Dish10v
370
    -3
100
AcDbVertex
100
AcDb2dVertex
 10
117.1693424120986
 20
-5.139951353516706
 30
0.0
  0
VERTEX
  5
29C
330
284
100
AcDbEntity
  8
Graypants_Dish10v
370
    -3
100
AcDbVertex
100
AcDb2dVertex
 10
117.1815965712539
 20
-5.152175810629639
 30
0.0
  0
VERTEX
  5
29D
330
284
100
AcDbEntity
  8
Graypants_Dish10v
370
    -3
100
AcDbVertex
100
AcDb2dVertex
 10
117.193420264613
 20
-5.164817093937185
 30
0.0
  0
VERTEX
  5
29E
330
284
100
AcDbEntity
  8
Graypants_Dish10v
370
    -3
100
AcDbVertex
100
AcDb2dVertex
 10
117.2047993225779
 20
-5.177860054036014
 30
0.0
  0
VERTEX
  5
29F
330
284
100
AcDbEntity
  8
Graypants_Dish10v
370
    -3
100
AcDbVertex
100
AcDb2dVertex
 10
117.2157201084053
 20
-5.191289060150488
 30
0.0
  0
VERTEX
  5
2A0
330
284
100
AcDbEntity
  8
Graypants_Dish10v
370
    -3
100
AcDbVertex
100
AcDb2dVertex
 10
117.2261695345481
 20
-5.205088018864693
 30
0.0
  0
VERTEX
  5
2A1
330
284
100
AcDbEntity
  8
Graypants_Dish10v
370
    -3
100
AcDbVertex
100
AcDb2dVertex
 10
117.2361350783401
 20
-5.219240393408901
 30
0.0
  0
VERTEX
  5
2A2
330
284
100
AcDbEntity
  8
Graypants_Dish10v
370
    -3
100
AcDbVertex
100
AcDb2dVertex
 10
117.2456047970032
 20
-5.233729223477355
 30
0.0
  0
VERTEX
  5
2A3
330
284
100
AcDbEntity
  8
Graypants_Dish10v
370
    -3
100
AcDbVertex
100
AcDb2dVertex
 10
117.2545673419594
 20
-5.24853714555362
 30
0.0
  0
VERTEX
  5
2A4
330
284
100
AcDbEntity
  8
Graypants_Dish10v
370
    -3
100
AcDbVertex
100
AcDb2dVertex
 10
117.2630119724316
 20
-5.263646413719139
 30
0.0
  0
VERTEX
  5
2A5
330
284
100
AcDbEntity
  8
Graypants_Dish10v
370
    -3
100
AcDbVertex
100
AcDb2dVertex
 10
117.2709285683149
 20
-5.279038920920071
 30
0.0
  0
VERTEX
  5
2A6
330
284
100
AcDbEntity
  8
Graypants_Dish10v
370
    -3
100
AcDbVertex
100
AcDb2dVertex
 10
117.2783076423048
 20
-5.294696220666911
 30
0.0
  0
VERTEX
  5
2A7
330
284
100
AcDbEntity
  8
Graypants_Dish10v
370
    -3
100
AcDbVertex
100
AcDb2dVertex
 10
117.2851403512667
 20
-5.310599549140893
 30
0.0
  0
VERTEX
  5
2A8
330
284
100
AcDbEntity
  8
Graypants_Dish10v
370
    -3
100
AcDbVertex
100
AcDb2dVertex
 10
117.291418506834
 20
-5.32672984768069
 30
0.0
  0
VERTEX
  5
2A9
330
284
100
AcDbEntity
  8
Graypants_Dish10v
370
    -3
100
AcDbVertex
100
AcDb2dVertex
 10
117.2971345852206
 20
-5.343067785622435
 30
0.0
  0
VERTEX
  5
2AA
330
284
100
AcDbEntity
  8
Graypants_Dish10v
370
    -3
100
AcDbVertex
100
AcDb2dVertex
 10
117.3022817362377
 20
-5.359593783465738
 30
0.0
  0
VERTEX
  5
2AB
330
284
100
AcDbEntity
  8
Graypants_Dish10v
370
    -3
100
AcDbVertex
100
AcDb2dVertex
 10
117.3068537915032
 20
-5.37628803633789
 30
0.0
  0
VERTEX
  5
2AC
330
284
100
AcDbEntity
  8
Graypants_Dish10v
370
    -3
100
AcDbVertex
100
AcDb2dVertex
 10
117.3108452718336
 20
-5.393130537728167
 30
0.0
  0
VERTEX
  5
2AD
330
284
100
AcDbEntity
  8
Graypants_Dish10v
370
    -3
100
AcDbVertex
100
AcDb2dVertex
 10
117.3142513938108
 20
-5.410101103463773
 30
0.0
  0
VERTEX
  5
2AE
330
284
100
AcDbEntity
  8
Graypants_Dish10v
370
    -3
100
AcDbVertex
100
AcDb2dVertex
 10
117.317068075514
 20
-5.427179395898691
 30
0.0
  0
VERTEX
  5
2AF
330
284
100
AcDbEntity
  8
Graypants_Dish10v
370
    -3
100
AcDbVertex
100
AcDb2dVertex
 10
117.319291941412
 20
-5.444344948286471
 30
0.0
  0
VERTEX
  5
2B0
330
284
100
AcDbEntity
  8
Graypants_Dish10v
370
    -3
100
AcDbVertex
100
AcDb2dVertex
 10
117.3209203264082
 20
-5.461577189307714
 30
0.0
  0
VERTEX
  5
2B1
330
284
100
AcDbEntity
  8
Graypants_Dish10v
370
    -3
100
AcDbVertex
100
AcDb2dVertex
 10
117.3219512790344
 20
-5.478855467722892
 30
0.0
  0
VERTEX
  5
2B2
330
284
100
AcDbEntity
  8
Graypants_Dish10v
370
    -3
100
AcDbVertex
100
AcDb2dVertex
 10
117.3223835637898
 20
-5.496159077120939
 30
0.0
  0
VERTEX
  5
2B3
330
284
100
AcDbEntity
  8
Graypants_Dish10v
370
    -3
100
AcDbVertex
100
AcDb2dVertex
 10
117.3222166626211
 20
-5.513467280733962
 30
0.0
  0
VERTEX
  5
2B4
330
284
100
AcDbEntity
  8
Graypants_Dish10v
370
    -3
100
AcDbVertex
100
AcDb2dVertex
 10
117.3214507755441
 20
-5.530759336288323
 30
0.0
  0
VERTEX
  5
2B5
330
284
100
AcDbEntity
  8
Graypants_Dish10v
370
    -3
100
AcDbVertex
100
AcDb2dVertex
 10
117.3200868204031
 20
-5.548014520862336
 30
0.0
  0
VERTEX
  5
2B6
330
284
100
AcDbEntity
  8
Graypants_Dish10v
370
    -3
100
AcDbVertex
100
AcDb2dVertex
 10
117.3181264317716
 20
-5.565212155720759
 30
0.0
  0
VERTEX
  5
2B7
330
284
100
AcDbEntity
  8
Graypants_Dish10v
370
    -3
100
AcDbVertex
100
AcDb2dVertex
 10
117.3155719589933
 20
-5.582331631096332
 30
0.0
  0
VERTEX
  5
2B8
330
284
100
AcDbEntity
  8
Graypants_Dish10v
370
    -3
100
AcDbVertex
100
AcDb2dVertex
 10
117.3124264633664
 20
-5.599352430888676
 30
0.0
  0
VERTEX
  5
2B9
330
284
100
AcDbEntity
  8
Graypants_Dish10v
370
    -3
100
AcDbVertex
100
AcDb2dVertex
 10
117.3086937144751
 20
-5.616254157250927
 30
0.0
  0
VERTEX
  5
2BA
330
284
100
AcDbEntity
  8
Graypants_Dish10v
370
    -3
100
AcDbVertex
100
AcDb2dVertex
 10
117.3043781856721
 20
-5.633016555034662
 30
0.0
  0
VERTEX
  5
2BB
330
284
100
AcDbEntity
  8
Graypants_Dish10v
370
    -3
100
AcDbVertex
100
AcDb2dVertex
 10
117.2994850487176
 20
-5.649619536063815
 30
0.0
  0
VERTEX
  5
2BC
330
284
100
AcDbEntity
  8
Graypants_Dish10v
370
    -3
100
AcDbVertex
100
AcDb2dVertex
 10
117.2940201675816
 20
-5.666043203208483
 30
0.0
  0
VERTEX
  5
2BD
330
284
100
AcDbEntity
  8
Graypants_Dish10v
370
    -3
100
AcDbVertex
100
AcDb2dVertex
 10
117.2879900914162
 20
-5.68226787422979
 30
0.0
  0
VERTEX
  5
2BE
330
284
100
AcDbEntity
  8
Graypants_Dish10v
370
    -3
100
AcDbVertex
100
AcDb2dVertex
 10
117.2814020467074
 20
-5.698274105367225
 30
0.0
  0
VERTEX
  5
2BF
330
284
100
AcDbEntity
  8
Graypants_Dish10v
370
    -3
100
AcDbVertex
100
AcDb2dVertex
 10
117.2742639286146
 20
-5.714042714640174
 30
0.0
  0
VERTEX
  5
2C0
330
284
100
AcDbEntity
  8
Graypants_Dish10v
370
    -3
100
AcDbVertex
100
AcDb2dVertex
 10
117.266584291509
 20
-5.729554804835751
 30
0.0
  0
VERTEX
  5
2C1
330
284
100
AcDbEntity
  8
Graypants_Dish10v
370
    -3
100
AcDbVertex
100
AcDb2dVertex
 10
117.2583723387219
 20
-5.744791786155346
 30
0.0
  0
VERTEX
  5
2C2
330
284
100
AcDbEntity
  8
Graypants_Dish10v
370
    -3
100
AcDbVertex
100
AcDb2dVertex
 10
117.2496379115158
 20
-5.759735398492769
 30
0.0
  0
VERTEX
  5
2C3
330
284
100
AcDbEntity
  8
Graypants_Dish10v
370
    -3
100
AcDbVertex
100
AcDb2dVertex
 10
117.24039147729
 20
-5.774367733317296
 30
0.0
  0
VERTEX
  5
2C4
330
284
100
AcDbEntity
  8
Graypants_Dish10v
370
    -3
100
AcDbVertex
100
AcDb2dVertex
 10
117.2306441170366
 20
-5.788671255135374
 30
0.0
  0
VERTEX
  5
2C5
330
284
100
AcDbEntity
  8
Graypants_Dish10v
370
    -3
100
AcDbVertex
100
AcDb2dVertex
 10
117.2204075120611
 20
-5.802628822505285
 30
0.0
  0
VERTEX
  5
2C6
330
284
100
AcDbEntity
  8
Graypants_Dish10v
370
    -3
100
AcDbVertex
100
AcDb2dVertex
 10
117.2096939299833
 20
-5.816223708579568
 30
0.0
  0
VERTEX
  5
2C7
330
284
100
AcDbEntity
  8
Graypants_Dish10v
370
    -3
100
AcDbVertex
100
AcDb2dVertex
 10
117.1985162100358
 20
-5.829439621150591
 30
0.0
  0
VERTEX
  5
2C8
330
284
100
AcDbEntity
  8
Graypants_Dish10v
370
    -3
100
AcDbVertex
100
AcDb2dVertex
 10
117.1868877476772
 20
-5.84226072217525
 30
0.0
  0
VERTEX
  5
2C9
330
284
100
AcDbEntity
  8
Graypants_Dish10v
370
    -3
100
AcDbVertex
100
AcDb2dVertex
 10
117.1748224785391
 20
-5.85467164675539
 30
0.0
  0
VERTEX
  5
2CA
330
284
100
AcDbEntity
  8
Graypants_Dish10v
370
    -3
100
AcDbVertex
100
AcDb2dVertex
 10
117.1623348617252
 20
-5.866657521551209
 30
0.0
  0
VERTEX
  5
2CB
330
284
100
AcDbEntity
  8
Graypants_Dish10v
370
    -3
100
AcDbVertex
100
AcDb2dVertex
 10
117.1494398624841
 20
-5.878203982605573
 30
0.0
  0
VERTEX
  5
2CC
330
284
100
AcDbEntity
  8
Graypants_Dish10v
370
    -3
100
AcDbVertex
100
AcDb2dVertex
 10
117.1361529342738
 20
-5.889297192557882
 30
0.0
  0
VERTEX
  5
2CD
330
284
100
AcDbEntity
  8
Graypants_Dish10v
370
    -3
100
AcDbVertex
100
AcDb2dVertex
 10
117.1224900002433
 20
-5.899923857226867
 30
0.0
  0
VERTEX
  5
2CE
330
284
100
AcDbEntity
  8
Graypants_Dish10v
370
    -3
100
AcDbVertex
100
AcDb2dVertex
 10
117.1084674341492
 20
-5.91007124154242
 30
0.0
  0
VERTEX
  5
2CF
330
284
100
AcDbEntity
  8
Graypants_Dish10v
370
    -3
100
AcDbVertex
100
AcDb2dVertex
 10
117.094102040734
 20
-5.919727184807406
 30
0.0
  0
VERTEX
  5
2D0
330
284
100
AcDbEntity
  8
Graypants_Dish10v
370
    -3
100
AcDbVertex
100
AcDb2dVertex
 10
117.0794110355868
 20
-5.928880115271115
 30
0.0
  0
VERTEX
  5
2D1
330
284
100
AcDbEntity
  8
Graypants_Dish10v
370
    -3
100
AcDbVertex
100
AcDb2dVertex
 10
117.064412024512
 20
-5.93751906399694
 30
0.0
  0
VERTEX
  5
2D2
330
284
100
AcDbEntity
  8
Graypants_Dish10v
370
    -3
100
AcDbVertex
100
AcDb2dVertex
 10
117.0491229824305
 20
-5.945633678007622
 30
0.0
  0
VERTEX
  5
2D3
330
284
100
AcDbEntity
  8
Graypants_Dish10v
370
    -3
100
AcDbVertex
100
AcDb2dVertex
 10
117.0335622318387
 20
-5.953214232692333
 30
0.0
  0
VERTEX
  5
2D4
330
284
100
AcDbEntity
  8
Graypants_Dish10v
370
    -3
100
AcDbVertex
100
AcDb2dVertex
 10
117.01774842085
 20
-5.960251643460722
 30
0.0
  0
VERTEX
  5
2D5
330
284
100
AcDbEntity
  8
Graypants_Dish10v
370
    -3
100
AcDbVertex
100
AcDb2dVertex
 10
117.0017005008473
 20
-5.966737476629944
 30
0.0
  0
VERTEX
  5
2D6
330
284
100
AcDbEntity
  8
Graypants_Dish10v
370
    -3
100
AcDbVertex
100
AcDb2dVertex
 10
113.6644113924184
 20
-7.227877656090024
 30
0.0
  0
VERTEX
  5
2D7
330
284
100
AcDbEntity
  8
Graypants_Dish10v
370
    -3
100
AcDbVertex
100
AcDb2dVertex
 10
110.3135317362614
 20
-8.452450510370333
 30
0.0
  0
VERTEX
  5
2D8
330
284
100
AcDbEntity
  8
Graypants_Dish10v
370
    -3
100
AcDbVertex
100
AcDb2dVertex
 10
106.9494621940317
 20
-9.640309618400176
 30
0.0
  0
VERTEX
  5
2D9
330
284
100
AcDbEntity
  8
Graypants_Dish10v
370
    -3
100
AcDbVertex
100
AcDb2dVertex
 10
103.5726050044874
 20
-10.79131294893833
 30
0.0
  0
VERTEX
  5
2DA
330
284
100
AcDbEntity
  8
Graypants_Dish10v
370
    -3
100
AcDbVertex
100
AcDb2dVertex
 10
100.1833639353941
 20
-11.90532287755577
 30
0.0
  0
VERTEX
  5
2DB
330
284
100
AcDbEntity
  8
Graypants_Dish10v
370
    -3
100
AcDbVertex
100
AcDb2dVertex
 10
96.78214423524662
 20
-12.98220620309094
 30
0.0
  0
VERTEX
  5
2DC
330
284
100
AcDbEntity
  8
Graypants_Dish10v
370
    -3
100
AcDbVertex
100
AcDb2dVertex
 10
93.36935258481397
 20
-14.02183416357696
 30
0.0
  0
VERTEX
  5
2DD
330
284
100
AcDbEntity
  8
Graypants_Dish10v
370
    -3
100
AcDbVertex
100
AcDb2dVertex
 10
89.94539704851276
 20
-15.02408245163694
 30
0.0
  0
VERTEX
  5
2DE
330
284
100
AcDbEntity
  8
Graypants_Dish10v
370
    -3
100
AcDbVertex
100
AcDb2dVertex
 10
86.51068702561537
 20
-15.98883122934815
 30
0.0
  0
VERTEX
  5
2DF
330
284
100
AcDbEntity
  8
Graypants_Dish10v
370
    -3
100
AcDbVertex
100
AcDb2dVertex
 10
83.0656332012984
 20
-16.91596514257002
 30
0.0
  0
VERTEX
  5
2E0
330
284
100
AcDbEntity
  8
Graypants_Dish10v
370
    -3
100
AcDbVertex
100
AcDb2dVertex
 10
79.6106474975375
 20
-17.80537333473759
 30
0.0
  0
VERTEX
  5
2E1
330
284
100
AcDbEntity
  8
Graypants_Dish10v
370
    -3
100
AcDbVertex
100
AcDb2dVertex
 10
76.14614302385415
 20
-18.65694946011627
 30
0.0
  0
VERTEX
  5
2E2
330
284
100
AcDbEntity
  8
Graypants_Dish10v
370
    -3
100
AcDbVertex
100
AcDb2dVertex
 10
72.67253402792053
 20
-19.47059169651757
 30
0.0
  0
VERTEX
  5
2E3
330
284
100
AcDbEntity
  8
Graypants_Dish10v
370
    -3
100
AcDbVertex
100
AcDb2dVertex
 10
69.1902358460284
 20
-20.24620275747382
 30
0.0
  0
VERTEX
  5
2E4
330
284
100
AcDbEntity
  8
Graypants_Dish10v
370
    -3
100
AcDbVertex
100
AcDb2dVertex
 10
65.69966485342754
 20
-20.98368990387062
 30
0.0
  0
VERTEX
  5
2E5
330
284
100
AcDbEntity
  8
Graypants_Dish10v
370
    -3
100
AcDbVertex
100
AcDb2dVertex
 10
62.20123841454033
 20
-21.68296495503574
 30
0.0
  0
VERTEX
  5
2E6
330
284
100
AcDbEntity
  8
Graypants_Dish10v
370
    -3
100
AcDbVertex
100
AcDb2dVertex
 10
58.69537483305773
 20
-22.34394429928252
 30
0.0
  0
VERTEX
  5
2E7
330
284
100
AcDbEntity
  8
Graypants_Dish10v
370
    -3
100
AcDbVertex
100
AcDb2dVertex
 10
55.1824933019231
 20
-22.96654890390761
 30
0.0
  0
VERTEX
  5
2E8
330
284
100
AcDbEntity
  8
Graypants_Dish10v
370
    -3
100
AcDbVertex
100
AcDb2dVertex
 10
51.66301385320979
 20
-23.55070432464044
 30
0.0
  0
VERTEX
  5
2E9
330
284
100
AcDbEntity
  8
Graypants_Dish10v
370
    -3
100
AcDbVertex
100
AcDb2dVertex
 10
48.13735730789809
 20
-24.09634071454476
 30
0.0
  0
VERTEX
  5
2EA
330
284
100
AcDbEntity
  8
Graypants_Dish10v
370
    -3
100
AcDbVertex
100
AcDb2dVertex
 10
44.60594522555822
 20
-24.60339283236997
 30
0.0
  0
VERTEX
  5
2EB
330
284
100
AcDbEntity
  8
Graypants_Dish10v
370
    -3
100
AcDbVertex
100
AcDb2dVertex
 10
41.06919985394475
 20
-25.07180005035211
 30
0.0
  0
VERTEX
  5
2EC
330
284
100
AcDbEntity
  8
Graypants_Dish10v
370
    -3
100
AcDbVertex
100
AcDb2dVertex
 10
37.52754407850887
 20
-25.50150636146303
 30
0.0
  0
VERTEX
  5
2ED
330
284
100
AcDbEntity
  8
Graypants_Dish10v
370
    -3
100
AcDbVertex
100
AcDb2dVertex
 10
33.98140137183425
 20
-25.892460386107
 30
0.0
  0
VERTEX
  5
2EE
330
284
100
AcDbEntity
  8
Graypants_Dish10v
370
    -3
100
AcDbVertex
100
AcDb2dVertex
 10
30.43119574300292
 20
-26.24461537826437
 30
0.0
  0
VERTEX
  5
2EF
330
284
100
AcDbEntity
  8
Graypants_Dish10v
370
    -3
100
AcDbVertex
100
AcDb2dVertex
 10
26.87735168689682
 20
-26.55792923108052
 30
0.0
  0
VERTEX
  5
2F0
330
284
100
AcDbEntity
  8
Graypants_Dish10v
370
    -3
100
AcDbVertex
100
AcDb2dVertex
 10
23.32029413344143
 20
-26.83236448190096
 30
0.0
  0
VERTEX
  5
2F1
330
284
100
AcDbEntity
  8
Graypants_Dish10v
370
    -3
100
AcDbVertex
100
AcDb2dVertex
 10
19.7604483967971
 20
-27.06788831675045
 30
0.0
  0
VERTEX
  5
2F2
330
284
100
AcDbEntity
  8
Graypants_Dish10v
370
    -3
100
AcDbVertex
100
AcDb2dVertex
 10
16.19824012450482
 20
-27.26447257425682
 30
0.0
  0
VERTEX
  5
2F3
330
284
100
AcDbEntity
  8
Graypants_Dish10v
370
    -3
100
AcDbVertex
100
AcDb2dVertex
 10
12.63409524659172
 20
-27.42209374901766
 30
0.0
  0
VERTEX
  5
2F4
330
284
100
AcDbEntity
  8
Graypants_Dish10v
370
    -3
100
AcDbVertex
100
AcDb2dVertex
 10
9.068439924643274
 20
-27.54073299441165
 30
0.0
  0
VERTEX
  5
2F5
330
284
100
AcDbEntity
  8
Graypants_Dish10v
370
    -3
100
AcDbVertex
100
AcDb2dVertex
 10
5.501700500847249
 20
-27.62037612485119
 30
0.0
  0
VERTEX
  5
2F6
330
284
100
AcDbEntity
  8
Graypants_Dish10v
370
    -3
100
AcDbVertex
100
AcDb2dVertex
 10
-5.498299499152665
 20
-27.62037612485126
 30
0.0
  0
VERTEX
  5
2F7
330
284
100
AcDbEntity
  8
Graypants_Dish10v
370
    -3
100
AcDbVertex
100
AcDb2dVertex
 10
-9.065038922948702
 20
-27.54073299441169
 30
0.0
  0
VERTEX
  5
2F8
330
284
100
AcDbEntity
  8
Graypants_Dish10v
370
    -3
100
AcDbVertex
100
AcDb2dVertex
 10
-12.63069424489717
 20
-27.4220937490178
 30
0.0
  0
VERTEX
  5
2F9
330
284
100
AcDbEntity
  8
Graypants_Dish10v
370
    -3
100
AcDbVertex
100
AcDb2dVertex
 10
-16.19483912281024
 20
-27.26447257425682
 30
0.0
  0
VERTEX
  5
2FA
330
284
100
AcDbEntity
  8
Graypants_Dish10v
370
    -3
100
AcDbVertex
100
AcDb2dVertex
 10
-19.7570473951025
 20
-27.06788831675048
 30
0.0
  0
VERTEX
  5
2FB
330
284
100
AcDbEntity
  8
Graypants_Dish10v
370
    -3
100
AcDbVertex
100
AcDb2dVertex
 10
-23.31689313174681
 20
-26.83236448190102
 30
0.0
  0
VERTEX
  5
2FC
330
284
100
AcDbEntity
  8
Graypants_Dish10v
370
    -3
100
AcDbVertex
100
AcDb2dVertex
 10
-26.8739506852022
 20
-26.55792923108056
 30
0.0
  0
VERTEX
  5
2FD
330
284
100
AcDbEntity
  8
Graypants_Dish10v
370
    -3
100
AcDbVertex
100
AcDb2dVertex
 10
-30.42779474130829
 20
-26.2446153782644
 30
0.0
  0
VERTEX
  5
2FE
330
284
100
AcDbEntity
  8
Graypants_Dish10v
370
    -3
100
AcDbVertex
100
AcDb2dVertex
 10
-33.97800037013964
 20
-25.89246038610708
 30
0.0
  0
VERTEX
  5
2FF
330
284
100
AcDbEntity
  8
Graypants_Dish10v
370
    -3
100
AcDbVertex
100
AcDb2dVertex
 10
-37.52414307681424
 20
-25.501506361463
 30
0.0
  0
VERTEX
  5
300
330
284
100
AcDbEntity
  8
Graypants_Dish10v
370
    -3
100
AcDbVertex
100
AcDb2dVertex
 10
-41.06579885225015
 20
-25.07180005035215
 30
0.0
  0
VERTEX
  5
301
330
284
100
AcDbEntity
  8
Graypants_Dish10v
370
    -3
100
AcDbVertex
100
AcDb2dVertex
 10
-44.60254422386362
 20
-24.60339283236995
 30
0.0
  0
VERTEX
  5
302
330
284
100
AcDbEntity
  8
Graypants_Dish10v
370
    -3
100
AcDbVertex
100
AcDb2dVertex
 10
-48.13395630620344
 20
-24.09634071454471
 30
0.0
  0
VERTEX
  5
303
330
284
100
AcDbEntity
  8
Graypants_Dish10v
370
    -3
100
AcDbVertex
100
AcDb2dVertex
 10
-51.65961285151512
 20
-23.55070432464046
 30
0.0
  0
VERTEX
  5
304
330
284
100
AcDbEntity
  8
Graypants_Dish10v
370
    -3
100
AcDbVertex
100
AcDb2dVertex
 10
-55.17909230022845
 20
-22.96654890390757
 30
0.0
  0
VERTEX
  5
305
330
284
100
AcDbEntity
  8
Graypants_Dish10v
370
    -3
100
AcDbVertex
100
AcDb2dVertex
 10
-58.69197383136308
 20
-22.34394429928251
 30
0.0
  0
VERTEX
  5
306
330
284
100
AcDbEntity
  8
Graypants_Dish10v
370
    -3
100
AcDbVertex
100
AcDb2dVertex
 10
-62.19783741284567
 20
-21.68296495503567
 30
0.0
  0
VERTEX
  5
307
330
284
100
AcDbEntity
  8
Graypants_Dish10v
370
    -3
100
AcDbVertex
100
AcDb2dVertex
 10
-65.6962638517329
 20
-20.98368990387055
 30
0.0
  0
VERTEX
  5
308
330
284
100
AcDbEntity
  8
Graypants_Dish10v
370
    -3
100
AcDbVertex
100
AcDb2dVertex
 10
-69.18683484433373
 20
-20.24620275747376
 30
0.0
  0
VERTEX
  5
309
330
284
100
AcDbEntity
  8
Graypants_Dish10v
370
    -3
100
AcDbVertex
100
AcDb2dVertex
 10
-72.66913302622586
 20
-19.47059169651757
 30
0.0
  0
VERTEX
  5
30A
330
284
100
AcDbEntity
  8
Graypants_Dish10v
370
    -3
100
AcDbVertex
100
AcDb2dVertex
 10
-76.14274202215947
 20
-18.65694946011626
 30
0.0
  0
VERTEX
  5
30B
330
284
100
AcDbEntity
  8
Graypants_Dish10v
370
    -3
100
AcDbVertex
100
AcDb2dVertex
 10
-79.60724649584286
 20
-17.80537333473757
 30
0.0
  0
VERTEX
  5
30C
330
284
100
AcDbEntity
  8
Graypants_Dish10v
370
    -3
100
AcDbVertex
100
AcDb2dVertex
 10
-83.06223219960371
 20
-16.91596514256997
 30
0.0
  0
VERTEX
  5
30D
330
284
100
AcDbEntity
  8
Graypants_Dish10v
370
    -3
100
AcDbVertex
100
AcDb2dVertex
 10
-86.5072860239207
 20
-15.98883122934819
 30
0.0
  0
VERTEX
  5
30E
330
284
100
AcDbEntity
  8
Graypants_Dish10v
370
    -3
100
AcDbVertex
100
AcDb2dVertex
 10
-89.94199604681809
 20
-15.024082451637
 30
0.0
  0
VERTEX
  5
30F
330
284
100
AcDbEntity
  8
Graypants_Dish10v
370
    -3
100
AcDbVertex
100
AcDb2dVertex
 10
-93.36595158311931
 20
-14.02183416357695
 30
0.0
  0
VERTEX
  5
310
330
284
100
AcDbEntity
  8
Graypants_Dish10v
370
    -3
100
AcDbVertex
100
AcDb2dVertex
 10
-96.77874323355195
 20
-12.98220620309093
 30
0.0
  0
VERTEX
  5
311
330
284
100
AcDbEntity
  8
Graypants_Dish10v
370
    -3
100
AcDbVertex
100
AcDb2dVertex
 10
-100.1799629336994
 20
-11.90532287755574
 30
0.0
  0
VERTEX
  5
312
330
284
100
AcDbEntity
  8
Graypants_Dish10v
370
    -3
100
AcDbVertex
100
AcDb2dVertex
 10
-103.5692040027927
 20
-10.79131294893831
 30
0.0
  0
VERTEX
  5
313
330
284
100
AcDbEntity
  8
Graypants_Dish10v
370
    -3
100
AcDbVertex
100
AcDb2dVertex
 10
-106.946061192337
 20
-9.640309618400172
 30
0.0
  0
VERTEX
  5
314
330
284
100
AcDbEntity
  8
Graypants_Dish10v
370
    -3
100
AcDbVertex
100
AcDb2dVertex
 10
-110.3101307345667
 20
-8.45245051037042
 30
0.0
  0
VERTEX
  5
315
330
284
100
AcDbEntity
  8
Graypants_Dish10v
370
    -3
100
AcDbVertex
100
AcDb2dVertex
 10
-113.6610103907237
 20
-7.227877656090056
 30
0.0
  0
VERTEX
  5
316
330
284
100
AcDbEntity
  8
Graypants_Dish10v
370
    -3
100
AcDbVertex
100
AcDb2dVertex
 10
-116.9982994991526
 20
-5.966737476629987
 30
0.0
  0
VERTEX
  5
317
330
284
100
AcDbEntity
  8
Graypants_Dish10v
370
    -3
100
AcDbVertex
100
AcDb2dVertex
 10
-117.0144077172032
 20
-5.960226046178028
 30
0.0
  0
VERTEX
  5
318
330
284
100
AcDbEntity
  8
Graypants_Dish10v
370
    -3
100
AcDbVertex
100
AcDb2dVertex
 10
-117.0302799783638
 20
-5.953158886851925
 30
0.0
  0
VERTEX
  5
319
330
284
100
AcDbEntity
  8
Graypants_Dish10v
370
    -3
100
AcDbVertex
100
AcDb2dVertex
 10
-117.0458971169799
 20
-5.945544532201735
 30
0.0
  0
VERTEX
  5
31A
330
284
100
AcDbEntity
  8
Graypants_Dish10v
370
    -3
100
AcDbVertex
100
AcDb2dVertex
 10
-117.0612402754555
 20
-5.937392176512456
 30
0.0
  0
VERTEX
  5
31B
330
284
100
AcDbEntity
  8
Graypants_Dish10v
370
    -3
100
AcDbVertex
100
AcDb2dVertex
 10
-117.076290927024
 20
-5.928711663701866
 30
0.0
  0
VERTEX
  5
31C
330
284
100
AcDbEntity
  8
Graypants_Dish10v
370
    -3
100
AcDbVertex
100
AcDb2dVertex
 10
-117.0910308981192
 20
-5.919513475434184
 30
0.0
  0
VERTEX
  5
31D
330
284
100
AcDbEntity
  8
Graypants_Dish10v
370
    -3
100
AcDbVertex
100
AcDb2dVertex
 10
-117.1054423903192
 20
-5.909808718463469
 30
0.0
  0
VERTEX
  5
31E
330
284
100
AcDbEntity
  8
Graypants_Dish10v
370
    -3
100
AcDbVertex
100
AcDb2dVertex
 10
-117.1195080018387
 20
-5.899609111222205
 30
0.0
  0
VERTEX
  5
31F
330
284
100
AcDbEntity
  8
Graypants_Dish10v
370
    -3
100
AcDbVertex
100
AcDb2dVertex
 10
-117.1332107485408
 20
-5.888926969671509
 30
0.0
  0
VERTEX
  5
320
330
284
100
AcDbEntity
  8
Graypants_Dish10v
370
    -3
100
AcDbVertex
100
AcDb2dVertex
 10
-117.1465340844459
 20
-5.877775192429542
 30
0.0
  0
VERTEX
  5
321
330
284
100
AcDbEntity
  8
Graypants_Dish10v
370
    -3
100
AcDbVertex
100
AcDb2dVertex
 10
-117.1594619217102
 20
-5.866167245196668
 30
0.0
  0
VERTEX
  5
322
330
284
100
AcDbEntity
  8
Graypants_Dish10v
370
    -3
100
AcDbVertex
100
AcDb2dVertex
 10
-117.1719786500522
 20
-5.85411714449563
 30
0.0
  0
VERTEX
  5
323
330
284
100
AcDbEntity
  8
Graypants_Dish10v
370
    -3
100
AcDbVertex
100
AcDb2dVertex
 10
-117.1840691556017
 20
-5.841639440746582
 30
0.0
  0
VERTEX
  5
324
330
284
100
AcDbEntity
  8
Graypants_Dish10v
370
    -3
100
AcDbVertex
100
AcDb2dVertex
 10
-117.19571883915
 20
-5.828749200697748
 30
0.0
  0
VERTEX
  5
325
330
284
100
AcDbEntity
  8
Graypants_Dish10v
370
    -3
100
AcDbVertex
100
AcDb2dVertex
 10
-117.206913633778
 20
-5.815461989232214
 30
0.0
  0
VERTEX
  5
326
330
284
100
AcDbEntity
  8
Graypants_Dish10v
370
    -3
100
AcDbVertex
100
AcDb2dVertex
 10
-117.2176400218422
 20
-5.801793850573641
 30
0.0
  0
VERTEX
  5
327
330
284
100
AcDbEntity
  8
Graypants_Dish10v
370
    -3
100
AcDbVertex
100
AcDb2dVertex
 10
-117.227885051297
 20
-5.787761288912866
 30
0.0
  0
VERTEX
  5
328
330
284
100
AcDbEntity
  8
Graypants_Dish10v
370
    -3
100
AcDbVertex
100
AcDb2dVertex
 10
-117.2376363513342
 20
-5.773381248479076
 30
0.0
  0
VERTEX
  5
329
330
284
100
AcDbEntity
  8
Graypants_Dish10v
370
    -3
100
AcDbVertex
100
AcDb2dVertex
 10
-117.2468821473208
 20
-5.758671093079989
 30
0.0
  0
VERTEX
  5
32A
330
284
100
AcDbEntity
  8
Graypants_Dish10v
370
    -3
100
AcDbVertex
100
AcDb2dVertex
 10
-117.2556112750169
 20
-5.743648585134931
 30
0.0
  0
VERTEX
  5
32B
330
284
100
AcDbEntity
  8
Graypants_Dish10v
370
    -3
100
AcDbVertex
100
AcDb2dVertex
 10
-117.263813194056
 20
-5.728331864227069
 30
0.0
  0
VERTEX
  5
32C
330
284
100
AcDbEntity
  8
Graypants_Dish10v
370
    -3
100
AcDbVertex
100
AcDb2dVertex
 10
-117.2714780006729
 20
-5.712739425199861
 30
0.0
  0
VERTEX
  5
32D
330
284
100
AcDbEntity
  8
Graypants_Dish10v
370
    -3
100
AcDbVertex
100
AcDb2dVertex
 10
-117.2785964396622
 20
-5.696890095824517
 30
0.0
  0
VERTEX
  5
32E
330
284
100
AcDbEntity
  8
Graypants_Dish10v
370
    -3
100
AcDbVertex
100
AcDb2dVertex
 10
-117.285159915554
 20
-5.680803014065819
 30
0.0
  0
VERTEX
  5
32F
330
284
100
AcDbEntity
  8
Graypants_Dish10v
370
    -3
100
AcDbVertex
100
AcDb2dVertex
 10
-117.2911605029927
 20
-5.664497604973016
 30
0.0
  0
VERTEX
  5
330
330
284
100
AcDbEntity
  8
Graypants_Dish10v
370
    -3
100
AcDbVertex
100
AcDb2dVertex
 10
-117.2965909563069
 20
-5.647993557224202
 30
0.0
  0
VERTEX
  5
331
330
284
100
AcDbEntity
  8
Graypants_Dish10v
370
    -3
100
AcDbVertex
100
AcDb2dVertex
 10
-117.3014447182589
 20
-5.631310799352502
 30
0.0
  0
VERTEX
  5
332
330
284
100
AcDbEntity
  8
Graypants_Dish10v
370
    -3
100
AcDbVertex
100
AcDb2dVertex
 10
-117.3057159279617
 20
-5.614469475682212
 30
0.0
  0
VERTEX
  5
333
330
284
100
AcDbEntity
  8
Graypants_Dish10v
370
    -3
100
AcDbVertex
100
AcDb2dVertex
 10
-117.3093994279567
 20
-5.59748992200494
 30
0.0
  0
VERTEX
  5
334
330
284
100
AcDbEntity
  8
Graypants_Dish10v
370
    -3
100
AcDbVertex
100
AcDb2dVertex
 10
-117.3124907704411
 20
-5.58039264102412
 30
0.0
  0
VERTEX
  5
335
330
284
100
AcDbEntity
  8
Graypants_Dish10v
370
    -3
100
AcDbVertex
100
AcDb2dVertex
 10
-117.3149862226383
 20
-5.56319827759813
 30
0.0
  0
VERTEX
  5
336
330
284
100
AcDbEntity
  8
Graypants_Dish10v
370
    -3
100
AcDbVertex
100
AcDb2dVertex
 10
-117.3168827713057
 20
-5.5459275938119
 30
0.0
  0
VERTEX
  5
337
330
284
100
AcDbEntity
  8
Graypants_Dish10v
370
    -3
100
AcDbVertex
100
AcDb2dVertex
 10
-117.3181781263728
 20
-5.528601443906541
 30
0.0
  0
VERTEX
  5
338
330
284
100
AcDbEntity
  8
Graypants_Dish10v
370
    -3
100
AcDbVertex
100
AcDb2dVertex
 10
-117.3188707237065
 20
-5.511240749098265
 30
0.0
  0
VERTEX
  5
339
330
284
100
AcDbEntity
  8
Graypants_Dish10v
370
    -3
100
AcDbVertex
100
AcDb2dVertex
 10
-117.318959727
 20
-5.493866472316006
 30
0.0
  0
VERTEX
  5
33A
330
284
100
AcDbEntity
  8
Graypants_Dish10v
370
    -3
100
AcDbVertex
100
AcDb2dVertex
 10
-117.3184450287823
 20
-5.476499592888819
 30
0.0
  0
VERTEX
  5
33B
330
284
100
AcDbEntity
  8
Graypants_Dish10v
370
    -3
100
AcDbVertex
100
AcDb2dVertex
 10
-117.3173272505483
 20
-5.459161081213611
 30
0.0
  0
VERTEX
  5
33C
330
284
100
AcDbEntity
  8
Graypants_Dish10v
370
    -3
100
AcDbVertex
100
AcDb2dVertex
 10
-117.3156077420081
 20
-5.441871873433239
 30
0.0
  0
VERTEX
  5
33D
330
284
100
AcDbEntity
  8
Graypants_Dish10v
370
    -3
100
AcDbVertex
100
AcDb2dVertex
 10
-117.3132885794573
 20
-5.424652846156531
 30
0.0
  0
VERTEX
  5
33E
330
284
100
AcDbEntity
  8
Graypants_Dish10v
370
    -3
100
AcDbVertex
100
AcDb2dVertex
 10
-117.3103725632701
 20
-5.407524791249776
 30
0.0
  0
VERTEX
  5
33F
330
284
100
AcDbEntity
  8
Graypants_Dish10v
370
    -3
100
AcDbVertex
100
AcDb2dVertex
 10
-117.3068632145176
 20
-5.390508390730704
 30
0.0
  0
VERTEX
  5
340
330
284
100
AcDbEntity
  8
Graypants_Dish10v
370
    -3
100
AcDbVertex
100
AcDb2dVertex
 10
-117.302764770716
 20
-5.373624191795076
 30
0.0
  0
VERTEX
  5
341
330
284
100
AcDbEntity
  8
Graypants_Dish10v
370
    -3
100
AcDbVertex
100
AcDb2dVertex
 10
-117.2980821807102
 20
-5.356892582006083
 30
0.0
  0
VERTEX
  5
342
330
284
100
AcDbEntity
  8
Graypants_Dish10v
370
    -3
100
AcDbVertex
100
AcDb2dVertex
 10
-117.2928210986982
 20
-5.340333764676482
 30
0.0
  0
VERTEX
  5
343
330
284
100
AcDbEntity
  8
Graypants_Dish10v
370
    -3
100
AcDbVertex
100
AcDb2dVertex
 10
-117.2869878774029
 20
-5.323967734473239
 30
0.0
  0
VERTEX
  5
344
330
284
100
AcDbEntity
  8
Graypants_Dish10v
370
    -3
100
AcDbVertex
100
AcDb2dVertex
 10
-117.2805895604022
 20
-5.307814253274081
 30
0.0
  0
VERTEX
  5
345
330
284
100
AcDbEntity
  8
Graypants_Dish10v
370
    -3
100
AcDbVertex
100
AcDb2dVertex
 10
-117.2736338736233
 20
-5.291892826305163
 30
0.0
  0
VERTEX
  5
346
330
284
100
AcDbEntity
  8
Graypants_Dish10v
370
    -3
100
AcDbVertex
100
AcDb2dVertex
 10
-117.2661292160139
 20
-5.276222678588625
 30
0.0
  0
VERTEX
  5
347
330
284
100
AcDbEntity
  8
Graypants_Dish10v
370
    -3
100
AcDbVertex
100
AcDb2dVertex
 10
-117.2580846494005
 20
-5.260822731728506
 30
0.0
  0
VERTEX
  5
348
330
284
100
AcDbEntity
  8
Graypants_Dish10v
370
    -3
100
AcDbVertex
100
AcDb2dVertex
 10
-117.2495098875462
 20
-5.245711581063022
 30
0.0
  0
VERTEX
  5
349
330
284
100
AcDbEntity
  8
Graypants_Dish10v
370
    -3
100
AcDbVertex
100
AcDb2dVertex
 10
-117.2404152844216
 20
-5.230907473210813
 30
0.0
  0
VERTEX
  5
34A
330
284
100
AcDbEntity
  8
Graypants_Dish10v
370
    -3
100
AcDbVertex
100
AcDb2dVertex
 10
-117.2308118217025
 20
-5.216428284038271
 30
0.0
  0
VERTEX
  5
34B
330
284
100
AcDbEntity
  8
Graypants_Dish10v
370
    -3
100
AcDbVertex
100
AcDb2dVertex
 10
-117.220711095509
 20
-5.20229149707454
 30
0.0
  0
VERTEX
  5
34C
330
284
100
AcDbEntity
  8
Graypants_Dish10v
370
    -3
100
AcDbVertex
100
AcDb2dVertex
 10
-117.2101253024042
 20
-5.188514182400271
 30
0.0
  0
VERTEX
  5
34D
330
284
100
AcDbEntity
  8
Graypants_Dish10v
370
    -3
100
AcDbVertex
100
AcDb2dVertex
 10
-117.199067224666
 20
-5.175112976035596
 30
0.0
  0
VERTEX
  5
34E
330
284
100
AcDbEntity
  8
Graypants_Dish10v
370
    -3
100
AcDbVertex
100
AcDb2dVertex
 10
-117.1875502148532
 20
-5.162104059852256
 30
0.0
  0
VERTEX
  5
34F
330
284
100
AcDbEntity
  8
Graypants_Dish10v
370
    -3
100
AcDbVertex
100
AcDb2dVertex
 10
-117.1755881796822
 20
-5.14950314203408
 30
0.0
  0
VERTEX
  5
350
330
284
100
AcDbEntity
  8
Graypants_Dish10v
370
    -3
100
AcDbVertex
100
AcDb2dVertex
 10
-117.1631955632346
 20
-5.137325438109459
 30
0.0
  0
VERTEX
  5
351
330
284
100
AcDbEntity
  8
Graypants_Dish10v
370
    -3
100
AcDbVertex
100
AcDb2dVertex
 10
-117.1503873295162
 20
-5.12558565257869
 30
0.0
  0
VERTEX
  5
352
330
284
100
AcDbEntity
  8
Graypants_Dish10v
370
    -3
100
AcDbVertex
100
AcDb2dVertex
 10
-117.1371789443881
 20
-5.114297961158383
 30
0.0
  0
VERTEX
  5
353
330
284
100
AcDbEntity
  8
Graypants_Dish10v
370
    -3
100
AcDbVertex
100
AcDb2dVertex
 10
-117.1235863568916
 20
-5.103475993664378
 30
0.0
  0
VERTEX
  5
354
330
284
100
AcDbEntity
  8
Graypants_Dish10v
370
    -3
100
AcDbVertex
100
AcDb2dVertex
 10
-117.1096259799898
 20
-5.093132817553825
 30
0.0
  0
VERTEX
  5
355
330
284
100
AcDbEntity
  8
Graypants_Dish10v
370
    -3
100
AcDbVertex
100
AcDb2dVertex
 10
-117.0953146707495
 20
-5.083280922146316
 30
0.0
  0
VERTEX
  5
356
330
284
100
AcDbEntity
  8
Graypants_Dish10v
370
    -3
100
AcDbVertex
100
AcDb2dVertex
 10
-117.0806697099858
 20
-5.073932203543105
 30
0.0
  0
VERTEX
  5
357
330
284
100
AcDbEntity
  8
Graypants_Dish10v
370
    -3
100
AcDbVertex
100
AcDb2dVertex
 10
-117.065708781396
 20
-5.065097950262644
 30
0.0
  0
VERTEX
  5
358
330
284
100
AcDbEntity
  8
Graypants_Dish10v
370
    -3
100
AcDbVertex
100
AcDb2dVertex
 10
-117.0504499502065
 20
-5.056788829609773
 30
0.0
  0
VERTEX
  5
359
330
284
100
AcDbEntity
  8
Graypants_Dish10v
370
    -3
100
AcDbVertex
100
AcDb2dVertex
 10
-117.0349116413593
 20
-5.049014874795008
 30
0.0
  0
VERTEX
  5
35A
330
284
100
AcDbEntity
  8
Graypants_Dish10v
370
    -3
100
AcDbVertex
100
AcDb2dVertex
 10
-117.0191126172638
 20
-5.041785472819511
 30
0.0
  0
VERTEX
  5
35B
330
284
100
AcDbEntity
  8
Graypants_Dish10v
370
    -3
100
AcDbVertex
100
AcDb2dVertex
 10
-117.0030719551415
 20
-5.03510935314034
 30
0.0
  0
VERTEX
  5
35C
330
284
100
AcDbEntity
  8
Graypants_Dish10v
370
    -3
100
AcDbVertex
100
AcDb2dVertex
 10
-116.9868090239902
 20
-5.028994577129692
 30
0.0
  0
VERTEX
  5
35D
330
284
100
AcDbEntity
  8
Graypants_Dish10v
370
    -3
100
AcDbVertex
100
AcDb2dVertex
 10
-116.9703434611961
 20
-5.023448528340836
 30
0.0
  0
VERTEX
  5
35E
330
284
100
AcDbEntity
  8
Graypants_Dish10v
370
    -3
100
AcDbVertex
100
AcDb2dVertex
 10
-116.9536951488221
 20
-5.018477903592531
 30
0.0
  0
VERTEX
  5
35F
330
284
100
AcDbEntity
  8
Graypants_Dish10v
370
    -3
100
AcDbVertex
100
AcDb2dVertex
 10
-116.9368841895997
 20
-5.014088704882653
 30
0.0
  0
VERTEX
  5
360
330
284
100
AcDbEntity
  8
Graypants_Dish10v
370
    -3
100
AcDbVertex
100
AcDb2dVertex
 10
-116.9199308826556
 20
-5.010286232140819
 30
0.0
  0
VERTEX
  5
361
330
284
100
AcDbEntity
  8
Graypants_Dish10v
370
    -3
100
AcDbVertex
100
AcDb2dVertex
 10
-116.9028556990005
 20
-5.007075076828765
 30
0.0
  0
VERTEX
  5
362
330
284
100
AcDbEntity
  8
Graypants_Dish10v
370
    -3
100
AcDbVertex
100
AcDb2dVertex
 10
-116.8856792568104
 20
-5.004459116396173
 30
0.0
  0
VERTEX
  5
363
330
284
100
AcDbEntity
  8
Graypants_Dish10v
370
    -3
100
AcDbVertex
100
AcDb2dVertex
 10
-116.8684222965305
 20
-5.002441509598685
 30
0.0
  0
VERTEX
  5
364
330
284
100
AcDbEntity
  8
Graypants_Dish10v
370
    -3
100
AcDbVertex
100
AcDb2dVertex
 10
-116.8511056558308
 20
-5.001024692683719
 30
0.0
  0
VERTEX
  5
365
330
284
100
AcDbEntity
  8
Graypants_Dish10v
370
    -3
100
AcDbVertex
100
AcDb2dVertex
 10
-116.8337502444453
 20
-5.000210376448718
 30
0.0
  0
VERTEX
  5
366
330
284
100
AcDbEntity
  8
Graypants_Dish10v
370
    -3
100
AcDbVertex
100
AcDb2dVertex
 10
-116.816377018923
 20
-4.999999544175374
 30
0.0
  0
SEQEND
  5
367
330
284
100
AcDbEntity
  8
Graypants_Dish10v
370
    -3
  0
POLYLINE
  5
368
330
1F
100
AcDbEntity
  8
Graypants_Dish10v
370
    -3
100
AcDb2dPolyline
 66
     1
 10
0.0
 20
0.0
 30
0.0
  0
VERTEX
  5
369
330
368
100
AcDbEntity
  8
Graypants_Dish10v
370
    -3
100
AcDbVertex
100
AcDb2dVertex
 10
-116.8163770189233
 20
5.000000455824519
 30
0.0
  0
VERTEX
  5
36A
330
368
100
AcDbEntity
  8
Graypants_Dish10v
370
    -3
100
AcDbVertex
100
AcDb2dVertex
 10
-116.8337502444455
 20
5.000211288097865
 30
0.0
  0
VERTEX
  5
36B
330
368
100
AcDbEntity
  8
Graypants_Dish10v
370
    -3
100
AcDbVertex
100
AcDb2dVertex
 10
-116.851105655831
 20
5.001025604332867
 30
0.0
  0
VERTEX
  5
36C
330
368
100
AcDbEntity
  8
Graypants_Dish10v
370
    -3
100
AcDbVertex
100
AcDb2dVertex
 10
-116.8684222965307
 20
5.002442421247834
 30
0.0
  0
VERTEX
  5
36D
330
368
100
AcDbEntity
  8
Graypants_Dish10v
370
    -3
100
AcDbVertex
100
AcDb2dVertex
 10
-116.8856792568107
 20
5.004460028045324
 30
0.0
  0
VERTEX
  5
36E
330
368
100
AcDbEntity
  8
Graypants_Dish10v
370
    -3
100
AcDbVertex
100
AcDb2dVertex
 10
-116.9028556990007
 20
5.007075988477917
 30
0.0
  0
VERTEX
  5
36F
330
368
100
AcDbEntity
  8
Graypants_Dish10v
370
    -3
100
AcDbVertex
100
AcDb2dVertex
 10
-116.9199308826558
 20
5.010287143789972
 30
0.0
  0
VERTEX
  5
370
330
368
100
AcDbEntity
  8
Graypants_Dish10v
370
    -3
100
AcDbVertex
100
AcDb2dVertex
 10
-116.9368841895999
 20
5.014089616531805
 30
0.0
  0
VERTEX
  5
371
330
368
100
AcDbEntity
  8
Graypants_Dish10v
370
    -3
100
AcDbVertex
100
AcDb2dVertex
 10
-116.9536951488223
 20
5.018478815241685
 30
0.0
  0
VERTEX
  5
372
330
368
100
AcDbEntity
  8
Graypants_Dish10v
370
    -3
100
AcDbVertex
100
AcDb2dVertex
 10
-116.9703434611964
 20
5.02344943998999
 30
0.0
  0
VERTEX
  5
373
330
368
100
AcDbEntity
  8
Graypants_Dish10v
370
    -3
100
AcDbVertex
100
AcDb2dVertex
 10
-116.9868090239904
 20
5.028995488778847
 30
0.0
  0
VERTEX
  5
374
330
368
100
AcDbEntity
  8
Graypants_Dish10v
370
    -3
100
AcDbVertex
100
AcDb2dVertex
 10
-117.0030719551417
 20
5.035110264789496
 30
0.0
  0
VERTEX
  5
375
330
368
100
AcDbEntity
  8
Graypants_Dish10v
370
    -3
100
AcDbVertex
100
AcDb2dVertex
 10
-117.019112617264
 20
5.041786384468666
 30
0.0
  0
VERTEX
  5
376
330
368
100
AcDbEntity
  8
Graypants_Dish10v
370
    -3
100
AcDbVertex
100
AcDb2dVertex
 10
-117.0349116413595
 20
5.049015786444163
 30
0.0
  0
VERTEX
  5
377
330
368
100
AcDbEntity
  8
Graypants_Dish10v
370
    -3
100
AcDbVertex
100
AcDb2dVertex
 10
-117.0504499502067
 20
5.056789741258928
 30
0.0
  0
VERTEX
  5
378
330
368
100
AcDbEntity
  8
Graypants_Dish10v
370
    -3
100
AcDbVertex
100
AcDb2dVertex
 10
-117.0657087813961
 20
5.0650988619118
 30
0.0
  0
VERTEX
  5
379
330
368
100
AcDbEntity
  8
Graypants_Dish10v
370
    -3
100
AcDbVertex
100
AcDb2dVertex
 10
-117.080669709986
 20
5.07393311519226
 30
0.0
  0
VERTEX
  5
37A
330
368
100
AcDbEntity
  8
Graypants_Dish10v
370
    -3
100
AcDbVertex
100
AcDb2dVertex
 10
-117.0953146707497
 20
5.08328183379547
 30
0.0
  0
VERTEX
  5
37B
330
368
100
AcDbEntity
  8
Graypants_Dish10v
370
    -3
100
AcDbVertex
100
AcDb2dVertex
 10
-117.10962597999
 20
5.09313372920298
 30
0.0
  0
VERTEX
  5
37C
330
368
100
AcDbEntity
  8
Graypants_Dish10v
370
    -3
100
AcDbVertex
100
AcDb2dVertex
 10
-117.1235863568917
 20
5.10347690531353
 30
0.0
  0
VERTEX
  5
37D
330
368
100
AcDbEntity
  8
Graypants_Dish10v
370
    -3
100
AcDbVertex
100
AcDb2dVertex
 10
-117.1371789443883
 20
5.114298872807534
 30
0.0
  0
VERTEX
  5
37E
330
368
100
AcDbEntity
  8
Graypants_Dish10v
370
    -3
100
AcDbVertex
100
AcDb2dVertex
 10
-117.1503873295164
 20
5.125586564227842
 30
0.0
  0
VERTEX
  5
37F
330
368
100
AcDbEntity
  8
Graypants_Dish10v
370
    -3
100
AcDbVertex
100
AcDb2dVertex
 10
-117.1631955632348
 20
5.13732634975861
 30
0.0
  0
VERTEX
  5
380
330
368
100
AcDbEntity
  8
Graypants_Dish10v
370
    -3
100
AcDbVertex
100
AcDb2dVertex
 10
-117.1755881796824
 20
5.149504053683231
 30
0.0
  0
VERTEX
  5
381
330
368
100
AcDbEntity
  8
Graypants_Dish10v
370
    -3
100
AcDbVertex
100
AcDb2dVertex
 10
-117.1875502148534
 20
5.162104971501405
 30
0.0
  0
VERTEX
  5
382
330
368
100
AcDbEntity
  8
Graypants_Dish10v
370
    -3
100
AcDbVertex
100
AcDb2dVertex
 10
-117.1990672246661
 20
5.175113887684744
 30
0.0
  0
VERTEX
  5
383
330
368
100
AcDbEntity
  8
Graypants_Dish10v
370
    -3
100
AcDbVertex
100
AcDb2dVertex
 10
-117.2101253024043
 20
5.188515094049417
 30
0.0
  0
VERTEX
  5
384
330
368
100
AcDbEntity
  8
Graypants_Dish10v
370
    -3
100
AcDbVertex
100
AcDb2dVertex
 10
-117.2207110955092
 20
5.202292408723687
 30
0.0
  0
VERTEX
  5
385
330
368
100
AcDbEntity
  8
Graypants_Dish10v
370
    -3
100
AcDbVertex
100
AcDb2dVertex
 10
-117.2308118217026
 20
5.216429195687415
 30
0.0
  0
VERTEX
  5
386
330
368
100
AcDbEntity
  8
Graypants_Dish10v
370
    -3
100
AcDbVertex
100
AcDb2dVertex
 10
-117.2404152844218
 20
5.230908384859956
 30
0.0
  0
VERTEX
  5
387
330
368
100
AcDbEntity
  8
Graypants_Dish10v
370
    -3
100
AcDbVertex
100
AcDb2dVertex
 10
-117.2495098875464
 20
5.245712492712164
 30
0.0
  0
VERTEX
  5
388
330
368
100
AcDbEntity
  8
Graypants_Dish10v
370
    -3
100
AcDbVertex
100
AcDb2dVertex
 10
-117.2580846494006
 20
5.260823643377647
 30
0.0
  0
VERTEX
  5
389
330
368
100
AcDbEntity
  8
Graypants_Dish10v
370
    -3
100
AcDbVertex
100
AcDb2dVertex
 10
-117.2661292160141
 20
5.276223590237763
 30
0.0
  0
VERTEX
  5
38A
330
368
100
AcDbEntity
  8
Graypants_Dish10v
370
    -3
100
AcDbVertex
100
AcDb2dVertex
 10
-117.2736338736235
 20
5.291893737954299
 30
0.0
  0
VERTEX
  5
38B
330
368
100
AcDbEntity
  8
Graypants_Dish10v
370
    -3
100
AcDbVertex
100
AcDb2dVertex
 10
-117.2805895604024
 20
5.307815164923216
 30
0.0
  0
VERTEX
  5
38C
330
368
100
AcDbEntity
  8
Graypants_Dish10v
370
    -3
100
AcDbVertex
100
AcDb2dVertex
 10
-117.2869878774031
 20
5.323968646122372
 30
0.0
  0
VERTEX
  5
38D
330
368
100
AcDbEntity
  8
Graypants_Dish10v
370
    -3
100
AcDbVertex
100
AcDb2dVertex
 10
-117.2928210986984
 20
5.340334676325615
 30
0.0
  0
VERTEX
  5
38E
330
368
100
AcDbEntity
  8
Graypants_Dish10v
370
    -3
100
AcDbVertex
100
AcDb2dVertex
 10
-117.2980821807104
 20
5.356893493655212
 30
0.0
  0
VERTEX
  5
38F
330
368
100
AcDbEntity
  8
Graypants_Dish10v
370
    -3
100
AcDbVertex
100
AcDb2dVertex
 10
-117.3027647707161
 20
5.373625103444206
 30
0.0
  0
VERTEX
  5
390
330
368
100
AcDbEntity
  8
Graypants_Dish10v
370
    -3
100
AcDbVertex
100
AcDb2dVertex
 10
-117.3068632145177
 20
5.390509302379831
 30
0.0
  0
VERTEX
  5
391
330
368
100
AcDbEntity
  8
Graypants_Dish10v
370
    -3
100
AcDbVertex
100
AcDb2dVertex
 10
-117.3103725632703
 20
5.407525702898901
 30
0.0
  0
VERTEX
  5
392
330
368
100
AcDbEntity
  8
Graypants_Dish10v
370
    -3
100
AcDbVertex
100
AcDb2dVertex
 10
-117.3132885794575
 20
5.424653757805654
 30
0.0
  0
VERTEX
  5
393
330
368
100
AcDbEntity
  8
Graypants_Dish10v
370
    -3
100
AcDbVertex
100
AcDb2dVertex
 10
-117.3156077420083
 20
5.441872785082359
 30
0.0
  0
VERTEX
  5
394
330
368
100
AcDbEntity
  8
Graypants_Dish10v
370
    -3
100
AcDbVertex
100
AcDb2dVertex
 10
-117.3173272505485
 20
5.45916199286273
 30
0.0
  0
VERTEX
  5
395
330
368
100
AcDbEntity
  8
Graypants_Dish10v
370
    -3
100
AcDbVertex
100
AcDb2dVertex
 10
-117.3184450287825
 20
5.476500504537966
 30
0.0
  0
VERTEX
  5
396
330
368
100
AcDbEntity
  8
Graypants_Dish10v
370
    -3
100
AcDbVertex
100
AcDb2dVertex
 10
-117.3189597270002
 20
5.493867383965123
 30
0.0
  0
VERTEX
  5
397
330
368
100
AcDbEntity
  8
Graypants_Dish10v
370
    -3
100
AcDbVertex
100
AcDb2dVertex
 10
-117.3188707237067
 20
5.51124166074738
 30
0.0
  0
VERTEX
  5
398
330
368
100
AcDbEntity
  8
Graypants_Dish10v
370
    -3
100
AcDbVertex
100
AcDb2dVertex
 10
-117.318178126373
 20
5.528602355555654
 30
0.0
  0
VERTEX
  5
399
330
368
100
AcDbEntity
  8
Graypants_Dish10v
370
    -3
100
AcDbVertex
100
AcDb2dVertex
 10
-117.3168827713059
 20
5.545928505461011
 30
0.0
  0
VERTEX
  5
39A
330
368
100
AcDbEntity
  8
Graypants_Dish10v
370
    -3
100
AcDbVertex
100
AcDb2dVertex
 10
-117.3149862226385
 20
5.563199189247268
 30
0.0
  0
VERTEX
  5
39B
330
368
100
AcDbEntity
  8
Graypants_Dish10v
370
    -3
100
AcDbVertex
100
AcDb2dVertex
 10
-117.3124907704413
 20
5.580393552673229
 30
0.0
  0
VERTEX
  5
39C
330
368
100
AcDbEntity
  8
Graypants_Dish10v
370
    -3
100
AcDbVertex
100
AcDb2dVertex
 10
-117.3093994279569
 20
5.597490833654048
 30
0.0
  0
VERTEX
  5
39D
330
368
100
AcDbEntity
  8
Graypants_Dish10v
370
    -3
100
AcDbVertex
100
AcDb2dVertex
 10
-117.3057159279619
 20
5.614470387331319
 30
0.0
  0
VERTEX
  5
39E
330
368
100
AcDbEntity
  8
Graypants_Dish10v
370
    -3
100
AcDbVertex
100
AcDb2dVertex
 10
-117.3014447182591
 20
5.631311711001606
 30
0.0
  0
VERTEX
  5
39F
330
368
100
AcDbEntity
  8
Graypants_Dish10v
370
    -3
100
AcDbVertex
100
AcDb2dVertex
 10
-117.2965909563071
 20
5.647994468873332
 30
0.0
  0
VERTEX
  5
3A0
330
368
100
AcDbEntity
  8
Graypants_Dish10v
370
    -3
100
AcDbVertex
100
AcDb2dVertex
 10
-117.2911605029929
 20
5.664498516622118
 30
0.0
  0
VERTEX
  5
3A1
330
368
100
AcDbEntity
  8
Graypants_Dish10v
370
    -3
100
AcDbVertex
100
AcDb2dVertex
 10
-117.2851599155542
 20
5.680803925714919
 30
0.0
  0
VERTEX
  5
3A2
330
368
100
AcDbEntity
  8
Graypants_Dish10v
370
    -3
100
AcDbVertex
100
AcDb2dVertex
 10
-117.2785964396624
 20
5.696891007473617
 30
0.0
  0
VERTEX
  5
3A3
330
368
100
AcDbEntity
  8
Graypants_Dish10v
370
    -3
100
AcDbVertex
100
AcDb2dVertex
 10
-117.2714780006731
 20
5.71274033684896
 30
0.0
  0
VERTEX
  5
3A4
330
368
100
AcDbEntity
  8
Graypants_Dish10v
370
    -3
100
AcDbVertex
100
AcDb2dVertex
 10
-117.2638131940562
 20
5.728332775876193
 30
0.0
  0
VERTEX
  5
3A5
330
368
100
AcDbEntity
  8
Graypants_Dish10v
370
    -3
100
AcDbVertex
100
AcDb2dVertex
 10
-117.2556112750171
 20
5.743649496784029
 30
0.0
  0
VERTEX
  5
3A6
330
368
100
AcDbEntity
  8
Graypants_Dish10v
370
    -3
100
AcDbVertex
100
AcDb2dVertex
 10
-117.246882147321
 20
5.758672004729061
 30
0.0
  0
VERTEX
  5
3A7
330
368
100
AcDbEntity
  8
Graypants_Dish10v
370
    -3
100
AcDbVertex
100
AcDb2dVertex
 10
-117.2376363513344
 20
5.773382160128172
 30
0.0
  0
VERTEX
  5
3A8
330
368
100
AcDbEntity
  8
Graypants_Dish10v
370
    -3
100
AcDbVertex
100
AcDb2dVertex
 10
-117.2278850512972
 20
5.787762200561962
 30
0.0
  0
VERTEX
  5
3A9
330
368
100
AcDbEntity
  8
Graypants_Dish10v
370
    -3
100
AcDbVertex
100
AcDb2dVertex
 10
-117.2176400218425
 20
5.80179476222276
 30
0.0
  0
VERTEX
  5
3AA
330
368
100
AcDbEntity
  8
Graypants_Dish10v
370
    -3
100
AcDbVertex
100
AcDb2dVertex
 10
-117.2069136337783
 20
5.81546290088131
 30
0.0
  0
VERTEX
  5
3AB
330
368
100
AcDbEntity
  8
Graypants_Dish10v
370
    -3
100
AcDbVertex
100
AcDb2dVertex
 10
-117.1957188391502
 20
5.828750112346823
 30
0.0
  0
VERTEX
  5
3AC
330
368
100
AcDbEntity
  8
Graypants_Dish10v
370
    -3
100
AcDbVertex
100
AcDb2dVertex
 10
-117.1840691556019
 20
5.841640352395677
 30
0.0
  0
VERTEX
  5
3AD
330
368
100
AcDbEntity
  8
Graypants_Dish10v
370
    -3
100
AcDbVertex
100
AcDb2dVertex
 10
-117.1719786500524
 20
5.854118056144726
 30
0.0
  0
VERTEX
  5
3AE
330
368
100
AcDbEntity
  8
Graypants_Dish10v
370
    -3
100
AcDbVertex
100
AcDb2dVertex
 10
-117.1594619217104
 20
5.866168156845784
 30
0.0
  0
VERTEX
  5
3AF
330
368
100
AcDbEntity
  8
Graypants_Dish10v
370
    -3
100
AcDbVertex
100
AcDb2dVertex
 10
-117.1465340844461
 20
5.877776104078639
 30
0.0
  0
VERTEX
  5
3B0
330
368
100
AcDbEntity
  8
Graypants_Dish10v
370
    -3
100
AcDbVertex
100
AcDb2dVertex
 10
-117.1332107485411
 20
5.88892788132059
 30
0.0
  0
VERTEX
  5
3B1
330
368
100
AcDbEntity
  8
Graypants_Dish10v
370
    -3
100
AcDbVertex
100
AcDb2dVertex
 10
-117.1195080018389
 20
5.899610022871302
 30
0.0
  0
VERTEX
  5
3B2
330
368
100
AcDbEntity
  8
Graypants_Dish10v
370
    -3
100
AcDbVertex
100
AcDb2dVertex
 10
-117.1054423903195
 20
5.909809630112569
 30
0.0
  0
VERTEX
  5
3B3
330
368
100
AcDbEntity
  8
Graypants_Dish10v
370
    -3
100
AcDbVertex
100
AcDb2dVertex
 10
-117.0910308981194
 20
5.919514387083298
 30
0.0
  0
VERTEX
  5
3B4
330
368
100
AcDbEntity
  8
Graypants_Dish10v
370
    -3
100
AcDbVertex
100
AcDb2dVertex
 10
-117.0762909270243
 20
5.928712575350967
 30
0.0
  0
VERTEX
  5
3B5
330
368
100
AcDbEntity
  8
Graypants_Dish10v
370
    -3
100
AcDbVertex
100
AcDb2dVertex
 10
-117.0612402754557
 20
5.937393088161545
 30
0.0
  0
VERTEX
  5
3B6
330
368
100
AcDbEntity
  8
Graypants_Dish10v
370
    -3
100
AcDbVertex
100
AcDb2dVertex
 10
-117.0458971169801
 20
5.945545443850839
 30
0.0
  0
VERTEX
  5
3B7
330
368
100
AcDbEntity
  8
Graypants_Dish10v
370
    -3
100
AcDbVertex
100
AcDb2dVertex
 10
-117.030279978364
 20
5.953159798501031
 30
0.0
  0
VERTEX
  5
3B8
330
368
100
AcDbEntity
  8
Graypants_Dish10v
370
    -3
100
AcDbVertex
100
AcDb2dVertex
 10
-117.0144077172034
 20
5.960226957827146
 30
0.0
  0
VERTEX
  5
3B9
330
368
100
AcDbEntity
  8
Graypants_Dish10v
370
    -3
100
AcDbVertex
100
AcDb2dVertex
 10
-116.9982994991529
 20
5.966738388279096
 30
0.0
  0
VERTEX
  5
3BA
330
368
100
AcDbEntity
  8
Graypants_Dish10v
370
    -3
100
AcDbVertex
100
AcDb2dVertex
 10
-113.6610103907239
 20
7.227878567739187
 30
0.0
  0
VERTEX
  5
3BB
330
368
100
AcDbEntity
  8
Graypants_Dish10v
370
    -3
100
AcDbVertex
100
AcDb2dVertex
 10
-110.3101307345669
 20
8.452451422019452
 30
0.0
  0
VERTEX
  5
3BC
330
368
100
AcDbEntity
  8
Graypants_Dish10v
370
    -3
100
AcDbVertex
100
AcDb2dVertex
 10
-106.9460611923372
 20
9.640310530049254
 30
0.0
  0
VERTEX
  5
3BD
330
368
100
AcDbEntity
  8
Graypants_Dish10v
370
    -3
100
AcDbVertex
100
AcDb2dVertex
 10
-103.5692040027929
 20
10.79131386058748
 30
0.0
  0
VERTEX
  5
3BE
330
368
100
AcDbEntity
  8
Graypants_Dish10v
370
    -3
100
AcDbVertex
100
AcDb2dVertex
 10
-100.1799629336996
 20
11.90532378920487
 30
0.0
  0
VERTEX
  5
3BF
330
368
100
AcDbEntity
  8
Graypants_Dish10v
370
    -3
100
AcDbVertex
100
AcDb2dVertex
 10
-96.77874323355218
 20
12.98220711474007
 30
0.0
  0
VERTEX
  5
3C0
330
368
100
AcDbEntity
  8
Graypants_Dish10v
370
    -3
100
AcDbVertex
100
AcDb2dVertex
 10
-93.36595158311953
 20
14.02183507522604
 30
0.0
  0
VERTEX
  5
3C1
330
368
100
AcDbEntity
  8
Graypants_Dish10v
370
    -3
100
AcDbVertex
100
AcDb2dVertex
 10
-89.94199604681835
 20
15.02408336328609
 30
0.0
  0
VERTEX
  5
3C2
330
368
100
AcDbEntity
  8
Graypants_Dish10v
370
    -3
100
AcDbVertex
100
AcDb2dVertex
 10
-86.50728602392094
 20
15.98883214099726
 30
0.0
  0
VERTEX
  5
3C3
330
368
100
AcDbEntity
  8
Graypants_Dish10v
370
    -3
100
AcDbVertex
100
AcDb2dVertex
 10
-83.06223219960398
 20
16.91596605421915
 30
0.0
  0
VERTEX
  5
3C4
330
368
100
AcDbEntity
  8
Graypants_Dish10v
370
    -3
100
AcDbVertex
100
AcDb2dVertex
 10
-79.60724649584309
 20
17.80537424638673
 30
0.0
  0
VERTEX
  5
3C5
330
368
100
AcDbEntity
  8
Graypants_Dish10v
370
    -3
100
AcDbVertex
100
AcDb2dVertex
 10
-76.14274202215974
 20
18.65695037176542
 30
0.0
  0
VERTEX
  5
3C6
330
368
100
AcDbEntity
  8
Graypants_Dish10v
370
    -3
100
AcDbVertex
100
AcDb2dVertex
 10
-72.66913302622613
 20
19.47059260816668
 30
0.0
  0
VERTEX
  5
3C7
330
368
100
AcDbEntity
  8
Graypants_Dish10v
370
    -3
100
AcDbVertex
100
AcDb2dVertex
 10
-69.18683484433399
 20
20.2462036691229
 30
0.0
  0
VERTEX
  5
3C8
330
368
100
AcDbEntity
  8
Graypants_Dish10v
370
    -3
100
AcDbVertex
100
AcDb2dVertex
 10
-65.69626385173314
 20
20.98369081551972
 30
0.0
  0
VERTEX
  5
3C9
330
368
100
AcDbEntity
  8
Graypants_Dish10v
370
    -3
100
AcDbVertex
100
AcDb2dVertex
 10
-62.19783741284594
 20
21.68296586668484
 30
0.0
  0
VERTEX
  5
3CA
330
368
100
AcDbEntity
  8
Graypants_Dish10v
370
    -3
100
AcDbVertex
100
AcDb2dVertex
 10
-58.69197383136334
 20
22.34394521093164
 30
0.0
  0
VERTEX
  5
3CB
330
368
100
AcDbEntity
  8
Graypants_Dish10v
370
    -3
100
AcDbVertex
100
AcDb2dVertex
 10
-55.17909230022874
 20
22.96654981555674
 30
0.0
  0
VERTEX
  5
3CC
330
368
100
AcDbEntity
  8
Graypants_Dish10v
370
    -3
100
AcDbVertex
100
AcDb2dVertex
 10
-51.65961285151542
 20
23.55070523628959
 30
0.0
  0
VERTEX
  5
3CD
330
368
100
AcDbEntity
  8
Graypants_Dish10v
370
    -3
100
AcDbVertex
100
AcDb2dVertex
 10
-48.13395630620374
 20
24.09634162619387
 30
0.0
  0
VERTEX
  5
3CE
330
368
100
AcDbEntity
  8
Graypants_Dish10v
370
    -3
100
AcDbVertex
100
AcDb2dVertex
 10
-44.60254422386387
 20
24.60339374401915
 30
0.0
  0
VERTEX
  5
3CF
330
368
100
AcDbEntity
  8
Graypants_Dish10v
370
    -3
100
AcDbVertex
100
AcDb2dVertex
 10
-41.06579885225043
 20
25.07180096200126
 30
0.0
  0
VERTEX
  5
3D0
330
368
100
AcDbEntity
  8
Graypants_Dish10v
370
    -3
100
AcDbVertex
100
AcDb2dVertex
 10
-37.52414307681452
 20
25.50150727311224
 30
0.0
  0
VERTEX
  5
3D1
330
368
100
AcDbEntity
  8
Graypants_Dish10v
370
    -3
100
AcDbVertex
100
AcDb2dVertex
 10
-33.97800037013991
 20
25.89246129775623
 30
0.0
  0
VERTEX
  5
3D2
330
368
100
AcDbEntity
  8
Graypants_Dish10v
370
    -3
100
AcDbVertex
100
AcDb2dVertex
 10
-30.42779474130859
 20
26.24461628991362
 30
0.0
  0
VERTEX
  5
3D3
330
368
100
AcDbEntity
  8
Graypants_Dish10v
370
    -3
100
AcDbVertex
100
AcDb2dVertex
 10
-26.87395068520252
 20
26.55793014272972
 30
0.0
  0
VERTEX
  5
3D4
330
368
100
AcDbEntity
  8
Graypants_Dish10v
370
    -3
100
AcDbVertex
100
AcDb2dVertex
 10
-23.31689313174712
 20
26.83236539355012
 30
0.0
  0
VERTEX
  5
3D5
330
368
100
AcDbEntity
  8
Graypants_Dish10v
370
    -3
100
AcDbVertex
100
AcDb2dVertex
 10
-19.75704739510282
 20
27.06788922839968
 30
0.0
  0
VERTEX
  5
3D6
330
368
100
AcDbEntity
  8
Graypants_Dish10v
370
    -3
100
AcDbVertex
100
AcDb2dVertex
 10
-16.1948391228105
 20
27.26447348590607
 30
0.0
  0
VERTEX
  5
3D7
330
368
100
AcDbEntity
  8
Graypants_Dish10v
370
    -3
100
AcDbVertex
100
AcDb2dVertex
 10
-12.63069424489745
 20
27.42209466066698
 30
0.0
  0
VERTEX
  5
3D8
330
368
100
AcDbEntity
  8
Graypants_Dish10v
370
    -3
100
AcDbVertex
100
AcDb2dVertex
 10
-9.065038922948983
 20
27.54073390606093
 30
0.0
  0
VERTEX
  5
3D9
330
368
100
AcDbEntity
  8
Graypants_Dish10v
370
    -3
100
AcDbVertex
100
AcDb2dVertex
 10
-5.498299499152978
 20
27.62037703650049
 30
0.0
  0
VERTEX
  5
3DA
330
368
100
AcDbEntity
  8
Graypants_Dish10v
370
    -3
100
AcDbVertex
100
AcDb2dVertex
 10
5.501700500846994
 20
27.6203770365005
 30
0.0
  0
VERTEX
  5
3DB
330
368
100
AcDbEntity
  8
Graypants_Dish10v
370
    -3
100
AcDbVertex
100
AcDb2dVertex
 10
9.068439924643016
 20
27.54073390606097
 30
0.0
  0
VERTEX
  5
3DC
330
368
100
AcDbEntity
  8
Graypants_Dish10v
370
    -3
100
AcDbVertex
100
AcDb2dVertex
 10
12.63409524659144
 20
27.42209466066698
 30
0.0
  0
VERTEX
  5
3DD
330
368
100
AcDbEntity
  8
Graypants_Dish10v
370
    -3
100
AcDbVertex
100
AcDb2dVertex
 10
16.19824012450452
 20
27.26447348590606
 30
0.0
  0
VERTEX
  5
3DE
330
368
100
AcDbEntity
  8
Graypants_Dish10v
370
    -3
100
AcDbVertex
100
AcDb2dVertex
 10
19.76044839679682
 20
27.0678892283997
 30
0.0
  0
VERTEX
  5
3DF
330
368
100
AcDbEntity
  8
Graypants_Dish10v
370
    -3
100
AcDbVertex
100
AcDb2dVertex
 10
23.32029413344114
 20
26.83236539355018
 30
0.0
  0
VERTEX
  5
3E0
330
368
100
AcDbEntity
  8
Graypants_Dish10v
370
    -3
100
AcDbVertex
100
AcDb2dVertex
 10
26.87735168689656
 20
26.55793014272972
 30
0.0
  0
VERTEX
  5
3E1
330
368
100
AcDbEntity
  8
Graypants_Dish10v
370
    -3
100
AcDbVertex
100
AcDb2dVertex
 10
30.43119574300262
 20
26.24461628991358
 30
0.0
  0
VERTEX
  5
3E2
330
368
100
AcDbEntity
  8
Graypants_Dish10v
370
    -3
100
AcDbVertex
100
AcDb2dVertex
 10
33.98140137183397
 20
25.89246129775632
 30
0.0
  0
VERTEX
  5
3E3
330
368
100
AcDbEntity
  8
Graypants_Dish10v
370
    -3
100
AcDbVertex
100
AcDb2dVertex
 10
37.52754407850857
 20
25.50150727311224
 30
0.0
  0
VERTEX
  5
3E4
330
368
100
AcDbEntity
  8
Graypants_Dish10v
370
    -3
100
AcDbVertex
100
AcDb2dVertex
 10
41.06919985394445
 20
25.07180096200128
 30
0.0
  0
VERTEX
  5
3E5
330
368
100
AcDbEntity
  8
Graypants_Dish10v
370
    -3
100
AcDbVertex
100
AcDb2dVertex
 10
44.60594522555795
 20
24.60339374401914
 30
0.0
  0
VERTEX
  5
3E6
330
368
100
AcDbEntity
  8
Graypants_Dish10v
370
    -3
100
AcDbVertex
100
AcDb2dVertex
 10
48.13735730789779
 20
24.09634162619389
 30
0.0
  0
VERTEX
  5
3E7
330
368
100
AcDbEntity
  8
Graypants_Dish10v
370
    -3
100
AcDbVertex
100
AcDb2dVertex
 10
51.66301385320946
 20
23.55070523628959
 30
0.0
  0
VERTEX
  5
3E8
330
368
100
AcDbEntity
  8
Graypants_Dish10v
370
    -3
100
AcDbVertex
100
AcDb2dVertex
 10
55.1824933019228
 20
22.96654981555675
 30
0.0
  0
VERTEX
  5
3E9
330
368
100
AcDbEntity
  8
Graypants_Dish10v
370
    -3
100
AcDbVertex
100
AcDb2dVertex
 10
58.69537483305741
 20
22.3439452109317
 30
0.0
  0
VERTEX
  5
3EA
330
368
100
AcDbEntity
  8
Graypants_Dish10v
370
    -3
100
AcDbVertex
100
AcDb2dVertex
 10
62.20123841454002
 20
21.68296586668486
 30
0.0
  0
VERTEX
  5
3EB
330
368
100
AcDbEntity
  8
Graypants_Dish10v
370
    -3
100
AcDbVertex
100
AcDb2dVertex
 10
65.69966485342724
 20
20.98369081551975
 30
0.0
  0
VERTEX
  5
3EC
330
368
100
AcDbEntity
  8
Graypants_Dish10v
370
    -3
100
AcDbVertex
100
AcDb2dVertex
 10
69.19023584602806
 20
20.24620366912291
 30
0.0
  0
VERTEX
  5
3ED
330
368
100
AcDbEntity
  8
Graypants_Dish10v
370
    -3
100
AcDbVertex
100
AcDb2dVertex
 10
72.67253402792025
 20
19.4705926081667
 30
0.0
  0
VERTEX
  5
3EE
330
368
100
AcDbEntity
  8
Graypants_Dish10v
370
    -3
100
AcDbVertex
100
AcDb2dVertex
 10
76.1461430238538
 20
18.65695037176541
 30
0.0
  0
VERTEX
  5
3EF
330
368
100
AcDbEntity
  8
Graypants_Dish10v
370
    -3
100
AcDbVertex
100
AcDb2dVertex
 10
79.61064749753717
 20
17.80537424638673
 30
0.0
  0
VERTEX
  5
3F0
330
368
100
AcDbEntity
  8
Graypants_Dish10v
370
    -3
100
AcDbVertex
100
AcDb2dVertex
 10
83.06563320129808
 20
16.91596605421912
 30
0.0
  0
VERTEX
  5
3F1
330
368
100
AcDbEntity
  8
Graypants_Dish10v
370
    -3
100
AcDbVertex
100
AcDb2dVertex
 10
86.51068702561506
 20
15.98883214099729
 30
0.0
  0
VERTEX
  5
3F2
330
368
100
AcDbEntity
  8
Graypants_Dish10v
370
    -3
100
AcDbVertex
100
AcDb2dVertex
 10
89.94539704851245
 20
15.02408336328616
 30
0.0
  0
VERTEX
  5
3F3
330
368
100
AcDbEntity
  8
Graypants_Dish10v
370
    -3
100
AcDbVertex
100
AcDb2dVertex
 10
93.36935258481364
 20
14.02183507522605
 30
0.0
  0
VERTEX
  5
3F4
330
368
100
AcDbEntity
  8
Graypants_Dish10v
370
    -3
100
AcDbVertex
100
AcDb2dVertex
 10
96.78214423524629
 20
12.98220711474016
 30
0.0
  0
VERTEX
  5
3F5
330
368
100
AcDbEntity
  8
Graypants_Dish10v
370
    -3
100
AcDbVertex
100
AcDb2dVertex
 10
100.1833639353937
 20
11.90532378920491
 30
0.0
  0
VERTEX
  5
3F6
330
368
100
AcDbEntity
  8
Graypants_Dish10v
370
    -3
100
AcDbVertex
100
AcDb2dVertex
 10
103.5726050044871
 20
10.79131386058747
 30
0.0
  0
VERTEX
  5
3F7
330
368
100
AcDbEntity
  8
Graypants_Dish10v
370
    -3
100
AcDbVertex
100
AcDb2dVertex
 10
106.9494621940314
 20
9.640310530049344
 30
0.0
  0
VERTEX
  5
3F8
330
368
100
AcDbEntity
  8
Graypants_Dish10v
370
    -3
100
AcDbVertex
100
AcDb2dVertex
 10
110.3135317362611
 20
8.452451422019529
 30
0.0
  0
VERTEX
  5
3F9
330
368
100
AcDbEntity
  8
Graypants_Dish10v
370
    -3
100
AcDbVertex
100
AcDb2dVertex
 10
113.6644113924181
 20
7.227878567739234
 30
0.0
  0
VERTEX
  5
3FA
330
368
100
AcDbEntity
  8
Graypants_Dish10v
370
    -3
100
AcDbVertex
100
AcDb2dVertex
 10
117.001700500847
 20
5.966738388279168
 30
0.0
  0
VERTEX
  5
3FB
330
368
100
AcDbEntity
  8
Graypants_Dish10v
370
    -3
100
AcDbVertex
100
AcDb2dVertex
 10
117.0178087188976
 20
5.96022695782722
 30
0.0
  0
VERTEX
  5
3FC
330
368
100
AcDbEntity
  8
Graypants_Dish10v
370
    -3
100
AcDbVertex
100
AcDb2dVertex
 10
117.0336809800582
 20
5.953159798501128
 30
0.0
  0
VERTEX
  5
3FD
330
368
100
AcDbEntity
  8
Graypants_Dish10v
370
    -3
100
AcDbVertex
100
AcDb2dVertex
 10
117.0492981186743
 20
5.945545443850947
 30
0.0
  0
VERTEX
  5
3FE
330
368
100
AcDbEntity
  8
Graypants_Dish10v
370
    -3
100
AcDbVertex
100
AcDb2dVertex
 10
117.0646412771499
 20
5.937393088161663
 30
0.0
  0
VERTEX
  5
3FF
330
368
100
AcDbEntity
  8
Graypants_Dish10v
370
    -3
100
AcDbVertex
100
AcDb2dVertex
 10
117.0796919287185
 20
5.928712575351094
 30
0.0
  0
VERTEX
  5
400
330
368
100
AcDbEntity
  8
Graypants_Dish10v
370
    -3
100
AcDbVertex
100
AcDb2dVertex
 10
117.0944318998136
 20
5.919514387083435
 30
0.0
  0
VERTEX
  5
401
330
368
100
AcDbEntity
  8
Graypants_Dish10v
370
    -3
100
AcDbVertex
100
AcDb2dVertex
 10
117.1088433920137
 20
5.909809630112712
 30
0.0
  0
VERTEX
  5
402
330
368
100
AcDbEntity
  8
Graypants_Dish10v
370
    -3
100
AcDbVertex
100
AcDb2dVertex
 10
117.1229090035332
 20
5.899610022871452
 30
0.0
  0
VERTEX
  5
403
330
368
100
AcDbEntity
  8
Graypants_Dish10v
370
    -3
100
AcDbVertex
100
AcDb2dVertex
 10
117.1366117502353
 20
5.888927881320745
 30
0.0
  0
VERTEX
  5
404
330
368
100
AcDbEntity
  8
Graypants_Dish10v
370
    -3
100
AcDbVertex
100
AcDb2dVertex
 10
117.1499350861404
 20
5.877776104078782
 30
0.0
  0
VERTEX
  5
405
330
368
100
AcDbEntity
  8
Graypants_Dish10v
370
    -3
100
AcDbVertex
100
AcDb2dVertex
 10
117.1628629234047
 20
5.86616815684595
 30
0.0
  0
VERTEX
  5
406
330
368
100
AcDbEntity
  8
Graypants_Dish10v
370
    -3
100
AcDbVertex
100
AcDb2dVertex
 10
117.1753796517467
 20
5.854118056144895
 30
0.0
  0
VERTEX
  5
407
330
368
100
AcDbEntity
  8
Graypants_Dish10v
370
    -3
100
AcDbVertex
100
AcDb2dVertex
 10
117.1874701572963
 20
5.841640352395829
 30
0.0
  0
VERTEX
  5
408
330
368
100
AcDbEntity
  8
Graypants_Dish10v
370
    -3
100
AcDbVertex
100
AcDb2dVertex
 10
117.1991198408446
 20
5.828750112346996
 30
0.0
  0
VERTEX
  5
409
330
368
100
AcDbEntity
  8
Graypants_Dish10v
370
    -3
100
AcDbVertex
100
AcDb2dVertex
 10
117.2103146354726
 20
5.815462900881485
 30
0.0
  0
VERTEX
  5
40A
330
368
100
AcDbEntity
  8
Graypants_Dish10v
370
    -3
100
AcDbVertex
100
AcDb2dVertex
 10
117.2210410235368
 20
5.801794762222912
 30
0.0
  0
VERTEX
  5
40B
330
368
100
AcDbEntity
  8
Graypants_Dish10v
370
    -3
100
AcDbVertex
100
AcDb2dVertex
 10
117.2312860529915
 20
5.787762200562137
 30
0.0
  0
VERTEX
  5
40C
330
368
100
AcDbEntity
  8
Graypants_Dish10v
370
    -3
100
AcDbVertex
100
AcDb2dVertex
 10
117.2410373530288
 20
5.773382160128346
 30
0.0
  0
VERTEX
  5
40D
330
368
100
AcDbEntity
  8
Graypants_Dish10v
370
    -3
100
AcDbVertex
100
AcDb2dVertex
 10
117.2502831490154
 20
5.758672004729234
 30
0.0
  0
VERTEX
  5
40E
330
368
100
AcDbEntity
  8
Graypants_Dish10v
370
    -3
100
AcDbVertex
100
AcDb2dVertex
 10
117.2590122767115
 20
5.743649496784199
 30
0.0
  0
VERTEX
  5
40F
330
368
100
AcDbEntity
  8
Graypants_Dish10v
370
    -3
100
AcDbVertex
100
AcDb2dVertex
 10
117.2672141957506
 20
5.728332775876336
 30
0.0
  0
VERTEX
  5
410
330
368
100
AcDbEntity
  8
Graypants_Dish10v
370
    -3
100
AcDbVertex
100
AcDb2dVertex
 10
117.2748790023676
 20
5.712740336849098
 30
0.0
  0
VERTEX
  5
411
330
368
100
AcDbEntity
  8
Graypants_Dish10v
370
    -3
100
AcDbVertex
100
AcDb2dVertex
 10
117.2819974413569
 20
5.696891007473777
 30
0.0
  0
VERTEX
  5
412
330
368
100
AcDbEntity
  8
Graypants_Dish10v
370
    -3
100
AcDbVertex
100
AcDb2dVertex
 10
117.2885609172486
 20
5.680803925715075
 30
0.0
  0
VERTEX
  5
413
330
368
100
AcDbEntity
  8
Graypants_Dish10v
370
    -3
100
AcDbVertex
100
AcDb2dVertex
 10
117.2945615046873
 20
5.664498516622269
 30
0.0
  0
VERTEX
  5
414
330
368
100
AcDbEntity
  8
Graypants_Dish10v
370
    -3
100
AcDbVertex
100
AcDb2dVertex
 10
117.2999919580016
 20
5.647994468873478
 30
0.0
  0
VERTEX
  5
415
330
368
100
AcDbEntity
  8
Graypants_Dish10v
370
    -3
100
AcDbVertex
100
AcDb2dVertex
 10
117.3048457199535
 20
5.631311711001747
 30
0.0
  0
VERTEX
  5
416
330
368
100
AcDbEntity
  8
Graypants_Dish10v
370
    -3
100
AcDbVertex
100
AcDb2dVertex
 10
117.3091169296564
 20
5.614470387331452
 30
0.0
  0
VERTEX
  5
417
330
368
100
AcDbEntity
  8
Graypants_Dish10v
370
    -3
100
AcDbVertex
100
AcDb2dVertex
 10
117.3128004296514
 20
5.597490833654176
 30
0.0
  0
VERTEX
  5
418
330
368
100
AcDbEntity
  8
Graypants_Dish10v
370
    -3
100
AcDbVertex
100
AcDb2dVertex
 10
117.3158917721358
 20
5.58039355267335
 30
0.0
  0
VERTEX
  5
419
330
368
100
AcDbEntity
  8
Graypants_Dish10v
370
    -3
100
AcDbVertex
100
AcDb2dVertex
 10
117.318387224333
 20
5.563199189247381
 30
0.0
  0
VERTEX
  5
41A
330
368
100
AcDbEntity
  8
Graypants_Dish10v
370
    -3
100
AcDbVertex
100
AcDb2dVertex
 10
117.3202837730004
 20
5.545928505461117
 30
0.0
  0
VERTEX
  5
41B
330
368
100
AcDbEntity
  8
Graypants_Dish10v
370
    -3
100
AcDbVertex
100
AcDb2dVertex
 10
117.3215791280675
 20
5.528602355555753
 30
0.0
  0
VERTEX
  5
41C
330
368
100
AcDbEntity
  8
Graypants_Dish10v
370
    -3
100
AcDbVertex
100
AcDb2dVertex
 10
117.3222717254012
 20
5.511241660747443
 30
0.0
  0
VERTEX
  5
41D
330
368
100
AcDbEntity
  8
Graypants_Dish10v
370
    -3
100
AcDbVertex
100
AcDb2dVertex
 10
117.3223607286947
 20
5.493867383965206
 30
0.0
  0
VERTEX
  5
41E
330
368
100
AcDbEntity
  8
Graypants_Dish10v
370
    -3
100
AcDbVertex
100
AcDb2dVertex
 10
117.321846030477
 20
5.476500504538013
 30
0.0
  0
VERTEX
  5
41F
330
368
100
AcDbEntity
  8
Graypants_Dish10v
370
    -3
100
AcDbVertex
100
AcDb2dVertex
 10
117.320728252243
 20
5.459161992862799
 30
0.0
  0
VERTEX
  5
420
330
368
100
AcDbEntity
  8
Graypants_Dish10v
370
    -3
100
AcDbVertex
100
AcDb2dVertex
 10
117.3190087437028
 20
5.441872785082419
 30
0.0
  0
VERTEX
  5
421
330
368
100
AcDbEntity
  8
Graypants_Dish10v
370
    -3
100
AcDbVertex
100
AcDb2dVertex
 10
117.316689581152
 20
5.424653757805705
 30
0.0
  0
VERTEX
  5
422
330
368
100
AcDbEntity
  8
Graypants_Dish10v
370
    -3
100
AcDbVertex
100
AcDb2dVertex
 10
117.3137735649648
 20
5.407525702898945
 30
0.0
  0
VERTEX
  5
423
330
368
100
AcDbEntity
  8
Graypants_Dish10v
370
    -3
100
AcDbVertex
100
AcDb2dVertex
 10
117.3102642162122
 20
5.39050930237984
 30
0.0
  0
VERTEX
  5
424
330
368
100
AcDbEntity
  8
Graypants_Dish10v
370
    -3
100
AcDbVertex
100
AcDb2dVertex
 10
117.3061657724107
 20
5.373625103444234
 30
0.0
  0
VERTEX
  5
425
330
368
100
AcDbEntity
  8
Graypants_Dish10v
370
    -3
100
AcDbVertex
100
AcDb2dVertex
 10
117.3014831824049
 20
5.356893493655234
 30
0.0
  0
VERTEX
  5
426
330
368
100
AcDbEntity
  8
Graypants_Dish10v
370
    -3
100
AcDbVertex
100
AcDb2dVertex
 10
117.2962221003929
 20
5.340334676325601
 30
0.0
  0
VERTEX
  5
427
330
368
100
AcDbEntity
  8
Graypants_Dish10v
370
    -3
100
AcDbVertex
100
AcDb2dVertex
 10
117.2903888790976
 20
5.323968646122353
 30
0.0
  0
VERTEX
  5
428
330
368
100
AcDbEntity
  8
Graypants_Dish10v
370
    -3
100
AcDbVertex
100
AcDb2dVertex
 10
117.2839905620969
 20
5.307815164923217
 30
0.0
  0
VERTEX
  5
429
330
368
100
AcDbEntity
  8
Graypants_Dish10v
370
    -3
100
AcDbVertex
100
AcDb2dVertex
 10
117.277034875318
 20
5.291893737954293
 30
0.0
  0
VERTEX
  5
42A
330
368
100
AcDbEntity
  8
Graypants_Dish10v
370
    -3
100
AcDbVertex
100
AcDb2dVertex
 10
117.2695302177086
 20
5.276223590237726
 30
0.0
  0
VERTEX
  5
42B
330
368
100
AcDbEntity
  8
Graypants_Dish10v
370
    -3
100
AcDbVertex
100
AcDb2dVertex
 10
117.2614856510951
 20
5.260823643377603
 30
0.0
  0
VERTEX
  5
42C
330
368
100
AcDbEntity
  8
Graypants_Dish10v
370
    -3
100
AcDbVertex
100
AcDb2dVertex
 10
117.2529108892408
 20
5.24571249271214
 30
0.0
  0
VERTEX
  5
42D
330
368
100
AcDbEntity
  8
Graypants_Dish10v
370
    -3
100
AcDbVertex
100
AcDb2dVertex
 10
117.2438162861163
 20
5.230908384859927
 30
0.0
  0
VERTEX
  5
42E
330
368
100
AcDbEntity
  8
Graypants_Dish10v
370
    -3
100
AcDbVertex
100
AcDb2dVertex
 10
117.2342128233971
 20
5.21642919568736
 30
0.0
  0
VERTEX
  5
42F
330
368
100
AcDbEntity
  8
Graypants_Dish10v
370
    -3
100
AcDbVertex
100
AcDb2dVertex
 10
117.2241120972037
 20
5.202292408723627
 30
0.0
  0
VERTEX
  5
430
330
368
100
AcDbEntity
  8
Graypants_Dish10v
370
    -3
100
AcDbVertex
100
AcDb2dVertex
 10
117.2135263040988
 20
5.188515094049378
 30
0.0
  0
VERTEX
  5
431
330
368
100
AcDbEntity
  8
Graypants_Dish10v
370
    -3
100
AcDbVertex
100
AcDb2dVertex
 10
117.2024682263606
 20
5.175113887684702
 30
0.0
  0
VERTEX
  5
432
330
368
100
AcDbEntity
  8
Graypants_Dish10v
370
    -3
100
AcDbVertex
100
AcDb2dVertex
 10
117.1909512165478
 20
5.162104971501339
 30
0.0
  0
VERTEX
  5
433
330
368
100
AcDbEntity
  8
Graypants_Dish10v
370
    -3
100
AcDbVertex
100
AcDb2dVertex
 10
117.1789891813768
 20
5.149504053683164
 30
0.0
  0
VERTEX
  5
434
330
368
100
AcDbEntity
  8
Graypants_Dish10v
370
    -3
100
AcDbVertex
100
AcDb2dVertex
 10
117.1665965649292
 20
5.137326349758563
 30
0.0
  0
VERTEX
  5
435
330
368
100
AcDbEntity
  8
Graypants_Dish10v
370
    -3
100
AcDbVertex
100
AcDb2dVertex
 10
117.1537883312108
 20
5.125586564227793
 30
0.0
  0
VERTEX
  5
436
330
368
100
AcDbEntity
  8
Graypants_Dish10v
370
    -3
100
AcDbVertex
100
AcDb2dVertex
 10
117.1405799460827
 20
5.114298872807469
 30
0.0
  0
VERTEX
  5
437
330
368
100
AcDbEntity
  8
Graypants_Dish10v
370
    -3
100
AcDbVertex
100
AcDb2dVertex
 10
117.1269873585861
 20
5.103476905313467
 30
0.0
  0
VERTEX
  5
438
330
368
100
AcDbEntity
  8
Graypants_Dish10v
370
    -3
100
AcDbVertex
100
AcDb2dVertex
 10
117.1130269816844
 20
5.093133729202934
 30
0.0
  0
VERTEX
  5
439
330
368
100
AcDbEntity
  8
Graypants_Dish10v
370
    -3
100
AcDbVertex
100
AcDb2dVertex
 10
117.098715672444
 20
5.083281833795413
 30
0.0
  0
VERTEX
  5
43A
330
368
100
AcDbEntity
  8
Graypants_Dish10v
370
    -3
100
AcDbVertex
100
AcDb2dVertex
 10
117.0840707116803
 20
5.073933115192205
 30
0.0
  0
VERTEX
  5
43B
330
368
100
AcDbEntity
  8
Graypants_Dish10v
370
    -3
100
AcDbVertex
100
AcDb2dVertex
 10
117.0691097830905
 20
5.06509886191175
 30
0.0
  0
VERTEX
  5
43C
330
368
100
AcDbEntity
  8
Graypants_Dish10v
370
    -3
100
AcDbVertex
100
AcDb2dVertex
 10
117.053850951901
 20
5.056789741258897
 30
0.0
  0
VERTEX
  5
43D
330
368
100
AcDbEntity
  8
Graypants_Dish10v
370
    -3
100
AcDbVertex
100
AcDb2dVertex
 10
117.0383126430538
 20
5.049015786444126
 30
0.0
  0
VERTEX
  5
43E
330
368
100
AcDbEntity
  8
Graypants_Dish10v
370
    -3
100
AcDbVertex
100
AcDb2dVertex
 10
117.0225136189583
 20
5.041786384468635
 30
0.0
  0
VERTEX
  5
43F
330
368
100
AcDbEntity
  8
Graypants_Dish10v
370
    -3
100
AcDbVertex
100
AcDb2dVertex
 10
117.006472956836
 20
5.035110264789472
 30
0.0
  0
VERTEX
  5
440
330
368
100
AcDbEntity
  8
Graypants_Dish10v
370
    -3
100
AcDbVertex
100
AcDb2dVertex
 10
116.9902100256847
 20
5.028995488778842
 30
0.0
  0
VERTEX
  5
441
330
368
100
AcDbEntity
  8
Graypants_Dish10v
370
    -3
100
AcDbVertex
100
AcDb2dVertex
 10
116.9737444628906
 20
5.023449439989985
 30
0.0
  0
VERTEX
  5
442
330
368
100
AcDbEntity
  8
Graypants_Dish10v
370
    -3
100
AcDbVertex
100
AcDb2dVertex
 10
116.9570961505165
 20
5.01847881524169
 30
0.0
  0
VERTEX
  5
443
330
368
100
AcDbEntity
  8
Graypants_Dish10v
370
    -3
100
AcDbVertex
100
AcDb2dVertex
 10
116.9402851912941
 20
5.014089616531821
 30
0.0
  0
VERTEX
  5
444
330
368
100
AcDbEntity
  8
Graypants_Dish10v
370
    -3
100
AcDbVertex
100
AcDb2dVertex
 10
116.92333188435
 20
5.010287143790005
 30
0.0
  0
VERTEX
  5
445
330
368
100
AcDbEntity
  8
Graypants_Dish10v
370
    -3
100
AcDbVertex
100
AcDb2dVertex
 10
116.9062567006949
 20
5.007075988477957
 30
0.0
  0
VERTEX
  5
446
330
368
100
AcDbEntity
  8
Graypants_Dish10v
370
    -3
100
AcDbVertex
100
AcDb2dVertex
 10
116.8890802585049
 20
5.004460028045377
 30
0.0
  0
VERTEX
  5
447
330
368
100
AcDbEntity
  8
Graypants_Dish10v
370
    -3
100
AcDbVertex
100
AcDb2dVertex
 10
116.8718232982249
 20
5.002442421247902
 30
0.0
  0
VERTEX
  5
448
330
368
100
AcDbEntity
  8
Graypants_Dish10v
370
    -3
100
AcDbVertex
100
AcDb2dVertex
 10
116.8545066575252
 20
5.001025604332948
 30
0.0
  0
VERTEX
  5
449
330
368
100
AcDbEntity
  8
Graypants_Dish10v
370
    -3
100
AcDbVertex
100
AcDb2dVertex
 10
116.8371512461396
 20
5.000211288097962
 30
0.0
  0
VERTEX
  5
44A
330
368
100
AcDbEntity
  8
Graypants_Dish10v
370
    -3
100
AcDbVertex
100
AcDb2dVertex
 10
116.8197780206174
 20
5.000000455824632
 30
0.0
  0
SEQEND
  5
44B
330
368
100
AcDbEntity
  8
Graypants_Dish10v
370
    -3
  0
CIRCLE
  5
44C
330
1F
100
AcDbEntity
  8
Graypants_Dish10v
370
    -3
100
AcDbCircle
 10
-0.0000000000000058
 20
0.0000000000000263
 30
0.0
 40
0.5000000000000006
210
0.0
220
0.0
230
-1.0
  0
CIRCLE
  5
44D
330
1F
100
AcDbEntity
  8
Graypants_Dish10v
370
    -3
100
AcDbCircle
 10
-5.752530605022799
 20
0.0000002969325541
 30
0.0
 40
2.19999999999999
210
0.0
220
0.0
230
-1.0
  0
POLYLINE
  5
44E
330
1F
100
AcDbEntity
  8
Graypants_Dish10v
370
    -3
100
AcDb2dPolyline
 66
     1
 10
0.0
 20
0.0
 30
0.0
  0
VERTEX
  5
44F
330
44E
100
AcDbEntity
  8
Graypants_Dish10v
370
    -3
100
AcDbVertex
100
AcDb2dVertex
 10
-4.998299499152779
 20
-29.07037612485125
 30
0.0
  0
VERTEX
  5
450
330
44E
100
AcDbEntity
  8
Graypants_Dish10v
370
    -3
100
AcDbVertex
100
AcDb2dVertex
 10
-4.698299499152768
 20
-29.37037612485121
 30
0.0
  0
VERTEX
  5
451
330
44E
100
AcDbEntity
  8
Graypants_Dish10v
370
    -3
100
AcDbVertex
100
AcDb2dVertex
 10
4.701700500847267
 20
-29.37037612485121
 30
0.0
  0
VERTEX
  5
452
330
44E
100
AcDbEntity
  8
Graypants_Dish10v
370
    -3
100
AcDbVertex
100
AcDb2dVertex
 10
5.001700500847221
 20
-29.07037612485125
 30
0.0
  0
SEQEND
  5
453
330
44E
100
AcDbEntity
  8
Graypants_Dish10v
370
    -3
  0
POLYLINE
  5
454
330
1F
100
AcDbEntity
  8
Graypants_Dish10v
370
    -3
100
AcDb2dPolyline
 66
     1
 10
0.0
 20
0.0
 30
0.0
  0
VERTEX
  5
455
330
454
100
AcDbEntity
  8
Graypants_Dish10v
370
    -3
100
AcDbVertex
100
AcDb2dVertex
 10
-4.998299499152893
 20
27.62037703650047
 30
0.0
  0
VERTEX
  5
456
330
454
100
AcDbEntity
  8
Graypants_Dish10v
370
    -3
100
AcDbVertex
100
AcDb2dVertex
 10
-4.998299499152893
 20
29.0703770365004
 30
0.0
  0
VERTEX
  5
457
330
454
100
AcDbEntity
  8
Graypants_Dish10v
370
    -3
100
AcDbVertex
100
AcDb2dVertex
 10
5.001700500847107
 20
29.0703770365004
 30
0.0
  0
VERTEX
  5
458
330
454
100
AcDbEntity
  8
Graypants_Dish10v
370
    -3
100
AcDbVertex
100
AcDb2dVertex
 10
4.701700500847153
 20
29.37037703650047
 30
0.0
  0
VERTEX
  5
459
330
454
100
AcDbEntity
  8
Graypants_Dish10v
370
    -3
100
AcDbVertex
100
AcDb2dVertex
 10
-4.698299499152881
 20
29.37037703650047
 30
0.0
  0
VERTEX
  5
45A
330
454
100
AcDbEntity
  8
Graypants_Dish10v
370
    -3
100
AcDbVertex
100
AcDb2dVertex
 10
-4.998299499152893
 20
29.0703770365004
 30
0.0
  0
SEQEND
  5
45B
330
454
100
AcDbEntity
  8
Graypants_Dish10v
370
    -3
  0
ENDSEC
  0
SECTION
  2
OBJECTS
  0
DICTIONARY
  5
C
330
0
100
AcDbDictionary
281
     1
  3
ACAD_DETAILVIEWSTYLE
350
497
  3
ACAD_GROUP
350
D
  3
ACAD_LAYOUT
350
1A
  3
ACAD_MATERIAL
350
43
  3
ACAD_MLEADERSTYLE
350
6B
  3
ACAD_MLINESTYLE
350
17
  3
ACAD_PLOTSETTINGS
350
19
  3
ACAD_PLOTSTYLENAME
350
E
  3
ACAD_SCALELIST
350
47
  3
ACAD_SECTIONVIEWSTYLE
350
498
  3
ACAD_TABLESTYLE
350
69
  3
ACAD_VISUALSTYLE
350
2A
  3
AcDbVariableDictionary
350
45C
  3
ACDB_RECOMPOSE_DATA
350
494
  0
SUN
  5
6D
330
29
100
AcDbSun
 90
        1
290
     0
 63
     7
421
 16777215
 40
1.0
291
     1
 91
  2455826
 92
 54000000
292
     0
 70
     2
 71
   256
280
     1
  0
DICTIONARY
  5
497
102
{ACAD_REACTORS
330
C
102
}
330
C
100
AcDbDictionary
281
     1
  0
DICTIONARY
  5
D
102
{ACAD_REACTORS
330
C
102
}
330
C
100
AcDbDictionary
281
     1
  0
DICTIONARY
  5
1A
102
{ACAD_REACTORS
330
C
102
}
330
C
100
AcDbDictionary
281
     1
  3
Layout1
350
1E
  3
Layout2
350
26
  3
Model
350
22
  0
DICTIONARY
  5
43
102
{ACAD_REACTORS
330
C
102
}
330
C
100
AcDbDictionary
281
     1
  3
ByBlock
350
45
  3
ByLayer
350
44
  3
Global
350
46
  0
DICTIONARY
  5
6B
102
{ACAD_REACTORS
330
C
102
}
330
C
100
AcDbDictionary
281
     1
  3
Standard
350
6C
  0
DICTIONARY
  5
17
102
{ACAD_REACTORS
330
C
102
}
330
C
100
AcDbDictionary
281
     1
  3
Standard
350
18
  0
DICTIONARY
  5
19
102
{ACAD_REACTORS
330
C
102
}
330
C
100
AcDbDictionary
281
     1
  0
ACDBDICTIONARYWDFLT
  5
E
102
{ACAD_REACTORS
330
C
102
}
330
C
100
AcDbDictionary
281
     1
  3
Normal
350
F
100
AcDbDictionaryWithDefault
340
F
  0
DICTIONARY
  5
47
102
{ACAD_REACTORS
330
C
102
}
330
C
100
AcDbDictionary
281
     1
  3
A0
350
48
  3
A1
350
49
  3
A2
350
4A
  3
A3
350
4B
  3
A4
350
4C
  3
A5
350
4D
  3
A6
350
4E
  3
A7
350
4F
  3
A8
350
50
  3
A9
350
51
  3
B0
350
52
  3
B1
350
53
  3
B2
350
54
  3
B3
350
55
  3
B4
350
56
  3
B5
350
57
  3
B6
350
58
  3
B7
350
59
  3
B8
350
5A
  3
B9
350
5B
  3
C0
350
5C
  3
C1
350
5D
  3
C2
350
5E
  3
C3
350
5F
  3
C4
350
60
  3
C5
350
61
  3
C6
350
62
  3
C7
350
63
  3
C8
350
64
  3
C9
350
65
  3
D0
350
66
  3
D1
350
67
  3
D2
350
68
  0
DICTIONARY
  5
498
102
{ACAD_REACTORS
330
C
102
}
330
C
100
AcDbDictionary
281
     1
  0
DICTIONARY
  5
69
102
{ACAD_REACTORS
330
C
102
}
330
C
100
AcDbDictionary
281
     1
  3
Standard
350
6A
  0
DICTIONARY
  5
2A
102
{ACAD_REACTORS
330
C
102
}
330
C
100
AcDbDictionary
281
     1
  3
2dWireframe
350
2F
  3
Basic
350
32
  3
Brighten
350
36
  3
ColorChange
350
3A
  3
Conceptual
350
34
  3
Dim
350
35
  3
EdgeColorOff
350
3D
  3
Facepattern
350
39
  3
Flat
350
2B
  3
FlatWithEdges
350
2C
  3
Gouraud
350
2D
  3
GouraudWithEdges
350
2E
  3
Hidden
350
31
  3
JitterOff
350
3B
  3
Linepattern
350
38
  3
OverhangOff
350
3C
  3
Realistic
350
33
  3
Shaded
350
42
  3
Shaded with edges
350
41
  3
Shades of Gray
350
3E
  3
Sketchy
350
3F
  3
Thicken
350
37
  3
Wireframe
350
30
  3
X-Ray
350
40
  0
DICTIONARY
  5
45C
102
{ACAD_REACTORS
330
C
102
}
330
C
100
AcDbDictionary
281
     1
  3
CANNOSCALE
350
45D
  3
CMLEADERSTYLE
350
496
  3
CTABLESTYLE
350
495
  3
XCLIPFRAME
350
45E
  0
XRECORD
  5
494
102
{ACAD_REACTORS
330
C
102
}
330
C
100
AcDbXrecord
280
     1
 90
        1
330
6A
  0
LAYOUT
  5
1E
102
{ACAD_REACTORS
330
1A
102
}
330
1A
100
AcDbPlotSettings
  1

  2
none_device
  4

  6

 40
0.0
 41
0.0
 42
0.0
 43
0.0
 44
0.0
 45
0.0
 46
0.0
 47
0.0
 48
0.0
 49
0.0
140
0.0
141
0.0
142
1.0
143
1.0
 70
   688
 72
     0
 73
     0
 74
     5
  7

 75
    16
 76
     0
 77
     2
 78
   300
147
1.0
148
0.0
149
0.0
100
AcDbLayout
  1
Layout1
 70
     1
 71
     1
 10
0.0
 20
0.0
 11
12.0
 21
9.0
 12
0.0
 22
0.0
 32
0.0
 14
1.000000000000000E+20
 24
1.000000000000000E+20
 34
1.000000000000000E+20
 15
-1.000000000000000E+20
 25
-1.000000000000000E+20
 35
-1.000000000000000E+20
146
0.0
 13
0.0
 23
0.0
 33
0.0
 16
1.0
 26
0.0
 36
0.0
 17
0.0
 27
1.0
 37
0.0
 76
     0
330
1B
  0
LAYOUT
  5
26
102
{ACAD_REACTORS
330
1A
102
}
330
1A
100
AcDbPlotSettings
  1

  2
none_device
  4

  6

 40
0.0
 41
0.0
 42
0.0
 43
0.0
 44
0.0
 45
0.0
 46
0.0
 47
0.0
 48
0.0
 49
0.0
140
0.0
141
0.0
142
1.0
143
1.0
 70
   688
 72
     0
 73
     0
 74
     5
  7

 75
    16
 76
     0
 77
     2
 78
   300
147
1.0
148
0.0
149
0.0
100
AcDbLayout
  1
Layout2
 70
     1
 71
     2
 10
0.0
 20
0.0
 11
0.0
 21
0.0
 12
0.0
 22
0.0
 32
0.0
 14
0.0
 24
0.0
 34
0.0
 15
0.0
 25
0.0
 35
0.0
146
0.0
 13
0.0
 23
0.0
 33
0.0
 16
1.0
 26
0.0
 36
0.0
 17
0.0
 27
1.0
 37
0.0
 76
     0
330
23
  0
LAYOUT
  5
22
102
{ACAD_REACTORS
330
1A
102
}
330
1A
100
AcDbPlotSettings
  1

  2
none_device
  4
Letter_(8.50_x_11.00_Inches)
  6

 40
6.35
 41
6.35
 42
6.35000508
 43
6.35000508
 44
215.9
 45
279.4
 46
0.0
 47
0.0
 48
0.0
 49
0.0
140
0.0
141
0.0
142
1.0
143
1.0
 70
  1712
 72
     0
 73
     0
 74
     0
  7

 75
     0
 76
     0
 77
     2
 78
   300
147
1.0
148
0.0
149
0.0
100
AcDbLayout
  1
Model
 70
     1
 71
     0
 10
0.0
 20
0.0
 11
12.0
 21
9.0
 12
0.0
 22
0.0
 32
0.0
 14
1.000000000000000E+20
 24
1.000000000000000E+20
 34
1.000000000000000E+20
 15
-1.000000000000000E+20
 25
-1.000000000000000E+20
 35
-1.000000000000000E+20
146
0.0
 13
0.0
 23
0.0
 33
0.0
 16
1.0
 26
0.0
 36
0.0
 17
0.0
 27
1.0
 37
0.0
 76
     0
330
1F
331
29
  0
MATERIAL
  5
45
102
{ACAD_REACTORS
330
43
102
}
330
43
100
AcDbMaterial
  1
ByBlock
 72
     1
 94
      127
  0
MATERIAL
  5
44
102
{ACAD_REACTORS
330
43
102
}
330
43
100
AcDbMaterial
  1
ByLayer
 72
     1
 94
      127
  0
MATERIAL
  5
46
102
{ACAD_REACTORS
330
43
102
}
330
43
100
AcDbMaterial
  1
Global
 72
     1
 94
      127
  0
MLEADERSTYLE
  5
6C
102
{ACAD_REACTORS
330
6B
102
}
102
{ACAD_XDICTIONARY
360
492
102
}
330
6B
100
AcDbMLeaderStyle
170
     2
171
     1
172
     0
 90
        2
 40
0.0
 41
0.0
173
     1
 91
-1056964608
340
14
 92
       -2
290
     1
 42
0.09
291
     1
 43
0.36
  3
Standard
341
0
 44
0.18
300

342
11
174
     1
178
     6
175
     1
176
     0
 93
-1056964608
 45
0.18
292
     0
297
     0
 46
0.18
343
0
 94
-1056964608
 47
1.0
 49
1.0
140
1.0
293
     1
141
0.0
294
     1
177
     0
142
1.0
295
     0
296
     0
143
0.125
1001
ACAD_MLEADERVER
1070
     2
  0
MLINESTYLE
  5
18
102
{ACAD_REACTORS
330
17
102
}
330
17
100
AcDbMlineStyle
  2
Standard
 70
     0
  3

 62
   256
 51
90.0
 52
90.0
 71
     2
 49
0.5
 62
   256
  6
BYLAYER
 49
-0.5
 62
   256
  6
BYLAYER
  0
ACDBPLACEHOLDER
  5
F
102
{ACAD_REACTORS
330
E
102
}
330
E
  0
SCALE
  5
48
102
{ACAD_REACTORS
330
47
102
}
330
47
100
AcDbScale
 70
     0
300
1:1
140
1.0
141
1.0
290
     1
  0
SCALE
  5
49
102
{ACAD_REACTORS
330
47
102
}
330
47
100
AcDbScale
 70
     0
300
1:2
140
1.0
141
2.0
290
     0
  0
SCALE
  5
4A
102
{ACAD_REACTORS
330
47
102
}
330
47
100
AcDbScale
 70
     0
300
1:4
140
1.0
141
4.0
290
     0
  0
SCALE
  5
4B
102
{ACAD_REACTORS
330
47
102
}
330
47
100
AcDbScale
 70
     0
300
1:5
140
1.0
141
5.0
290
     0
  0
SCALE
  5
4C
102
{ACAD_REACTORS
330
47
102
}
330
47
100
AcDbScale
 70
     0
300
1:8
140
1.0
141
8.0
290
     0
  0
SCALE
  5
4D
102
{ACAD_REACTORS
330
47
102
}
330
47
100
AcDbScale
 70
     0
300
1:10
140
1.0
141
10.0
290
     0
  0
SCALE
  5
4E
102
{ACAD_REACTORS
330
47
102
}
330
47
100
AcDbScale
 70
     0
300
1:16
140
1.0
141
16.0
290
     0
  0
SCALE
  5
4F
102
{ACAD_REACTORS
330
47
102
}
330
47
100
AcDbScale
 70
     0
300
1:20
140
1.0
141
20.0
290
     0
  0
SCALE
  5
50
102
{ACAD_REACTORS
330
47
102
}
330
47
100
AcDbScale
 70
     0
300
1:30
140
1.0
141
30.0
290
     0
  0
SCALE
  5
51
102
{ACAD_REACTORS
330
47
102
}
330
47
100
AcDbScale
 70
     0
300
1:40
140
1.0
141
40.0
290
     0
  0
SCALE
  5
52
102
{ACAD_REACTORS
330
47
102
}
330
47
100
AcDbScale
 70
     0
300
1:50
140
1.0
141
50.0
290
     0
  0
SCALE
  5
53
102
{ACAD_REACTORS
330
47
102
}
330
47
100
AcDbScale
 70
     0
300
1:100
140
1.0
141
100.0
290
     0
  0
SCALE
  5
54
102
{ACAD_REACTORS
330
47
102
}
330
47
100
AcDbScale
 70
     0
300
2:1
140
2.0
141
1.0
290
     0
  0
SCALE
  5
55
102
{ACAD_REACTORS
330
47
102
}
330
47
100
AcDbScale
 70
     0
300
4:1
140
4.0
141
1.0
290
     0
  0
SCALE
  5
56
102
{ACAD_REACTORS
330
47
102
}
330
47
100
AcDbScale
 70
     0
300
8:1
140
8.0
141
1.0
290
     0
  0
SCALE
  5
57
102
{ACAD_REACTORS
330
47
102
}
330
47
100
AcDbScale
 70
     0
300
10:1
140
10.0
141
1.0
290
     0
  0
SCALE
  5
58
102
{ACAD_REACTORS
330
47
102
}
330
47
100
AcDbScale
 70
     0
300
100:1
140
100.0
141
1.0
290
     0
  0
SCALE
  5
59
102
{ACAD_REACTORS
330
47
102
}
330
47
100
AcDbScale
 70
     0
300
1/128" = 1'-0"
140
0.0078125
141
12.0
290
     0
  0
SCALE
  5
5A
102
{ACAD_REACTORS
330
47
102
}
330
47
100
AcDbScale
 70
     0
300
1/64" = 1'-0"
140
0.015625
141
12.0
290
     0
  0
SCALE
  5
5B
102
{ACAD_REACTORS
330
47
102
}
330
47
100
AcDbScale
 70
     0
300
1/32" = 1'-0"
140
0.03125
141
12.0
290
     0
  0
SCALE
  5
5C
102
{ACAD_REACTORS
330
47
102
}
330
47
100
AcDbScale
 70
     0
300
1/16" = 1'-0"
140
0.0625
141
12.0
290
     0
  0
SCALE
  5
5D
102
{ACAD_REACTORS
330
47
102
}
330
47
100
AcDbScale
 70
     0
300
3/32" = 1'-0"
140
0.09375
141
12.0
290
     0
  0
SCALE
  5
5E
102
{ACAD_REACTORS
330
47
102
}
330
47
100
AcDbScale
 70
     0
300
1/8" = 1'-0"
140
0.125
141
12.0
290
     0
  0
SCALE
  5
5F
102
{ACAD_REACTORS
330
47
102
}
330
47
100
AcDbScale
 70
     0
300
3/16" = 1'-0"
140
0.1875
141
12.0
290
     0
  0
SCALE
  5
60
102
{ACAD_REACTORS
330
47
102
}
330
47
100
AcDbScale
 70
     0
300
1/4" = 1'-0"
140
0.25
141
12.0
290
     0
  0
SCALE
  5
61
102
{ACAD_REACTORS
330
47
102
}
330
47
100
AcDbScale
 70
     0
300
3/8" = 1'-0"
140
0.375
141
12.0
290
     0
  0
SCALE
  5
62
102
{ACAD_REACTORS
330
47
102
}
330
47
100
AcDbScale
 70
     0
300
1/2" = 1'-0"
140
0.5
141
12.0
290
     0
  0
SCALE
  5
63
102
{ACAD_REACTORS
330
47
102
}
330
47
100
AcDbScale
 70
     0
300
3/4" = 1'-0"
140
0.75
141
12.0
290
     0
  0
SCALE
  5
64
102
{ACAD_REACTORS
330
47
102
}
330
47
100
AcDbScale
 70
     0
300
1" = 1'-0"
140
1.0
141
12.0
290
     0
  0
SCALE
  5
65
102
{ACAD_REACTORS
330
47
102
}
330
47
100
AcDbScale
 70
     0
300
1-1/2" = 1'-0"
140
1.5
141
12.0
290
     0
  0
SCALE
  5
66
102
{ACAD_REACTORS
330
47
102
}
330
47
100
AcDbScale
 70
     0
300
3" = 1'-0"
140
3.0
141
12.0
290
     0
  0
SCALE
  5
67
102
{ACAD_REACTORS
330
47
102
}
330
47
100
AcDbScale
 70
     0
300
6" = 1'-0"
140
6.0
141
12.0
290
     0
  0
SCALE
  5
68
102
{ACAD_REACTORS
330
47
102
}
330
47
100
AcDbScale
 70
     0
300
1'-0" = 1'-0"
140
12.0
141
12.0
290
     0
  0
TABLESTYLE
  5
6A
102
{ACAD_REACTORS
330
69
102
}
102
{ACAD_XDICTIONARY
360
48F
102
}
330
69
100
AcDbTableStyle
  3
Standard
 70
     0
 71
     0
 40
0.06
 41
0.06
280
     0
281
     0
  7
Standard
140
0.18
170
     2
 62
     0
 63
   257
283
     0
 90
        4
 91
        0
  1

274
    -2
284
     1
 64
     0
275
    -2
285
     1
 65
     0
276
    -2
286
     1
 66
     0
277
    -2
287
     1
 67
     0
278
    -2
288
     1
 68
     0
279
    -2
289
     1
 69
     0
  7
Standard
140
0.25
170
     5
 62
     0
 63
   257
283
     0
 90
        4
 91
        0
  1

274
    -2
284
     1
 64
     0
275
    -2
285
     1
 65
     0
276
    -2
286
     1
 66
     0
277
    -2
287
     1
 67
     0
278
    -2
288
     1
 68
     0
279
    -2
289
     1
 69
     0
  7
Standard
140
0.18
170
     5
 62
     0
 63
   257
283
     0
 90
        4
 91
        0
  1

274
    -2
284
     1
 64
     0
275
    -2
285
     1
 65
     0
276
    -2
286
     1
 66
     0
277
    -2
287
     1
 67
     0
278
    -2
288
     1
 68
     0
279
    -2
289
     1
 69
     0
  0
VISUALSTYLE
  5
2F
102
{ACAD_REACTORS
330
2A
102
}
102
{ACAD_XDICTIONARY
360
467
102
}
330
2A
100
AcDbVisualStyle
  2
2dWireframe
 70
     4
 71
     0
 72
     2
 73
     0
 90
        0
 40
0.6
 41
30.0
 62
     5
 63
     7
421
 16777215
 74
     1
 91
        4
 64
     7
 65
   257
 75
     1
175
     1
 42
1.0
 92
        0
 66
   257
 43
1.0
 76
     1
 77
     6
 78
     2
 67
     7
 79
     5
170
     0
171
     0
290
     0
174
     0
 93
        1
 44
0.0
173
     0
291
     0
 45
0.0
  0
VISUALSTYLE
  5
32
102
{ACAD_REACTORS
330
2A
102
}
102
{ACAD_XDICTIONARY
360
46D
102
}
330
2A
100
AcDbVisualStyle
  2
Basic
 70
     7
 71
     1
 72
     0
 73
     1
 90
        0
 40
0.6
 41
30.0
 62
     5
 63
     7
421
 16777215
 74
     0
 91
        4
 64
     7
 65
   257
 75
     1
175
     1
 42
1.0
 92
        8
 66
     7
 43
1.0
 76
     1
 77
     6
 78
     2
 67
     7
 79
     5
170
     0
171
     0
290
     0
174
     0
 93
        1
 44
0.0
173
     0
291
     1
 45
0.0
  0
VISUALSTYLE
  5
36
102
{ACAD_REACTORS
330
2A
102
}
102
{ACAD_XDICTIONARY
360
475
102
}
330
2A
100
AcDbVisualStyle
  2
Brighten
 70
    12
 71
     2
 72
     2
 73
     0
 90
        0
 40
0.6
 41
30.0
 62
     5
 63
     7
421
 16777215
 74
     1
 91
        4
 64
     7
 65
   257
 75
     1
175
     1
 42
1.0
 92
        8
 66
     7
 43
1.0
 76
     1
 77
     6
 78
     2
 67
     7
 79
     5
170
     0
171
     0
290
     0
174
     0
 93
        1
 44
50.0
173
     0
291
     1
 45
0.0
  0
VISUALSTYLE
  5
3A
102
{ACAD_REACTORS
330
2A
102
}
102
{ACAD_XDICTIONARY
360
47D
102
}
330
2A
100
AcDbVisualStyle
  2
ColorChange
 70
    16
 71
     2
 72
     2
 73
     3
 90
        0
 40
0.6
 41
30.0
 62
     5
 63
     8
421
  8421504
 74
     1
 91
        4
 64
     7
 65
   257
 75
     1
175
     1
 42
1.0
 92
        8
 66
     8
424
  8421504
 43
1.0
 76
     1
 77
     6
 78
     2
 67
     7
 79
     5
170
     0
171
     0
290
     0
174
     0
 93
        1
 44
0.0
173
     0
291
     1
 45
0.0
  0
VISUALSTYLE
  5
34
102
{ACAD_REACTORS
330
2A
102
}
102
{ACAD_XDICTIONARY
360
471
102
}
330
2A
100
AcDbVisualStyle
  2
Conceptual
 70
     9
 71
     3
 72
     2
 73
     0
 90
        0
 40
0.6
 41
30.0
 62
     5
 63
     7
421
 16777215
 74
     2
 91
        2
 64
     7
 65
   257
 75
     1
175
     1
 42
179.0
 92
        8
 66
     7
 43
1.0
 76
     1
 77
     6
 78
     2
 67
     7
 79
     3
170
     0
171
     0
290
     0
174
     0
 93
        1
 44
0.0
173
     0
291
     0
 45
0.0
  0
VISUALSTYLE
  5
35
102
{ACAD_REACTORS
330
2A
102
}
102
{ACAD_XDICTIONARY
360
473
102
}
330
2A
100
AcDbVisualStyle
  2
Dim
 70
    11
 71
     2
 72
     2
 73
     0
 90
        0
 40
0.6
 41
30.0
 62
     5
 63
     7
421
 16777215
 74
     1
 91
        4
 64
     7
 65
   257
 75
     1
175
     1
 42
1.0
 92
        8
 66
     7
 43
1.0
 76
     1
 77
     6
 78
     2
 67
     7
 79
     5
170
     0
171
     0
290
     0
174
     0
 93
        1
 44
-50.0
173
     0
291
     1
 45
0.0
  0
VISUALSTYLE
  5
3D
102
{ACAD_REACTORS
330
2A
102
}
102
{ACAD_XDICTIONARY
360
483
102
}
330
2A
100
AcDbVisualStyle
  2
EdgeColorOff
 70
    22
 71
     2
 72
     2
 73
     0
 90
        0
 40
0.6
 41
30.0
 62
     5
 63
     7
421
 16777215
 74
     1
 91
        4
 64
     7
 65
   257
 75
     1
175
     1
 42
1.0
 92
        8
 66
     7
 43
1.0
 76
     1
 77
     6
 78
     2
 67
     7
 79
     5
170
     0
171
     0
290
     0
174
     0
 93
        1
 44
0.0
173
     0
291
     1
 45
0.0
  0
VISUALSTYLE
  5
39
102
{ACAD_REACTORS
330
2A
102
}
102
{ACAD_XDICTIONARY
360
47B
102
}
330
2A
100
AcDbVisualStyle
  2
Facepattern
 70
    15
 71
     2
 72
     2
 73
     0
 90
        0
 40
0.6
 41
30.0
 62
     5
 63
     7
421
 16777215
 74
     1
 91
        4
 64
     7
 65
   257
 75
     1
175
     1
 42
1.0
 92
        8
 66
     7
 43
1.0
 76
     1
 77
     6
 78
     2
 67
     7
 79
     5
170
     0
171
     0
290
     0
174
     0
 93
        1
 44
0.0
173
     0
291
     1
 45
0.0
  0
VISUALSTYLE
  5
2B
102
{ACAD_REACTORS
330
2A
102
}
102
{ACAD_XDICTIONARY
360
45F
102
}
330
2A
100
AcDbVisualStyle
  2
Flat
 70
     0
 71
     2
 72
     1
 73
     1
 90
        2
 40
0.6
 41
30.0
 62
     5
 63
     7
421
 16777215
 74
     0
 91
        0
 64
     7
 65
   257
 75
     1
175
     1
 42
1.0
 92
        8
 66
     7
 43
1.0
 76
     1
 77
     6
 78
     2
 67
     7
 79
     5
170
     0
171
     0
290
     0
174
     0
 93
       13
 44
0.0
173
     0
291
     1
 45
0.0
  0
VISUALSTYLE
  5
2C
102
{ACAD_REACTORS
330
2A
102
}
102
{ACAD_XDICTIONARY
360
461
102
}
330
2A
100
AcDbVisualStyle
  2
FlatWithEdges
 70
     1
 71
     2
 72
     1
 73
     1
 90
        2
 40
0.6
 41
30.0
 62
     5
 63
     7
421
 16777215
 74
     1
 91
        0
 64
     7
 65
   257
 75
     1
175
     1
 42
1.0
 92
        0
 66
   257
 43
1.0
 76
     1
 77
     6
 78
     2
 67
     7
 79
     5
170
     0
171
     0
290
     0
174
     0
 93
       13
 44
0.0
173
     0
291
     1
 45
0.0
  0
VISUALSTYLE
  5
2D
102
{ACAD_REACTORS
330
2A
102
}
102
{ACAD_XDICTIONARY
360
463
102
}
330
2A
100
AcDbVisualStyle
  2
Gouraud
 70
     2
 71
     2
 72
     2
 73
     1
 90
        2
 40
0.6
 41
30.0
 62
     5
 63
     7
421
 16777215
 74
     0
 91
        0
 64
     7
 65
   257
 75
     1
175
     1
 42
1.0
 92
        0
 66
     7
 43
1.0
 76
     1
 77
     6
 78
     2
 67
     7
 79
     5
170
     0
171
     0
290
     0
174
     0
 93
       13
 44
0.0
173
     0
291
     1
 45
0.0
  0
VISUALSTYLE
  5
2E
102
{ACAD_REACTORS
330
2A
102
}
102
{ACAD_XDICTIONARY
360
465
102
}
330
2A
100
AcDbVisualStyle
  2
GouraudWithEdges
 70
     3
 71
     2
 72
     2
 73
     1
 90
        2
 40
0.6
 41
30.0
 62
     5
 63
     7
421
 16777215
 74
     1
 91
        0
 64
     7
 65
   257
 75
     1
175
     1
 42
1.0
 92
        0
 66
   257
 43
1.0
 76
     1
 77
     6
 78
     2
 67
     7
 79
     5
170
     0
171
     0
290
     0
174
     0
 93
       13
 44
0.0
173
     0
291
     1
 45
0.0
  0
VISUALSTYLE
  5
31
102
{ACAD_REACTORS
330
2A
102
}
102
{ACAD_XDICTIONARY
360
46B
102
}
330
2A
100
AcDbVisualStyle
  2
Hidden
 70
     6
 71
     1
 72
     2
 73
     2
 90
        0
 40
0.6
 41
30.0
 62
     5
 63
     7
421
 16777215
 74
     2
 91
        2
 64
     7
 65
   257
 75
     2
175
     1
 42
40.0
 92
        0
 66
   257
 43
1.0
 76
     1
 77
     6
 78
     2
 67
     7
 79
     3
170
     0
171
     0
290
     0
174
     0
 93
        1
 44
0.0
173
     0
291
     0
 45
0.0
  0
VISUALSTYLE
  5
3B
102
{ACAD_REACTORS
330
2A
102
}
102
{ACAD_XDICTIONARY
360
47F
102
}
330
2A
100
AcDbVisualStyle
  2
JitterOff
 70
    20
 71
     2
 72
     2
 73
     0
 90
        0
 40
0.6
 41
30.0
 62
     5
 63
     7
421
 16777215
 74
     1
 91
        4
 64
     7
 65
   257
 75
     1
175
     1
 42
1.0
 92
       10
 66
     7
 43
1.0
 76
     1
 77
     6
 78
     2
 67
     7
 79
     5
170
     0
171
     0
290
     0
174
     0
 93
        1
 44
0.0
173
     0
291
     1
 45
0.0
  0
VISUALSTYLE
  5
38
102
{ACAD_REACTORS
330
2A
102
}
102
{ACAD_XDICTIONARY
360
479
102
}
330
2A
100
AcDbVisualStyle
  2
Linepattern
 70
    14
 71
     2
 72
     2
 73
     0
 90
        0
 40
0.6
 41
30.0
 62
     5
 63
     7
421
 16777215
 74
     1
 91
        4
 64
     7
 65
   257
 75
     7
175
     7
 42
1.0
 92
        8
 66
     7
 43
1.0
 76
     1
 77
     6
 78
     2
 67
     7
 79
     5
170
     0
171
     0
290
     0
174
     0
 93
        1
 44
0.0
173
     0
291
     1
 45
0.0
  0
VISUALSTYLE
  5
3C
102
{ACAD_REACTORS
330
2A
102
}
102
{ACAD_XDICTIONARY
360
481
102
}
330
2A
100
AcDbVisualStyle
  2
OverhangOff
 70
    21
 71
     2
 72
     2
 73
     0
 90
        0
 40
0.6
 41
30.0
 62
     5
 63
     7
421
 16777215
 74
     1
 91
        4
 64
     7
 65
   257
 75
     1
175
     1
 42
1.0
 92
        9
 66
     7
 43
1.0
 76
     1
 77
     6
 78
     2
 67
     7
 79
     5
170
     0
171
     0
290
     0
174
     0
 93
        1
 44
0.0
173
     0
291
     1
 45
0.0
  0
VISUALSTYLE
  5
33
102
{ACAD_REACTORS
330
2A
102
}
102
{ACAD_XDICTIONARY
360
46F
102
}
330
2A
100
AcDbVisualStyle
  2
Realistic
 70
     8
 71
     2
 72
     3
 73
     0
 90
        2
 40
0.6
 41
30.0
 62
     5
 63
     7
421
 16777215
 74
     0
 91
        0
 64
     7
 65
   257
 75
     1
175
     1
 42
1.0
 92
        8
 66
   257
 43
1.0
 76
     1
 77
     6
 78
     2
 67
     7
 79
     3
170
     0
171
     0
290
     0
174
     0
 93
       13
 44
0.0
173
     0
291
     0
 45
0.0
  0
VISUALSTYLE
  5
42
102
{ACAD_REACTORS
330
2A
102
}
102
{ACAD_XDICTIONARY
360
48D
102
}
330
2A
100
AcDbVisualStyle
  2
Shaded
 70
    27
 71
     2
 72
     2
 73
     1
 90
        2
 40
0.6
 41
30.0
 62
     5
 63
     7
421
 16777215
 74
     0
 91
        4
 64
     7
 65
   257
 75
     1
175
     1
 42
1.0
 92
        8
 66
   257
 43
1.0
 76
     1
 77
     6
 78
     2
 67
     8
425
  7895160
 79
     3
170
     0
171
     0
290
     0
174
     0
 93
        5
 44
0.0
173
     0
291
     0
 45
0.0
  0
VISUALSTYLE
  5
41
102
{ACAD_REACTORS
330
2A
102
}
102
{ACAD_XDICTIONARY
360
48B
102
}
330
2A
100
AcDbVisualStyle
  2
Shaded with edges
 70
    26
 71
     2
 72
     2
 73
     1
 90
        2
 40
0.6
 41
30.0
 62
     5
 63
     7
421
 16777215
 74
     1
 91
       10
 64
     7
 65
   257
 75
     2
175
     1
 42
1.0
 92
        8
 66
   257
 43
1.0
 76
     1
 77
     6
 78
     2
 67
     7
 79
     3
170
     0
171
     0
290
     0
174
     0
 93
        5
 44
0.0
173
     0
291
     0
 45
0.0
  0
VISUALSTYLE
  5
3E
102
{ACAD_REACTORS
330
2A
102
}
102
{ACAD_XDICTIONARY
360
485
102
}
330
2A
100
AcDbVisualStyle
  2
Shades of Gray
 70
    23
 71
     2
 72
     2
 73
     3
 90
        0
 40
0.6
 41
30.0
 62
     5
 63
     7
421
 16777215
 74
     2
 91
        2
 64
     7
 65
     7
 75
     1
175
     1
 42
40.0
 92
        8
 66
     7
 43
1.0
 76
     1
 77
     6
 78
     2
 67
     7
 79
     3
170
     0
171
     0
290
     0
174
     0
 93
        1
 44
0.0
173
     0
291
     0
 45
0.0
  0
VISUALSTYLE
  5
3F
102
{ACAD_REACTORS
330
2A
102
}
102
{ACAD_XDICTIONARY
360
487
102
}
330
2A
100
AcDbVisualStyle
  2
Sketchy
 70
    24
 71
     1
 72
     2
 73
     2
 90
        0
 40
0.6
 41
30.0
 62
     5
 63
     7
421
 16777215
 74
     2
 91
        2
 64
     7
 65
     7
 75
     1
175
     1
 42
40.0
 92
       11
 66
     7
 43
1.0
 76
     1
 77
     6
 78
     2
 67
     7
 79
     6
170
     0
171
     0
290
     0
174
     0
 93
        1
 44
0.0
173
     0
291
     0
 45
0.0
  0
VISUALSTYLE
  5
37
102
{ACAD_REACTORS
330
2A
102
}
102
{ACAD_XDICTIONARY
360
477
102
}
330
2A
100
AcDbVisualStyle
  2
Thicken
 70
    13
 71
     2
 72
     2
 73
     0
 90
        0
 40
0.6
 41
30.0
 62
     5
 63
     7
421
 16777215
 74
     1
 91
        4
 64
     7
 65
   257
 75
     1
175
     1
 42
1.0
 92
       12
 66
     7
 43
1.0
 76
     1
 77
     6
 78
     2
 67
     7
 79
     5
170
     0
171
     0
290
     0
174
     0
 93
        1
 44
0.0
173
     0
291
     1
 45
0.0
  0
VISUALSTYLE
  5
30
102
{ACAD_REACTORS
330
2A
102
}
102
{ACAD_XDICTIONARY
360
469
102
}
330
2A
100
AcDbVisualStyle
  2
Wireframe
 70
     5
 71
     0
 72
     2
 73
     0
 90
        0
 40
0.6
 41
30.0
 62
     5
 63
     7
421
 16777215
 74
     1
 91
        4
 64
     7
 65
   257
 75
     1
175
     1
 42
1.0
 92
        0
 66
   257
 43
1.0
 76
     1
 77
     6
 78
     2
 67
     7
 79
     3
170
     0
171
     0
290
     0
174
     0
 93
        1
 44
0.0
173
     0
291
     0
 45
0.0
  0
VISUALSTYLE
  5
40
102
{ACAD_REACTORS
330
2A
102
}
102
{ACAD_XDICTIONARY
360
489
102
}
330
2A
100
AcDbVisualStyle
  2
X-Ray
 70
    25
 71
     2
 72
     2
 73
     1
 90
        1
 40
0.5
 41
30.0
 62
     5
 63
     7
421
 16777215
 74
     1
 91
        0
 64
     7
 65
   257
 75
     1
175
     1
 42
1.0
 92
        8
 66
     7
 43
1.0
 76
     1
 77
     6
 78
     2
 67
     7
 79
     3
170
     0
171
     0
290
     0
174
     0
 93
       13
 44
0.0
173
     0
291
     0
 45
0.0
  0
DICTIONARYVAR
  5
45D
102
{ACAD_REACTORS
330
45C
102
}
330
45C
100
DictionaryVariables
280
     0
  1
1:1
  0
DICTIONARYVAR
  5
496
102
{ACAD_REACTORS
330
45C
102
}
330
45C
100
DictionaryVariables
280
     0
  1
Standard
  0
DICTIONARYVAR
  5
495
102
{ACAD_REACTORS
330
45C
102
}
330
45C
100
DictionaryVariables
280
     0
  1
Standard
  0
DICTIONARYVAR
  5
45E
102
{ACAD_REACTORS
330
45C
102
}
330
45C
100
DictionaryVariables
280
     0
  1
2
  0
DICTIONARY
  5
492
330
6C
100
AcDbDictionary
280
     1
281
     1
  3
ACAD_XREC_ROUNDTRIP
360
493
  0
DICTIONARY
  5
48F
330
6A
100
AcDbDictionary
280
     1
281
     1
  3
ACAD_ROUNDTRIP_2008_TABLESTYLE_CELLSTYLEMAP
360
490
  0
DICTIONARY
  5
467
330
2F
100
AcDbDictionary
280
     1
281
     1
  3
ACAD_XREC_ROUNDTRIP
360
468
  0
DICTIONARY
  5
46D
330
32
100
AcDbDictionary
280
     1
281
     1
  3
ACAD_XREC_ROUNDTRIP
360
46E
  0
DICTIONARY
  5
475
330
36
100
AcDbDictionary
280
     1
281
     1
  3
ACAD_XREC_ROUNDTRIP
360
476
  0
DICTIONARY
  5
47D
330
3A
100
AcDbDictionary
280
     1
281
     1
  3
ACAD_XREC_ROUNDTRIP
360
47E
  0
DICTIONARY
  5
471
330
34
100
AcDbDictionary
280
     1
281
     1
  3
ACAD_XREC_ROUNDTRIP
360
472
  0
DICTIONARY
  5
473
330
35
100
AcDbDictionary
280
     1
281
     1
  3
ACAD_XREC_ROUNDTRIP
360
474
  0
DICTIONARY
  5
483
330
3D
100
AcDbDictionary
280
     1
281
     1
  3
ACAD_XREC_ROUNDTRIP
360
484
  0
DICTIONARY
  5
47B
330
39
100
AcDbDictionary
280
     1
281
     1
  3
ACAD_XREC_ROUNDTRIP
360
47C
  0
DICTIONARY
  5
45F
330
2B
100
AcDbDictionary
280
     1
281
     1
  3
ACAD_XREC_ROUNDTRIP
360
460
  0
DICTIONARY
  5
461
330
2C
100
AcDbDictionary
280
     1
281
     1
  3
ACAD_XREC_ROUNDTRIP
360
462
  0
DICTIONARY
  5
463
330
2D
100
AcDbDictionary
280
     1
281
     1
  3
ACAD_XREC_ROUNDTRIP
360
464
  0
DICTIONARY
  5
465
330
2E
100
AcDbDictionary
280
     1
281
     1
  3
ACAD_XREC_ROUNDTRIP
360
466
  0
DICTIONARY
  5
46B
330
31
100
AcDbDictionary
280
     1
281
     1
  3
ACAD_XREC_ROUNDTRIP
360
46C
  0
DICTIONARY
  5
47F
330
3B
100
AcDbDictionary
280
     1
281
     1
  3
ACAD_XREC_ROUNDTRIP
360
480
  0
DICTIONARY
  5
479
330
38
100
AcDbDictionary
280
     1
281
     1
  3
ACAD_XREC_ROUNDTRIP
360
47A
  0
DICTIONARY
  5
481
330
3C
100
AcDbDictionary
280
     1
281
     1
  3
ACAD_XREC_ROUNDTRIP
360
482
  0
DICTIONARY
  5
46F
330
33
100
AcDbDictionary
280
     1
281
     1
  3
ACAD_XREC_ROUNDTRIP
360
470
  0
DICTIONARY
  5
48D
330
42
100
AcDbDictionary
280
     1
281
     1
  3
ACAD_XREC_ROUNDTRIP
360
48E
  0
DICTIONARY
  5
48B
330
41
100
AcDbDictionary
280
     1
281
     1
  3
ACAD_XREC_ROUNDTRIP
360
48C
  0
DICTIONARY
  5
485
330
3E
100
AcDbDictionary
280
     1
281
     1
  3
ACAD_XREC_ROUNDTRIP
360
486
  0
DICTIONARY
  5
487
330
3F
100
AcDbDictionary
280
     1
281
     1
  3
ACAD_XREC_ROUNDTRIP
360
488
  0
DICTIONARY
  5
477
330
37
100
AcDbDictionary
280
     1
281
     1
  3
ACAD_XREC_ROUNDTRIP
360
478
  0
DICTIONARY
  5
469
330
30
100
AcDbDictionary
280
     1
281
     1
  3
ACAD_XREC_ROUNDTRIP
360
46A
  0
DICTIONARY
  5
489
330
40
100
AcDbDictionary
280
     1
281
     1
  3
ACAD_XREC_ROUNDTRIP
360
48A
  0
XRECORD
  5
493
102
{ACAD_REACTORS
330
492
102
}
330
492
100
AcDbXrecord
280
     1
102
ACAD_ROUNDTRIP_2010_MLEADER_STYLE
  0
CELLSTYLEMAP
  5
490
102
{ACAD_REACTORS
330
48F
102
}
330
48F
100
AcDbCellStyleMap
 90
        3
300
CELLSTYLE
  1
TABLEFORMAT_BEGIN
 90
        5
170
     1
 91
        0
 92
    32768
 62
   257
 93
        1
300
CONTENTFORMAT
  1
CONTENTFORMAT_BEGIN
 90
        0
 91
        0
 92
        4
 93
        0
300

 40
0.0
140
1.0
 94
        5
 62
     0
340
11
144
0.25
309
CONTENTFORMAT_END
171
     1
301
MARGIN
  1
CELLMARGIN_BEGIN
 40
0.06
 40
0.06
 40
0.06
 40
0.06
 40
0.06
 40
0.06
309
CELLMARGIN_END
 94
        6
 95
        1
302
GRIDFORMAT
  1
GRIDFORMAT_BEGIN
 90
        0
 91
        1
 62
     0
 92
       -2
340
14
 93
        0
 40
0.045
309
GRIDFORMAT_END
 95
        2
302
GRIDFORMAT
  1
GRIDFORMAT_BEGIN
 90
        0
 91
        1
 62
     0
 92
       -2
340
14
 93
        0
 40
0.045
309
GRIDFORMAT_END
 95
        4
302
GRIDFORMAT
  1
GRIDFORMAT_BEGIN
 90
        0
 91
        1
 62
     0
 92
       -2
340
14
 93
        0
 40
0.045
309
GRIDFORMAT_END
 95
        8
302
GRIDFORMAT
  1
GRIDFORMAT_BEGIN
 90
        0
 91
        1
 62
     0
 92
       -2
340
14
 93
        0
 40
0.045
309
GRIDFORMAT_END
 95
       16
302
GRIDFORMAT
  1
GRIDFORMAT_BEGIN
 90
        0
 91
        1
 62
     0
 92
       -2
340
14
 93
        0
 40
0.045
309
GRIDFORMAT_END
 95
       32
302
GRIDFORMAT
  1
GRIDFORMAT_BEGIN
 90
        0
 91
        1
 62
     0
 92
       -2
340
14
 93
        0
 40
0.045
309
GRIDFORMAT_END
309
TABLEFORMAT_END
  1
CELLSTYLE_BEGIN
 90
        1
 91
        1
300
_TITLE
309
CELLSTYLE_END
300
CELLSTYLE
  1
TABLEFORMAT_BEGIN
 90
        5
170
     1
 91
        0
 92
        0
 62
   257
 93
        1
300
CONTENTFORMAT
  1
CONTENTFORMAT_BEGIN
 90
        0
 91
        0
 92
        4
 93
        0
300

 40
0.0
140
1.0
 94
        5
 62
     0
340
11
144
0.18
309
CONTENTFORMAT_END
171
     1
301
MARGIN
  1
CELLMARGIN_BEGIN
 40
0.06
 40
0.06
 40
0.06
 40
0.06
 40
0.06
 40
0.06
309
CELLMARGIN_END
 94
        6
 95
        1
302
GRIDFORMAT
  1
GRIDFORMAT_BEGIN
 90
        0
 91
        1
 62
     0
 92
       -2
340
14
 93
        0
 40
0.045
309
GRIDFORMAT_END
 95
        2
302
GRIDFORMAT
  1
GRIDFORMAT_BEGIN
 90
        0
 91
        1
 62
     0
 92
       -2
340
14
 93
        0
 40
0.045
309
GRIDFORMAT_END
 95
        4
302
GRIDFORMAT
  1
GRIDFORMAT_BEGIN
 90
        0
 91
        1
 62
     0
 92
       -2
340
14
 93
        0
 40
0.045
309
GRIDFORMAT_END
 95
        8
302
GRIDFORMAT
  1
GRIDFORMAT_BEGIN
 90
        0
 91
        1
 62
     0
 92
       -2
340
14
 93
        0
 40
0.045
309
GRIDFORMAT_END
 95
       16
302
GRIDFORMAT
  1
GRIDFORMAT_BEGIN
 90
        0
 91
        1
 62
     0
 92
       -2
340
14
 93
        0
 40
0.045
309
GRIDFORMAT_END
 95
       32
302
GRIDFORMAT
  1
GRIDFORMAT_BEGIN
 90
        0
 91
        1
 62
     0
 92
       -2
340
14
 93
        0
 40
0.045
309
GRIDFORMAT_END
309
TABLEFORMAT_END
  1
CELLSTYLE_BEGIN
 90
        2
 91
        1
300
_HEADER
309
CELLSTYLE_END
300
CELLSTYLE
  1
TABLEFORMAT_BEGIN
 90
        5
170
     1
 91
        0
 92
        0
 62
   257
 93
        1
300
CONTENTFORMAT
  1
CONTENTFORMAT_BEGIN
 90
        0
 91
        0
 92
        4
 93
        0
300

 40
0.0
140
1.0
 94
        2
 62
     0
340
11
144
0.18
309
CONTENTFORMAT_END
171
     1
301
MARGIN
  1
CELLMARGIN_BEGIN
 40
0.06
 40
0.06
 40
0.06
 40
0.06
 40
0.06
 40
0.06
309
CELLMARGIN_END
 94
        6
 95
        1
302
GRIDFORMAT
  1
GRIDFORMAT_BEGIN
 90
        0
 91
        1
 62
     0
 92
       -2
340
14
 93
        0
 40
0.045
309
GRIDFORMAT_END
 95
        2
302
GRIDFORMAT
  1
GRIDFORMAT_BEGIN
 90
        0
 91
        1
 62
     0
 92
       -2
340
14
 93
        0
 40
0.045
309
GRIDFORMAT_END
 95
        4
302
GRIDFORMAT
  1
GRIDFORMAT_BEGIN
 90
        0
 91
        1
 62
     0
 92
       -2
340
14
 93
        0
 40
0.045
309
GRIDFORMAT_END
 95
        8
302
GRIDFORMAT
  1
GRIDFORMAT_BEGIN
 90
        0
 91
        1
 62
     0
 92
       -2
340
14
 93
        0
 40
0.045
309
GRIDFORMAT_END
 95
       16
302
GRIDFORMAT
  1
GRIDFORMAT_BEGIN
 90
        0
 91
        1
 62
     0
 92
       -2
340
14
 93
        0
 40
0.045
309
GRIDFORMAT_END
 95
       32
302
GRIDFORMAT
  1
GRIDFORMAT_BEGIN
 90
        0
 91
        1
 62
     0
 92
       -2
340
14
 93
        0
 40
0.045
309
GRIDFORMAT_END
309
TABLEFORMAT_END
  1
CELLSTYLE_BEGIN
 90
        3
 91
        2
300
_DATA
309
CELLSTYLE_END
  0
XRECORD
  5
468
102
{ACAD_REACTORS
330
467
102
}
330
467
100
AcDbXrecord
280
     1
102
RTVSPropertyOp0
 70
     1
102
RTVSPropertyOp1
 70
     1
102
RTVSPropertyOp2
 70
     1
102
RTVSPropertyOp3
 70
     1
102
RTVSPropertyOp4
 70
     1
102
RTVSPropertyOp5
 70
     1
102
RTVSPropertyOp6
 70
     1
102
RTVSPropertyOp7
 70
     1
102
RTVSPropertyOp8
 70
     1
102
RTVSPropertyOp9
 70
     1
102
RTVSPropertyOp10
 70
     1
102
RTVSPropertyOp11
 70
     1
102
RTVSPropertyOp12
 70
     1
102
RTVSPropertyOp13
 70
     1
102
RTVSPropertyOp14
 70
     1
102
RTVSPropertyOp15
 70
     1
102
RTVSPropertyOp16
 70
     1
102
RTVSPropertyOp17
 70
     1
102
RTVSPropertyOp18
 70
     1
102
RTVSPropertyOp19
 70
     1
102
RTVSPropertyOp20
 70
     1
102
RTVSPropertyOp21
 70
     1
102
RTVSPropertyOp22
 70
     1
102
RTVSPropertyOp23
 70
     1
102
RTVSPropertyOp24
 70
     1
102
RTVSPropertyOp25
 70
     1
102
RTVSPropertyOp26
 70
     1
102
RTVSPropertyOp27
 70
     1
102
RTVSPropertyOp28
 70
     1
102
RTVSPropertyOp29
 70
     1
102
RTVSPropertyOp30
 70
     1
102
RTVSPropertyOp31
 70
     1
102
RTVSPropertyOp32
 70
     1
102
RTVSPropertyOp33
 70
     1
102
RTVSPropertyOp34
 70
     1
102
RTVSPropertyOp35
 70
     1
102
RTVSPropertyOp36
 70
     1
102
RTVSPropertyOp37
 70
     1
102
RTVSPropertyOp38
 70
     1
102
RTVSPropertyOp39
 70
     1
102
RTVSPropertyOp40
 70
     1
102
RTVSPropertyOp41
 70
     1
102
RTVSPropertyOp42
 70
     1
102
RTVSPropertyOp43
 70
     1
102
RTVSPropertyOp44
 70
     1
102
RTVSPropertyOp45
 70
     1
102
RTVSPropertyOp46
 70
     1
102
RTVSPropertyOp47
 70
     1
102
RTVSPropertyOp48
 70
     1
102
RTVSPropertyOp49
 70
     1
102
RTVSPropertyOp50
 70
     1
102
RTVSPropertyOp51
 70
     0
102
RTVSPropertyOp52
 70
     0
102
RTVSPropertyOp53
 70
     1
102
RTVSPropertyOp54
 70
     1
102
RTVSPropertyOp55
 70
     1
102
RTVSPropertyOp56
 70
     1
102
RTVSPropertyOp57
 70
     1
102
RTVSPost2010Prop28
280
     1
102
RTVSPost2010PropOp28
 70
     1
102
RTVSPost2010Prop29
280
     1
102
RTVSPost2010PropOp29
 70
     1
102
RTVSPost2010Prop30
280
     0
102
RTVSPost2010PropOp30
 70
     1
102
RTVSPost2010Prop31
280
     0
102
RTVSPost2010PropOp31
 70
     1
102
RTVSPost2010Prop32
280
     0
102
RTVSPost2010PropOp32
 70
     1
102
RTVSPost2010Prop33
280
     0
102
RTVSPost2010PropOp33
 70
     1
102
RTVSPost2010Prop34
280
     0
102
RTVSPost2010PropOp34
 70
     1
102
RTVSPost2010Prop35
280
     0
102
RTVSPost2010PropOp35
 70
     1
102
RTVSPost2010Prop36
280
     0
102
RTVSPost2010PropOp36
 70
     1
102
RTVSPost2010Prop37
 90
       50
102
RTVSPost2010PropOp37
 70
     1
102
RTVSPost2010Prop38
140
0.0
102
RTVSPost2010PropOp38
 70
     1
102
RTVSPost2010Prop39
140
1.0
102
RTVSPost2010PropOp39
 70
     1
102
RTVSPost2010Prop40
 90
        0
102
RTVSPost2010PropOp40
 70
     1
102
RTVSPost2010Prop41ColorIndex
 90
      178
102
RTVSPost2010Prop41ColorRGB
 90
        0
102
RTVSPost2010PropOp41
 70
     1
102
RTVSPost2010Prop42
 90
       50
102
RTVSPost2010PropOp42
 70
     1
102
RTVSPost2010Prop43
 90
        3
102
RTVSPost2010PropOp43
 70
     1
102
RTVSPost2010Prop44ColorIndex
 90
        5
102
RTVSPost2010Prop44ColorRGB
 90
      255
102
RTVSPost2010PropOp44
 70
     1
102
RTVSPost2010Prop45
280
     0
102
RTVSPost2010PropOp45
 70
     1
102
RTVSPost2010Prop46
 90
       50
102
RTVSPost2010PropOp46
 70
     1
102
RTVSPost2010Prop47
 90
       50
102
RTVSPost2010PropOp47
 70
     1
102
RTVSPost2010Prop48
 90
       50
102
RTVSPost2010PropOp48
 70
     1
102
RTVSPost2010Prop49
280
     0
102
RTVSPost2010PropOp49
 70
     1
102
RTVSPost2010Prop50
 90
       50
102
RTVSPost2010PropOp50
 70
     1
102
RTVSPost2010Prop51ColorIndex
 90
      256
102
RTVSPost2010Prop51ColorRGB
 90
-16777216
102
RTVSPost2010PropOp51
 70
     0
102
RTVSPost2010Prop52
140
1.0
102
RTVSPost2010PropOp52
 70
     0
102
RTVSPost2010Prop53
 90
        2
102
RTVSPost2010PropOp53
 70
     1
102
RTVSPost2010Prop54
  1
strokes_ogs.tif
102
RTVSPost2010PropOp54
 70
     1
102
RTVSPost2010Prop55
280
     0
102
RTVSPost2010PropOp55
 70
     1
102
RTVSPost2010Prop56
140
1.0
102
RTVSPost2010PropOp56
 70
     1
102
RTVSPost2010Prop57
140
1.0
102
RTVSPost2010PropOp57
 70
     1
  0
XRECORD
  5
46E
102
{ACAD_REACTORS
330
46D
102
}
330
46D
100
AcDbXrecord
280
     1
102
RTVSPropertyOp0
 70
     1
102
RTVSPropertyOp1
 70
     1
102
RTVSPropertyOp2
 70
     1
102
RTVSPropertyOp3
 70
     1
102
RTVSPropertyOp4
 70
     1
102
RTVSPropertyOp5
 70
     1
102
RTVSPropertyOp6
 70
     1
102
RTVSPropertyOp7
 70
     1
102
RTVSPropertyOp8
 70
     1
102
RTVSPropertyOp9
 70
     1
102
RTVSPropertyOp10
 70
     1
102
RTVSPropertyOp11
 70
     1
102
RTVSPropertyOp12
 70
     1
102
RTVSPropertyOp13
 70
     1
102
RTVSPropertyOp14
 70
     1
102
RTVSPropertyOp15
 70
     1
102
RTVSPropertyOp16
 70
     1
102
RTVSPropertyOp17
 70
     1
102
RTVSPropertyOp18
 70
     1
102
RTVSPropertyOp19
 70
     1
102
RTVSPropertyOp20
 70
     1
102
RTVSPropertyOp21
 70
     1
102
RTVSPropertyOp22
 70
     1
102
RTVSPropertyOp23
 70
     1
102
RTVSPropertyOp24
 70
     1
102
RTVSPropertyOp25
 70
     1
102
RTVSPropertyOp26
 70
     1
102
RTVSPropertyOp27
 70
     1
102
RTVSPropertyOp28
 70
     1
102
RTVSPropertyOp29
 70
     1
102
RTVSPropertyOp30
 70
     1
102
RTVSPropertyOp31
 70
     1
102
RTVSPropertyOp32
 70
     1
102
RTVSPropertyOp33
 70
     1
102
RTVSPropertyOp34
 70
     1
102
RTVSPropertyOp35
 70
     1
102
RTVSPropertyOp36
 70
     1
102
RTVSPropertyOp37
 70
     1
102
RTVSPropertyOp38
 70
     1
102
RTVSPropertyOp39
 70
     1
102
RTVSPropertyOp40
 70
     1
102
RTVSPropertyOp41
 70
     1
102
RTVSPropertyOp42
 70
     1
102
RTVSPropertyOp43
 70
     1
102
RTVSPropertyOp44
 70
     1
102
RTVSPropertyOp45
 70
     1
102
RTVSPropertyOp46
 70
     1
102
RTVSPropertyOp47
 70
     1
102
RTVSPropertyOp48
 70
     1
102
RTVSPropertyOp49
 70
     1
102
RTVSPropertyOp50
 70
     1
102
RTVSPropertyOp51
 70
     0
102
RTVSPropertyOp52
 70
     0
102
RTVSPropertyOp53
 70
     1
102
RTVSPropertyOp54
 70
     1
102
RTVSPropertyOp55
 70
     1
102
RTVSPropertyOp56
 70
     1
102
RTVSPropertyOp57
 70
     1
102
RTVSPost2010Prop28
280
     0
102
RTVSPost2010PropOp28
 70
     1
102
RTVSPost2010Prop29
280
     1
102
RTVSPost2010PropOp29
 70
     1
102
RTVSPost2010Prop30
280
     1
102
RTVSPost2010PropOp30
 70
     1
102
RTVSPost2010Prop31
280
     0
102
RTVSPost2010PropOp31
 70
     1
102
RTVSPost2010Prop32
280
     0
102
RTVSPost2010PropOp32
 70
     1
102
RTVSPost2010Prop33
280
     0
102
RTVSPost2010PropOp33
 70
     1
102
RTVSPost2010Prop34
280
     0
102
RTVSPost2010PropOp34
 70
     1
102
RTVSPost2010Prop35
280
     0
102
RTVSPost2010PropOp35
 70
     1
102
RTVSPost2010Prop36
280
     0
102
RTVSPost2010PropOp36
 70
     1
102
RTVSPost2010Prop37
 90
       50
102
RTVSPost2010PropOp37
 70
     1
102
RTVSPost2010Prop38
140
0.0
102
RTVSPost2010PropOp38
 70
     1
102
RTVSPost2010Prop39
140
1.0
102
RTVSPost2010PropOp39
 70
     1
102
RTVSPost2010Prop40
 90
        0
102
RTVSPost2010PropOp40
 70
     1
102
RTVSPost2010Prop41ColorIndex
 90
      178
102
RTVSPost2010Prop41ColorRGB
 90
        0
102
RTVSPost2010PropOp41
 70
     1
102
RTVSPost2010Prop42
 90
       50
102
RTVSPost2010PropOp42
 70
     1
102
RTVSPost2010Prop43
 90
        3
102
RTVSPost2010PropOp43
 70
     1
102
RTVSPost2010Prop44ColorIndex
 90
        5
102
RTVSPost2010Prop44ColorRGB
 90
      255
102
RTVSPost2010PropOp44
 70
     1
102
RTVSPost2010Prop45
280
     0
102
RTVSPost2010PropOp45
 70
     1
102
RTVSPost2010Prop46
 90
       50
102
RTVSPost2010PropOp46
 70
     1
102
RTVSPost2010Prop47
 90
       50
102
RTVSPost2010PropOp47
 70
     1
102
RTVSPost2010Prop48
 90
       50
102
RTVSPost2010PropOp48
 70
     1
102
RTVSPost2010Prop49
280
     0
102
RTVSPost2010PropOp49
 70
     1
102
RTVSPost2010Prop50
 90
       50
102
RTVSPost2010PropOp50
 70
     1
102
RTVSPost2010Prop51ColorIndex
 90
      256
102
RTVSPost2010Prop51ColorRGB
 90
-16777216
102
RTVSPost2010PropOp51
 70
     0
102
RTVSPost2010Prop52
140
1.0
102
RTVSPost2010PropOp52
 70
     0
102
RTVSPost2010Prop53
 90
        2
102
RTVSPost2010PropOp53
 70
     1
102
RTVSPost2010Prop54
  1
strokes_ogs.tif
102
RTVSPost2010PropOp54
 70
     1
102
RTVSPost2010Prop55
280
     0
102
RTVSPost2010PropOp55
 70
     1
102
RTVSPost2010Prop56
140
1.0
102
RTVSPost2010PropOp56
 70
     1
102
RTVSPost2010Prop57
140
1.0
102
RTVSPost2010PropOp57
 70
     1
  0
XRECORD
  5
476
102
{ACAD_REACTORS
330
475
102
}
330
475
100
AcDbXrecord
280
     1
102
RTVSPropertyOp0
 70
     1
102
RTVSPropertyOp1
 70
     1
102
RTVSPropertyOp2
 70
     1
102
RTVSPropertyOp3
 70
     1
102
RTVSPropertyOp4
 70
     1
102
RTVSPropertyOp5
 70
     1
102
RTVSPropertyOp6
 70
     1
102
RTVSPropertyOp7
 70
     1
102
RTVSPropertyOp8
 70
     1
102
RTVSPropertyOp9
 70
     1
102
RTVSPropertyOp10
 70
     1
102
RTVSPropertyOp11
 70
     1
102
RTVSPropertyOp12
 70
     1
102
RTVSPropertyOp13
 70
     1
102
RTVSPropertyOp14
 70
     1
102
RTVSPropertyOp15
 70
     1
102
RTVSPropertyOp16
 70
     1
102
RTVSPropertyOp17
 70
     1
102
RTVSPropertyOp18
 70
     1
102
RTVSPropertyOp19
 70
     1
102
RTVSPropertyOp20
 70
     1
102
RTVSPropertyOp21
 70
     1
102
RTVSPropertyOp22
 70
     1
102
RTVSPropertyOp23
 70
     1
102
RTVSPropertyOp24
 70
     1
102
RTVSPropertyOp25
 70
     1
102
RTVSPropertyOp26
 70
     1
102
RTVSPropertyOp27
 70
     1
102
RTVSPropertyOp28
 70
     1
102
RTVSPropertyOp29
 70
     1
102
RTVSPropertyOp30
 70
     1
102
RTVSPropertyOp31
 70
     1
102
RTVSPropertyOp32
 70
     1
102
RTVSPropertyOp33
 70
     1
102
RTVSPropertyOp34
 70
     1
102
RTVSPropertyOp35
 70
     1
102
RTVSPropertyOp36
 70
     1
102
RTVSPropertyOp37
 70
     1
102
RTVSPropertyOp38
 70
     1
102
RTVSPropertyOp39
 70
     1
102
RTVSPropertyOp40
 70
     1
102
RTVSPropertyOp41
 70
     1
102
RTVSPropertyOp42
 70
     1
102
RTVSPropertyOp43
 70
     1
102
RTVSPropertyOp44
 70
     1
102
RTVSPropertyOp45
 70
     1
102
RTVSPropertyOp46
 70
     1
102
RTVSPropertyOp47
 70
     1
102
RTVSPropertyOp48
 70
     1
102
RTVSPropertyOp49
 70
     1
102
RTVSPropertyOp50
 70
     1
102
RTVSPropertyOp51
 70
     0
102
RTVSPropertyOp52
 70
     0
102
RTVSPropertyOp53
 70
     1
102
RTVSPropertyOp54
 70
     1
102
RTVSPropertyOp55
 70
     1
102
RTVSPropertyOp56
 70
     1
102
RTVSPropertyOp57
 70
     1
102
RTVSPost2010Prop28
280
     0
102
RTVSPost2010PropOp28
 70
     1
102
RTVSPost2010Prop29
280
     1
102
RTVSPost2010PropOp29
 70
     1
102
RTVSPost2010Prop30
280
     1
102
RTVSPost2010PropOp30
 70
     1
102
RTVSPost2010Prop31
280
     0
102
RTVSPost2010PropOp31
 70
     1
102
RTVSPost2010Prop32
280
     0
102
RTVSPost2010PropOp32
 70
     1
102
RTVSPost2010Prop33
280
     0
102
RTVSPost2010PropOp33
 70
     1
102
RTVSPost2010Prop34
280
     0
102
RTVSPost2010PropOp34
 70
     1
102
RTVSPost2010Prop35
280
     0
102
RTVSPost2010PropOp35
 70
     1
102
RTVSPost2010Prop36
280
     0
102
RTVSPost2010PropOp36
 70
     1
102
RTVSPost2010Prop37
 90
       50
102
RTVSPost2010PropOp37
 70
     1
102
RTVSPost2010Prop38
140
0.0
102
RTVSPost2010PropOp38
 70
     1
102
RTVSPost2010Prop39
140
1.0
102
RTVSPost2010PropOp39
 70
     1
102
RTVSPost2010Prop40
 90
        0
102
RTVSPost2010PropOp40
 70
     1
102
RTVSPost2010Prop41ColorIndex
 90
      178
102
RTVSPost2010Prop41ColorRGB
 90
        0
102
RTVSPost2010PropOp41
 70
     1
102
RTVSPost2010Prop42
 90
       50
102
RTVSPost2010PropOp42
 70
     1
102
RTVSPost2010Prop43
 90
        3
102
RTVSPost2010PropOp43
 70
     1
102
RTVSPost2010Prop44ColorIndex
 90
        5
102
RTVSPost2010Prop44ColorRGB
 90
      255
102
RTVSPost2010PropOp44
 70
     1
102
RTVSPost2010Prop45
280
     0
102
RTVSPost2010PropOp45
 70
     1
102
RTVSPost2010Prop46
 90
       50
102
RTVSPost2010PropOp46
 70
     1
102
RTVSPost2010Prop47
 90
       50
102
RTVSPost2010PropOp47
 70
     1
102
RTVSPost2010Prop48
 90
       50
102
RTVSPost2010PropOp48
 70
     1
102
RTVSPost2010Prop49
280
     0
102
RTVSPost2010PropOp49
 70
     1
102
RTVSPost2010Prop50
 90
       50
102
RTVSPost2010PropOp50
 70
     1
102
RTVSPost2010Prop51ColorIndex
 90
      256
102
RTVSPost2010Prop51ColorRGB
 90
-16777216
102
RTVSPost2010PropOp51
 70
     0
102
RTVSPost2010Prop52
140
1.0
102
RTVSPost2010PropOp52
 70
     0
102
RTVSPost2010Prop53
 90
        2
102
RTVSPost2010PropOp53
 70
     1
102
RTVSPost2010Prop54
  1
strokes_ogs.tif
102
RTVSPost2010PropOp54
 70
     1
102
RTVSPost2010Prop55
280
     0
102
RTVSPost2010PropOp55
 70
     1
102
RTVSPost2010Prop56
140
1.0
102
RTVSPost2010PropOp56
 70
     1
102
RTVSPost2010Prop57
140
1.0
102
RTVSPost2010PropOp57
 70
     1
  0
XRECORD
  5
47E
102
{ACAD_REACTORS
330
47D
102
}
330
47D
100
AcDbXrecord
280
     1
102
RTVSPropertyOp0
 70
     1
102
RTVSPropertyOp1
 70
     1
102
RTVSPropertyOp2
 70
     1
102
RTVSPropertyOp3
 70
     1
102
RTVSPropertyOp4
 70
     1
102
RTVSPropertyOp5
 70
     1
102
RTVSPropertyOp6
 70
     1
102
RTVSPropertyOp7
 70
     1
102
RTVSPropertyOp8
 70
     1
102
RTVSPropertyOp9
 70
     1
102
RTVSPropertyOp10
 70
     1
102
RTVSPropertyOp11
 70
     1
102
RTVSPropertyOp12
 70
     1
102
RTVSPropertyOp13
 70
     1
102
RTVSPropertyOp14
 70
     1
102
RTVSPropertyOp15
 70
     1
102
RTVSPropertyOp16
 70
     1
102
RTVSPropertyOp17
 70
     1
102
RTVSPropertyOp18
 70
     1
102
RTVSPropertyOp19
 70
     1
102
RTVSPropertyOp20
 70
     1
102
RTVSPropertyOp21
 70
     1
102
RTVSPropertyOp22
 70
     1
102
RTVSPropertyOp23
 70
     1
102
RTVSPropertyOp24
 70
     1
102
RTVSPropertyOp25
 70
     1
102
RTVSPropertyOp26
 70
     1
102
RTVSPropertyOp27
 70
     1
102
RTVSPropertyOp28
 70
     1
102
RTVSPropertyOp29
 70
     1
102
RTVSPropertyOp30
 70
     1
102
RTVSPropertyOp31
 70
     1
102
RTVSPropertyOp32
 70
     1
102
RTVSPropertyOp33
 70
     1
102
RTVSPropertyOp34
 70
     1
102
RTVSPropertyOp35
 70
     1
102
RTVSPropertyOp36
 70
     1
102
RTVSPropertyOp37
 70
     1
102
RTVSPropertyOp38
 70
     1
102
RTVSPropertyOp39
 70
     1
102
RTVSPropertyOp40
 70
     1
102
RTVSPropertyOp41
 70
     1
102
RTVSPropertyOp42
 70
     1
102
RTVSPropertyOp43
 70
     1
102
RTVSPropertyOp44
 70
     1
102
RTVSPropertyOp45
 70
     1
102
RTVSPropertyOp46
 70
     1
102
RTVSPropertyOp47
 70
     1
102
RTVSPropertyOp48
 70
     1
102
RTVSPropertyOp49
 70
     1
102
RTVSPropertyOp50
 70
     1
102
RTVSPropertyOp51
 70
     0
102
RTVSPropertyOp52
 70
     0
102
RTVSPropertyOp53
 70
     1
102
RTVSPropertyOp54
 70
     1
102
RTVSPropertyOp55
 70
     1
102
RTVSPropertyOp56
 70
     1
102
RTVSPropertyOp57
 70
     1
102
RTVSPost2010Prop28
280
     0
102
RTVSPost2010PropOp28
 70
     1
102
RTVSPost2010Prop29
280
     1
102
RTVSPost2010PropOp29
 70
     1
102
RTVSPost2010Prop30
280
     1
102
RTVSPost2010PropOp30
 70
     1
102
RTVSPost2010Prop31
280
     0
102
RTVSPost2010PropOp31
 70
     1
102
RTVSPost2010Prop32
280
     0
102
RTVSPost2010PropOp32
 70
     1
102
RTVSPost2010Prop33
280
     0
102
RTVSPost2010PropOp33
 70
     1
102
RTVSPost2010Prop34
280
     0
102
RTVSPost2010PropOp34
 70
     1
102
RTVSPost2010Prop35
280
     0
102
RTVSPost2010PropOp35
 70
     1
102
RTVSPost2010Prop36
280
     0
102
RTVSPost2010PropOp36
 70
     1
102
RTVSPost2010Prop37
 90
       50
102
RTVSPost2010PropOp37
 70
     1
102
RTVSPost2010Prop38
140
0.0
102
RTVSPost2010PropOp38
 70
     1
102
RTVSPost2010Prop39
140
1.0
102
RTVSPost2010PropOp39
 70
     1
102
RTVSPost2010Prop40
 90
        0
102
RTVSPost2010PropOp40
 70
     1
102
RTVSPost2010Prop41ColorIndex
 90
      178
102
RTVSPost2010Prop41ColorRGB
 90
        0
102
RTVSPost2010PropOp41
 70
     1
102
RTVSPost2010Prop42
 90
       50
102
RTVSPost2010PropOp42
 70
     1
102
RTVSPost2010Prop43
 90
        3
102
RTVSPost2010PropOp43
 70
     1
102
RTVSPost2010Prop44ColorIndex
 90
        5
102
RTVSPost2010Prop44ColorRGB
 90
      255
102
RTVSPost2010PropOp44
 70
     1
102
RTVSPost2010Prop45
280
     0
102
RTVSPost2010PropOp45
 70
     1
102
RTVSPost2010Prop46
 90
       50
102
RTVSPost2010PropOp46
 70
     1
102
RTVSPost2010Prop47
 90
       50
102
RTVSPost2010PropOp47
 70
     1
102
RTVSPost2010Prop48
 90
       50
102
RTVSPost2010PropOp48
 70
     1
102
RTVSPost2010Prop49
280
     0
102
RTVSPost2010PropOp49
 70
     1
102
RTVSPost2010Prop50
 90
       50
102
RTVSPost2010PropOp50
 70
     1
102
RTVSPost2010Prop51ColorIndex
 90
      256
102
RTVSPost2010Prop51ColorRGB
 90
-16777216
102
RTVSPost2010PropOp51
 70
     0
102
RTVSPost2010Prop52
140
1.0
102
RTVSPost2010PropOp52
 70
     0
102
RTVSPost2010Prop53
 90
        2
102
RTVSPost2010PropOp53
 70
     1
102
RTVSPost2010Prop54
  1
strokes_ogs.tif
102
RTVSPost2010PropOp54
 70
     1
102
RTVSPost2010Prop55
280
     0
102
RTVSPost2010PropOp55
 70
     1
102
RTVSPost2010Prop56
140
1.0
102
RTVSPost2010PropOp56
 70
     1
102
RTVSPost2010Prop57
140
1.0
102
RTVSPost2010PropOp57
 70
     1
  0
XRECORD
  5
472
102
{ACAD_REACTORS
330
471
102
}
330
471
100
AcDbXrecord
280
     1
102
RTVSPropertyOp0
 70
     1
102
RTVSPropertyOp1
 70
     1
102
RTVSPropertyOp2
 70
     1
102
RTVSPropertyOp3
 70
     1
102
RTVSPropertyOp4
 70
     1
102
RTVSPropertyOp5
 70
     1
102
RTVSPropertyOp6
 70
     1
102
RTVSPropertyOp7
 70
     1
102
RTVSPropertyOp8
 70
     1
102
RTVSPropertyOp9
 70
     1
102
RTVSPropertyOp10
 70
     1
102
RTVSPropertyOp11
 70
     1
102
RTVSPropertyOp12
 70
     1
102
RTVSPropertyOp13
 70
     1
102
RTVSPropertyOp14
 70
     1
102
RTVSPropertyOp15
 70
     1
102
RTVSPropertyOp16
 70
     1
102
RTVSPropertyOp17
 70
     1
102
RTVSPropertyOp18
 70
     1
102
RTVSPropertyOp19
 70
     1
102
RTVSPropertyOp20
 70
     1
102
RTVSPropertyOp21
 70
     1
102
RTVSPropertyOp22
 70
     1
102
RTVSPropertyOp23
 70
     1
102
RTVSPropertyOp24
 70
     1
102
RTVSPropertyOp25
 70
     1
102
RTVSPropertyOp26
 70
     1
102
RTVSPropertyOp27
 70
     1
102
RTVSPropertyOp28
 70
     1
102
RTVSPropertyOp29
 70
     1
102
RTVSPropertyOp30
 70
     1
102
RTVSPropertyOp31
 70
     1
102
RTVSPropertyOp32
 70
     1
102
RTVSPropertyOp33
 70
     1
102
RTVSPropertyOp34
 70
     1
102
RTVSPropertyOp35
 70
     1
102
RTVSPropertyOp36
 70
     1
102
RTVSPropertyOp37
 70
     1
102
RTVSPropertyOp38
 70
     1
102
RTVSPropertyOp39
 70
     1
102
RTVSPropertyOp40
 70
     1
102
RTVSPropertyOp41
 70
     1
102
RTVSPropertyOp42
 70
     1
102
RTVSPropertyOp43
 70
     1
102
RTVSPropertyOp44
 70
     1
102
RTVSPropertyOp45
 70
     1
102
RTVSPropertyOp46
 70
     1
102
RTVSPropertyOp47
 70
     1
102
RTVSPropertyOp48
 70
     1
102
RTVSPropertyOp49
 70
     1
102
RTVSPropertyOp50
 70
     1
102
RTVSPropertyOp51
 70
     0
102
RTVSPropertyOp52
 70
     0
102
RTVSPropertyOp53
 70
     1
102
RTVSPropertyOp54
 70
     1
102
RTVSPropertyOp55
 70
     1
102
RTVSPropertyOp56
 70
     1
102
RTVSPropertyOp57
 70
     1
102
RTVSPost2010Prop28
280
     0
102
RTVSPost2010PropOp28
 70
     1
102
RTVSPost2010Prop29
280
     1
102
RTVSPost2010PropOp29
 70
     1
102
RTVSPost2010Prop30
280
     1
102
RTVSPost2010PropOp30
 70
     1
102
RTVSPost2010Prop31
280
     0
102
RTVSPost2010PropOp31
 70
     1
102
RTVSPost2010Prop32
280
     0
102
RTVSPost2010PropOp32
 70
     1
102
RTVSPost2010Prop33
280
     0
102
RTVSPost2010PropOp33
 70
     1
102
RTVSPost2010Prop34
280
     0
102
RTVSPost2010PropOp34
 70
     1
102
RTVSPost2010Prop35
280
     0
102
RTVSPost2010PropOp35
 70
     1
102
RTVSPost2010Prop36
280
     0
102
RTVSPost2010PropOp36
 70
     1
102
RTVSPost2010Prop37
 90
       50
102
RTVSPost2010PropOp37
 70
     1
102
RTVSPost2010Prop38
140
0.0
102
RTVSPost2010PropOp38
 70
     1
102
RTVSPost2010Prop39
140
1.0
102
RTVSPost2010PropOp39
 70
     1
102
RTVSPost2010Prop40
 90
        0
102
RTVSPost2010PropOp40
 70
     1
102
RTVSPost2010Prop41ColorIndex
 90
      178
102
RTVSPost2010Prop41ColorRGB
 90
        0
102
RTVSPost2010PropOp41
 70
     1
102
RTVSPost2010Prop42
 90
       50
102
RTVSPost2010PropOp42
 70
     1
102
RTVSPost2010Prop43
 90
        3
102
RTVSPost2010PropOp43
 70
     1
102
RTVSPost2010Prop44ColorIndex
 90
        5
102
RTVSPost2010Prop44ColorRGB
 90
      255
102
RTVSPost2010PropOp44
 70
     1
102
RTVSPost2010Prop45
280
     0
102
RTVSPost2010PropOp45
 70
     1
102
RTVSPost2010Prop46
 90
       50
102
RTVSPost2010PropOp46
 70
     1
102
RTVSPost2010Prop47
 90
       50
102
RTVSPost2010PropOp47
 70
     1
102
RTVSPost2010Prop48
 90
       50
102
RTVSPost2010PropOp48
 70
     1
102
RTVSPost2010Prop49
280
     0
102
RTVSPost2010PropOp49
 70
     1
102
RTVSPost2010Prop50
 90
       50
102
RTVSPost2010PropOp50
 70
     1
102
RTVSPost2010Prop51ColorIndex
 90
      256
102
RTVSPost2010Prop51ColorRGB
 90
-16777216
102
RTVSPost2010PropOp51
 70
     0
102
RTVSPost2010Prop52
140
1.0
102
RTVSPost2010PropOp52
 70
     0
102
RTVSPost2010Prop53
 90
        2
102
RTVSPost2010PropOp53
 70
     1
102
RTVSPost2010Prop54
  1
strokes_ogs.tif
102
RTVSPost2010PropOp54
 70
     1
102
RTVSPost2010Prop55
280
     0
102
RTVSPost2010PropOp55
 70
     1
102
RTVSPost2010Prop56
140
1.0
102
RTVSPost2010PropOp56
 70
     1
102
RTVSPost2010Prop57
140
1.0
102
RTVSPost2010PropOp57
 70
     1
  0
XRECORD
  5
474
102
{ACAD_REACTORS
330
473
102
}
330
473
100
AcDbXrecord
280
     1
102
RTVSPropertyOp0
 70
     1
102
RTVSPropertyOp1
 70
     1
102
RTVSPropertyOp2
 70
     1
102
RTVSPropertyOp3
 70
     1
102
RTVSPropertyOp4
 70
     1
102
RTVSPropertyOp5
 70
     1
102
RTVSPropertyOp6
 70
     1
102
RTVSPropertyOp7
 70
     1
102
RTVSPropertyOp8
 70
     1
102
RTVSPropertyOp9
 70
     1
102
RTVSPropertyOp10
 70
     1
102
RTVSPropertyOp11
 70
     1
102
RTVSPropertyOp12
 70
     1
102
RTVSPropertyOp13
 70
     1
102
RTVSPropertyOp14
 70
     1
102
RTVSPropertyOp15
 70
     1
102
RTVSPropertyOp16
 70
     1
102
RTVSPropertyOp17
 70
     1
102
RTVSPropertyOp18
 70
     1
102
RTVSPropertyOp19
 70
     1
102
RTVSPropertyOp20
 70
     1
102
RTVSPropertyOp21
 70
     1
102
RTVSPropertyOp22
 70
     1
102
RTVSPropertyOp23
 70
     1
102
RTVSPropertyOp24
 70
     1
102
RTVSPropertyOp25
 70
     1
102
RTVSPropertyOp26
 70
     1
102
RTVSPropertyOp27
 70
     1
102
RTVSPropertyOp28
 70
     1
102
RTVSPropertyOp29
 70
     1
102
RTVSPropertyOp30
 70
     1
102
RTVSPropertyOp31
 70
     1
102
RTVSPropertyOp32
 70
     1
102
RTVSPropertyOp33
 70
     1
102
RTVSPropertyOp34
 70
     1
102
RTVSPropertyOp35
 70
     1
102
RTVSPropertyOp36
 70
     1
102
RTVSPropertyOp37
 70
     1
102
RTVSPropertyOp38
 70
     1
102
RTVSPropertyOp39
 70
     1
102
RTVSPropertyOp40
 70
     1
102
RTVSPropertyOp41
 70
     1
102
RTVSPropertyOp42
 70
     1
102
RTVSPropertyOp43
 70
     1
102
RTVSPropertyOp44
 70
     1
102
RTVSPropertyOp45
 70
     1
102
RTVSPropertyOp46
 70
     1
102
RTVSPropertyOp47
 70
     1
102
RTVSPropertyOp48
 70
     1
102
RTVSPropertyOp49
 70
     1
102
RTVSPropertyOp50
 70
     1
102
RTVSPropertyOp51
 70
     0
102
RTVSPropertyOp52
 70
     0
102
RTVSPropertyOp53
 70
     1
102
RTVSPropertyOp54
 70
     1
102
RTVSPropertyOp55
 70
     1
102
RTVSPropertyOp56
 70
     1
102
RTVSPropertyOp57
 70
     1
102
RTVSPost2010Prop28
280
     0
102
RTVSPost2010PropOp28
 70
     1
102
RTVSPost2010Prop29
280
     1
102
RTVSPost2010PropOp29
 70
     1
102
RTVSPost2010Prop30
280
     1
102
RTVSPost2010PropOp30
 70
     1
102
RTVSPost2010Prop31
280
     0
102
RTVSPost2010PropOp31
 70
     1
102
RTVSPost2010Prop32
280
     0
102
RTVSPost2010PropOp32
 70
     1
102
RTVSPost2010Prop33
280
     0
102
RTVSPost2010PropOp33
 70
     1
102
RTVSPost2010Prop34
280
     0
102
RTVSPost2010PropOp34
 70
     1
102
RTVSPost2010Prop35
280
     0
102
RTVSPost2010PropOp35
 70
     1
102
RTVSPost2010Prop36
280
     0
102
RTVSPost2010PropOp36
 70
     1
102
RTVSPost2010Prop37
 90
       50
102
RTVSPost2010PropOp37
 70
     1
102
RTVSPost2010Prop38
140
0.0
102
RTVSPost2010PropOp38
 70
     1
102
RTVSPost2010Prop39
140
1.0
102
RTVSPost2010PropOp39
 70
     1
102
RTVSPost2010Prop40
 90
        0
102
RTVSPost2010PropOp40
 70
     1
102
RTVSPost2010Prop41ColorIndex
 90
      178
102
RTVSPost2010Prop41ColorRGB
 90
        0
102
RTVSPost2010PropOp41
 70
     1
102
RTVSPost2010Prop42
 90
       50
102
RTVSPost2010PropOp42
 70
     1
102
RTVSPost2010Prop43
 90
        3
102
RTVSPost2010PropOp43
 70
     1
102
RTVSPost2010Prop44ColorIndex
 90
        5
102
RTVSPost2010Prop44ColorRGB
 90
      255
102
RTVSPost2010PropOp44
 70
     1
102
RTVSPost2010Prop45
280
     0
102
RTVSPost2010PropOp45
 70
     1
102
RTVSPost2010Prop46
 90
       50
102
RTVSPost2010PropOp46
 70
     1
102
RTVSPost2010Prop47
 90
       50
102
RTVSPost2010PropOp47
 70
     1
102
RTVSPost2010Prop48
 90
       50
102
RTVSPost2010PropOp48
 70
     1
102
RTVSPost2010Prop49
280
     0
102
RTVSPost2010PropOp49
 70
     1
102
RTVSPost2010Prop50
 90
       50
102
RTVSPost2010PropOp50
 70
     1
102
RTVSPost2010Prop51ColorIndex
 90
      256
102
RTVSPost2010Prop51ColorRGB
 90
-16777216
102
RTVSPost2010PropOp51
 70
     0
102
RTVSPost2010Prop52
140
1.0
102
RTVSPost2010PropOp52
 70
     0
102
RTVSPost2010Prop53
 90
        2
102
RTVSPost2010PropOp53
 70
     1
102
RTVSPost2010Prop54
  1
strokes_ogs.tif
102
RTVSPost2010PropOp54
 70
     1
102
RTVSPost2010Prop55
280
     0
102
RTVSPost2010PropOp55
 70
     1
102
RTVSPost2010Prop56
140
1.0
102
RTVSPost2010PropOp56
 70
     1
102
RTVSPost2010Prop57
140
1.0
102
RTVSPost2010PropOp57
 70
     1
  0
XRECORD
  5
484
102
{ACAD_REACTORS
330
483
102
}
330
483
100
AcDbXrecord
280
     1
102
RTVSPropertyOp0
 70
     0
102
RTVSPropertyOp1
 70
     0
102
RTVSPropertyOp2
 70
     0
102
RTVSPropertyOp3
 70
     0
102
RTVSPropertyOp4
 70
     0
102
RTVSPropertyOp5
 70
     0
102
RTVSPropertyOp6
 70
     0
102
RTVSPropertyOp7
 70
     0
102
RTVSPropertyOp8
 70
     0
102
RTVSPropertyOp9
 70
     0
102
RTVSPropertyOp10
 70
     0
102
RTVSPropertyOp11
 70
     0
102
RTVSPropertyOp12
 70
     0
102
RTVSPropertyOp13
 70
     0
102
RTVSPropertyOp14
 70
     2
102
RTVSPropertyOp15
 70
     0
102
RTVSPropertyOp16
 70
     0
102
RTVSPropertyOp17
 70
     0
102
RTVSPropertyOp18
 70
     0
102
RTVSPropertyOp19
 70
     0
102
RTVSPropertyOp20
 70
     0
102
RTVSPropertyOp21
 70
     0
102
RTVSPropertyOp22
 70
     0
102
RTVSPropertyOp23
 70
     0
102
RTVSPropertyOp24
 70
     0
102
RTVSPropertyOp25
 70
     0
102
RTVSPropertyOp26
 70
     0
102
RTVSPropertyOp27
 70
     0
102
RTVSPropertyOp28
 70
     0
102
RTVSPropertyOp29
 70
     0
102
RTVSPropertyOp30
 70
     0
102
RTVSPropertyOp31
 70
     0
102
RTVSPropertyOp32
 70
     0
102
RTVSPropertyOp33
 70
     0
102
RTVSPropertyOp34
 70
     0
102
RTVSPropertyOp35
 70
     0
102
RTVSPropertyOp36
 70
     0
102
RTVSPropertyOp37
 70
     0
102
RTVSPropertyOp38
 70
     0
102
RTVSPropertyOp39
 70
     0
102
RTVSPropertyOp40
 70
     0
102
RTVSPropertyOp41
 70
     0
102
RTVSPropertyOp42
 70
     0
102
RTVSPropertyOp43
 70
     0
102
RTVSPropertyOp44
 70
     0
102
RTVSPropertyOp45
 70
     0
102
RTVSPropertyOp46
 70
     0
102
RTVSPropertyOp47
 70
     0
102
RTVSPropertyOp48
 70
     0
102
RTVSPropertyOp49
 70
     0
102
RTVSPropertyOp50
 70
     0
102
RTVSPropertyOp51
 70
     0
102
RTVSPropertyOp52
 70
     0
102
RTVSPropertyOp53
 70
     0
102
RTVSPropertyOp54
 70
     0
102
RTVSPropertyOp55
 70
     0
102
RTVSPropertyOp56
 70
     0
102
RTVSPropertyOp57
 70
     0
102
RTVSPost2010Prop28
280
     0
102
RTVSPost2010PropOp28
 70
     0
102
RTVSPost2010Prop29
280
     1
102
RTVSPost2010PropOp29
 70
     0
102
RTVSPost2010Prop30
280
     1
102
RTVSPost2010PropOp30
 70
     0
102
RTVSPost2010Prop31
280
     0
102
RTVSPost2010PropOp31
 70
     0
102
RTVSPost2010Prop32
280
     0
102
RTVSPost2010PropOp32
 70
     0
102
RTVSPost2010Prop33
280
     0
102
RTVSPost2010PropOp33
 70
     0
102
RTVSPost2010Prop34
280
     0
102
RTVSPost2010PropOp34
 70
     0
102
RTVSPost2010Prop35
280
     0
102
RTVSPost2010PropOp35
 70
     0
102
RTVSPost2010Prop36
280
     0
102
RTVSPost2010PropOp36
 70
     0
102
RTVSPost2010Prop37
 90
       50
102
RTVSPost2010PropOp37
 70
     0
102
RTVSPost2010Prop38
140
0.0
102
RTVSPost2010PropOp38
 70
     0
102
RTVSPost2010Prop39
140
1.0
102
RTVSPost2010PropOp39
 70
     0
102
RTVSPost2010Prop40
 90
        0
102
RTVSPost2010PropOp40
 70
     0
102
RTVSPost2010Prop41ColorIndex
 90
      178
102
RTVSPost2010Prop41ColorRGB
 90
        0
102
RTVSPost2010PropOp41
 70
     0
102
RTVSPost2010Prop42
 90
       50
102
RTVSPost2010PropOp42
 70
     0
102
RTVSPost2010Prop43
 90
        3
102
RTVSPost2010PropOp43
 70
     0
102
RTVSPost2010Prop44ColorIndex
 90
        5
102
RTVSPost2010Prop44ColorRGB
 90
      255
102
RTVSPost2010PropOp44
 70
     0
102
RTVSPost2010Prop45
280
     0
102
RTVSPost2010PropOp45
 70
     0
102
RTVSPost2010Prop46
 90
       50
102
RTVSPost2010PropOp46
 70
     0
102
RTVSPost2010Prop47
 90
       50
102
RTVSPost2010PropOp47
 70
     0
102
RTVSPost2010Prop48
 90
       50
102
RTVSPost2010PropOp48
 70
     0
102
RTVSPost2010Prop49
280
     0
102
RTVSPost2010PropOp49
 70
     0
102
RTVSPost2010Prop50
 90
       50
102
RTVSPost2010PropOp50
 70
     0
102
RTVSPost2010Prop51ColorIndex
 90
      256
102
RTVSPost2010Prop51ColorRGB
 90
-16777216
102
RTVSPost2010PropOp51
 70
     0
102
RTVSPost2010Prop52
140
1.0
102
RTVSPost2010PropOp52
 70
     0
102
RTVSPost2010Prop53
 90
        2
102
RTVSPost2010PropOp53
 70
     0
102
RTVSPost2010Prop54
  1
strokes_ogs.tif
102
RTVSPost2010PropOp54
 70
     0
102
RTVSPost2010Prop55
280
     0
102
RTVSPost2010PropOp55
 70
     0
102
RTVSPost2010Prop56
140
1.0
102
RTVSPost2010PropOp56
 70
     0
102
RTVSPost2010Prop57
140
1.0
102
RTVSPost2010PropOp57
 70
     0
  0
XRECORD
  5
47C
102
{ACAD_REACTORS
330
47B
102
}
330
47B
100
AcDbXrecord
280
     1
102
RTVSPropertyOp0
 70
     1
102
RTVSPropertyOp1
 70
     1
102
RTVSPropertyOp2
 70
     1
102
RTVSPropertyOp3
 70
     1
102
RTVSPropertyOp4
 70
     1
102
RTVSPropertyOp5
 70
     1
102
RTVSPropertyOp6
 70
     1
102
RTVSPropertyOp7
 70
     1
102
RTVSPropertyOp8
 70
     1
102
RTVSPropertyOp9
 70
     1
102
RTVSPropertyOp10
 70
     1
102
RTVSPropertyOp11
 70
     1
102
RTVSPropertyOp12
 70
     1
102
RTVSPropertyOp13
 70
     1
102
RTVSPropertyOp14
 70
     1
102
RTVSPropertyOp15
 70
     1
102
RTVSPropertyOp16
 70
     1
102
RTVSPropertyOp17
 70
     1
102
RTVSPropertyOp18
 70
     1
102
RTVSPropertyOp19
 70
     1
102
RTVSPropertyOp20
 70
     1
102
RTVSPropertyOp21
 70
     1
102
RTVSPropertyOp22
 70
     1
102
RTVSPropertyOp23
 70
     1
102
RTVSPropertyOp24
 70
     1
102
RTVSPropertyOp25
 70
     1
102
RTVSPropertyOp26
 70
     1
102
RTVSPropertyOp27
 70
     1
102
RTVSPropertyOp28
 70
     1
102
RTVSPropertyOp29
 70
     1
102
RTVSPropertyOp30
 70
     1
102
RTVSPropertyOp31
 70
     1
102
RTVSPropertyOp32
 70
     1
102
RTVSPropertyOp33
 70
     1
102
RTVSPropertyOp34
 70
     1
102
RTVSPropertyOp35
 70
     1
102
RTVSPropertyOp36
 70
     1
102
RTVSPropertyOp37
 70
     1
102
RTVSPropertyOp38
 70
     1
102
RTVSPropertyOp39
 70
     1
102
RTVSPropertyOp40
 70
     1
102
RTVSPropertyOp41
 70
     1
102
RTVSPropertyOp42
 70
     1
102
RTVSPropertyOp43
 70
     1
102
RTVSPropertyOp44
 70
     1
102
RTVSPropertyOp45
 70
     1
102
RTVSPropertyOp46
 70
     1
102
RTVSPropertyOp47
 70
     1
102
RTVSPropertyOp48
 70
     1
102
RTVSPropertyOp49
 70
     1
102
RTVSPropertyOp50
 70
     1
102
RTVSPropertyOp51
 70
     0
102
RTVSPropertyOp52
 70
     0
102
RTVSPropertyOp53
 70
     1
102
RTVSPropertyOp54
 70
     1
102
RTVSPropertyOp55
 70
     1
102
RTVSPropertyOp56
 70
     1
102
RTVSPropertyOp57
 70
     1
102
RTVSPost2010Prop28
280
     0
102
RTVSPost2010PropOp28
 70
     1
102
RTVSPost2010Prop29
280
     1
102
RTVSPost2010PropOp29
 70
     1
102
RTVSPost2010Prop30
280
     1
102
RTVSPost2010PropOp30
 70
     1
102
RTVSPost2010Prop31
280
     0
102
RTVSPost2010PropOp31
 70
     1
102
RTVSPost2010Prop32
280
     0
102
RTVSPost2010PropOp32
 70
     1
102
RTVSPost2010Prop33
280
     0
102
RTVSPost2010PropOp33
 70
     1
102
RTVSPost2010Prop34
280
     0
102
RTVSPost2010PropOp34
 70
     1
102
RTVSPost2010Prop35
280
     0
102
RTVSPost2010PropOp35
 70
     1
102
RTVSPost2010Prop36
280
     0
102
RTVSPost2010PropOp36
 70
     1
102
RTVSPost2010Prop37
 90
       50
102
RTVSPost2010PropOp37
 70
     1
102
RTVSPost2010Prop38
140
0.0
102
RTVSPost2010PropOp38
 70
     1
102
RTVSPost2010Prop39
140
1.0
102
RTVSPost2010PropOp39
 70
     1
102
RTVSPost2010Prop40
 90
        0
102
RTVSPost2010PropOp40
 70
     1
102
RTVSPost2010Prop41ColorIndex
 90
      178
102
RTVSPost2010Prop41ColorRGB
 90
        0
102
RTVSPost2010PropOp41
 70
     1
102
RTVSPost2010Prop42
 90
       50
102
RTVSPost2010PropOp42
 70
     1
102
RTVSPost2010Prop43
 90
        3
102
RTVSPost2010PropOp43
 70
     1
102
RTVSPost2010Prop44ColorIndex
 90
        5
102
RTVSPost2010Prop44ColorRGB
 90
      255
102
RTVSPost2010PropOp44
 70
     1
102
RTVSPost2010Prop45
280
     0
102
RTVSPost2010PropOp45
 70
     1
102
RTVSPost2010Prop46
 90
       50
102
RTVSPost2010PropOp46
 70
     1
102
RTVSPost2010Prop47
 90
       50
102
RTVSPost2010PropOp47
 70
     1
102
RTVSPost2010Prop48
 90
       50
102
RTVSPost2010PropOp48
 70
     1
102
RTVSPost2010Prop49
280
     0
102
RTVSPost2010PropOp49
 70
     1
102
RTVSPost2010Prop50
 90
       50
102
RTVSPost2010PropOp50
 70
     1
102
RTVSPost2010Prop51ColorIndex
 90
      256
102
RTVSPost2010Prop51ColorRGB
 90
-16777216
102
RTVSPost2010PropOp51
 70
     0
102
RTVSPost2010Prop52
140
1.0
102
RTVSPost2010PropOp52
 70
     0
102
RTVSPost2010Prop53
 90
        2
102
RTVSPost2010PropOp53
 70
     1
102
RTVSPost2010Prop54
  1
strokes_ogs.tif
102
RTVSPost2010PropOp54
 70
     1
102
RTVSPost2010Prop55
280
     0
102
RTVSPost2010PropOp55
 70
     1
102
RTVSPost2010Prop56
140
1.0
102
RTVSPost2010PropOp56
 70
     1
102
RTVSPost2010Prop57
140
1.0
102
RTVSPost2010PropOp57
 70
     1
  0
XRECORD
  5
460
102
{ACAD_REACTORS
330
45F
102
}
330
45F
100
AcDbXrecord
280
     1
102
RTVSPropertyOp0
 70
     1
102
RTVSPropertyOp1
 70
     1
102
RTVSPropertyOp2
 70
     1
102
RTVSPropertyOp3
 70
     1
102
RTVSPropertyOp4
 70
     1
102
RTVSPropertyOp5
 70
     1
102
RTVSPropertyOp6
 70
     1
102
RTVSPropertyOp7
 70
     1
102
RTVSPropertyOp8
 70
     1
102
RTVSPropertyOp9
 70
     1
102
RTVSPropertyOp10
 70
     1
102
RTVSPropertyOp11
 70
     1
102
RTVSPropertyOp12
 70
     1
102
RTVSPropertyOp13
 70
     1
102
RTVSPropertyOp14
 70
     1
102
RTVSPropertyOp15
 70
     1
102
RTVSPropertyOp16
 70
     1
102
RTVSPropertyOp17
 70
     1
102
RTVSPropertyOp18
 70
     1
102
RTVSPropertyOp19
 70
     1
102
RTVSPropertyOp20
 70
     1
102
RTVSPropertyOp21
 70
     1
102
RTVSPropertyOp22
 70
     1
102
RTVSPropertyOp23
 70
     1
102
RTVSPropertyOp24
 70
     1
102
RTVSPropertyOp25
 70
     1
102
RTVSPropertyOp26
 70
     1
102
RTVSPropertyOp27
 70
     1
102
RTVSPropertyOp28
 70
     1
102
RTVSPropertyOp29
 70
     1
102
RTVSPropertyOp30
 70
     1
102
RTVSPropertyOp31
 70
     1
102
RTVSPropertyOp32
 70
     1
102
RTVSPropertyOp33
 70
     1
102
RTVSPropertyOp34
 70
     1
102
RTVSPropertyOp35
 70
     1
102
RTVSPropertyOp36
 70
     1
102
RTVSPropertyOp37
 70
     1
102
RTVSPropertyOp38
 70
     1
102
RTVSPropertyOp39
 70
     1
102
RTVSPropertyOp40
 70
     1
102
RTVSPropertyOp41
 70
     1
102
RTVSPropertyOp42
 70
     1
102
RTVSPropertyOp43
 70
     1
102
RTVSPropertyOp44
 70
     1
102
RTVSPropertyOp45
 70
     1
102
RTVSPropertyOp46
 70
     1
102
RTVSPropertyOp47
 70
     1
102
RTVSPropertyOp48
 70
     1
102
RTVSPropertyOp49
 70
     1
102
RTVSPropertyOp50
 70
     1
102
RTVSPropertyOp51
 70
     0
102
RTVSPropertyOp52
 70
     0
102
RTVSPropertyOp53
 70
     1
102
RTVSPropertyOp54
 70
     1
102
RTVSPropertyOp55
 70
     1
102
RTVSPropertyOp56
 70
     1
102
RTVSPropertyOp57
 70
     1
102
RTVSPost2010Prop28
280
     0
102
RTVSPost2010PropOp28
 70
     1
102
RTVSPost2010Prop29
280
     1
102
RTVSPost2010PropOp29
 70
     1
102
RTVSPost2010Prop30
280
     1
102
RTVSPost2010PropOp30
 70
     1
102
RTVSPost2010Prop31
280
     0
102
RTVSPost2010PropOp31
 70
     1
102
RTVSPost2010Prop32
280
     0
102
RTVSPost2010PropOp32
 70
     1
102
RTVSPost2010Prop33
280
     0
102
RTVSPost2010PropOp33
 70
     1
102
RTVSPost2010Prop34
280
     0
102
RTVSPost2010PropOp34
 70
     1
102
RTVSPost2010Prop35
280
     0
102
RTVSPost2010PropOp35
 70
     1
102
RTVSPost2010Prop36
280
     0
102
RTVSPost2010PropOp36
 70
     1
102
RTVSPost2010Prop37
 90
       50
102
RTVSPost2010PropOp37
 70
     1
102
RTVSPost2010Prop38
140
0.0
102
RTVSPost2010PropOp38
 70
     1
102
RTVSPost2010Prop39
140
1.0
102
RTVSPost2010PropOp39
 70
     1
102
RTVSPost2010Prop40
 90
        0
102
RTVSPost2010PropOp40
 70
     1
102
RTVSPost2010Prop41ColorIndex
 90
      178
102
RTVSPost2010Prop41ColorRGB
 90
        0
102
RTVSPost2010PropOp41
 70
     1
102
RTVSPost2010Prop42
 90
       50
102
RTVSPost2010PropOp42
 70
     1
102
RTVSPost2010Prop43
 90
        3
102
RTVSPost2010PropOp43
 70
     1
102
RTVSPost2010Prop44ColorIndex
 90
        5
102
RTVSPost2010Prop44ColorRGB
 90
      255
102
RTVSPost2010PropOp44
 70
     1
102
RTVSPost2010Prop45
280
     0
102
RTVSPost2010PropOp45
 70
     1
102
RTVSPost2010Prop46
 90
       50
102
RTVSPost2010PropOp46
 70
     1
102
RTVSPost2010Prop47
 90
       50
102
RTVSPost2010PropOp47
 70
     1
102
RTVSPost2010Prop48
 90
       50
102
RTVSPost2010PropOp48
 70
     1
102
RTVSPost2010Prop49
280
     0
102
RTVSPost2010PropOp49
 70
     1
102
RTVSPost2010Prop50
 90
       50
102
RTVSPost2010PropOp50
 70
     1
102
RTVSPost2010Prop51ColorIndex
 90
      256
102
RTVSPost2010Prop51ColorRGB
 90
-16777216
102
RTVSPost2010PropOp51
 70
     0
102
RTVSPost2010Prop52
140
1.0
102
RTVSPost2010PropOp52
 70
     0
102
RTVSPost2010Prop53
 90
        2
102
RTVSPost2010PropOp53
 70
     1
102
RTVSPost2010Prop54
  1
strokes_ogs.tif
102
RTVSPost2010PropOp54
 70
     1
102
RTVSPost2010Prop55
280
     0
102
RTVSPost2010PropOp55
 70
     1
102
RTVSPost2010Prop56
140
1.0
102
RTVSPost2010PropOp56
 70
     1
102
RTVSPost2010Prop57
140
1.0
102
RTVSPost2010PropOp57
 70
     1
  0
XRECORD
  5
462
102
{ACAD_REACTORS
330
461
102
}
330
461
100
AcDbXrecord
280
     1
102
RTVSPropertyOp0
 70
     1
102
RTVSPropertyOp1
 70
     1
102
RTVSPropertyOp2
 70
     1
102
RTVSPropertyOp3
 70
     1
102
RTVSPropertyOp4
 70
     1
102
RTVSPropertyOp5
 70
     1
102
RTVSPropertyOp6
 70
     1
102
RTVSPropertyOp7
 70
     1
102
RTVSPropertyOp8
 70
     1
102
RTVSPropertyOp9
 70
     1
102
RTVSPropertyOp10
 70
     1
102
RTVSPropertyOp11
 70
     1
102
RTVSPropertyOp12
 70
     1
102
RTVSPropertyOp13
 70
     1
102
RTVSPropertyOp14
 70
     1
102
RTVSPropertyOp15
 70
     1
102
RTVSPropertyOp16
 70
     1
102
RTVSPropertyOp17
 70
     1
102
RTVSPropertyOp18
 70
     1
102
RTVSPropertyOp19
 70
     1
102
RTVSPropertyOp20
 70
     1
102
RTVSPropertyOp21
 70
     1
102
RTVSPropertyOp22
 70
     1
102
RTVSPropertyOp23
 70
     1
102
RTVSPropertyOp24
 70
     1
102
RTVSPropertyOp25
 70
     1
102
RTVSPropertyOp26
 70
     1
102
RTVSPropertyOp27
 70
     1
102
RTVSPropertyOp28
 70
     1
102
RTVSPropertyOp29
 70
     1
102
RTVSPropertyOp30
 70
     1
102
RTVSPropertyOp31
 70
     1
102
RTVSPropertyOp32
 70
     1
102
RTVSPropertyOp33
 70
     1
102
RTVSPropertyOp34
 70
     1
102
RTVSPropertyOp35
 70
     1
102
RTVSPropertyOp36
 70
     1
102
RTVSPropertyOp37
 70
     1
102
RTVSPropertyOp38
 70
     1
102
RTVSPropertyOp39
 70
     1
102
RTVSPropertyOp40
 70
     1
102
RTVSPropertyOp41
 70
     1
102
RTVSPropertyOp42
 70
     1
102
RTVSPropertyOp43
 70
     1
102
RTVSPropertyOp44
 70
     1
102
RTVSPropertyOp45
 70
     1
102
RTVSPropertyOp46
 70
     1
102
RTVSPropertyOp47
 70
     1
102
RTVSPropertyOp48
 70
     1
102
RTVSPropertyOp49
 70
     1
102
RTVSPropertyOp50
 70
     1
102
RTVSPropertyOp51
 70
     0
102
RTVSPropertyOp52
 70
     0
102
RTVSPropertyOp53
 70
     1
102
RTVSPropertyOp54
 70
     1
102
RTVSPropertyOp55
 70
     1
102
RTVSPropertyOp56
 70
     1
102
RTVSPropertyOp57
 70
     1
102
RTVSPost2010Prop28
280
     0
102
RTVSPost2010PropOp28
 70
     1
102
RTVSPost2010Prop29
280
     1
102
RTVSPost2010PropOp29
 70
     1
102
RTVSPost2010Prop30
280
     1
102
RTVSPost2010PropOp30
 70
     1
102
RTVSPost2010Prop31
280
     0
102
RTVSPost2010PropOp31
 70
     1
102
RTVSPost2010Prop32
280
     0
102
RTVSPost2010PropOp32
 70
     1
102
RTVSPost2010Prop33
280
     0
102
RTVSPost2010PropOp33
 70
     1
102
RTVSPost2010Prop34
280
     0
102
RTVSPost2010PropOp34
 70
     1
102
RTVSPost2010Prop35
280
     0
102
RTVSPost2010PropOp35
 70
     1
102
RTVSPost2010Prop36
280
     0
102
RTVSPost2010PropOp36
 70
     1
102
RTVSPost2010Prop37
 90
       50
102
RTVSPost2010PropOp37
 70
     1
102
RTVSPost2010Prop38
140
0.0
102
RTVSPost2010PropOp38
 70
     1
102
RTVSPost2010Prop39
140
1.0
102
RTVSPost2010PropOp39
 70
     1
102
RTVSPost2010Prop40
 90
        0
102
RTVSPost2010PropOp40
 70
     1
102
RTVSPost2010Prop41ColorIndex
 90
      178
102
RTVSPost2010Prop41ColorRGB
 90
        0
102
RTVSPost2010PropOp41
 70
     1
102
RTVSPost2010Prop42
 90
       50
102
RTVSPost2010PropOp42
 70
     1
102
RTVSPost2010Prop43
 90
        3
102
RTVSPost2010PropOp43
 70
     1
102
RTVSPost2010Prop44ColorIndex
 90
        5
102
RTVSPost2010Prop44ColorRGB
 90
      255
102
RTVSPost2010PropOp44
 70
     1
102
RTVSPost2010Prop45
280
     0
102
RTVSPost2010PropOp45
 70
     1
102
RTVSPost2010Prop46
 90
       50
102
RTVSPost2010PropOp46
 70
     1
102
RTVSPost2010Prop47
 90
       50
102
RTVSPost2010PropOp47
 70
     1
102
RTVSPost2010Prop48
 90
       50
102
RTVSPost2010PropOp48
 70
     1
102
RTVSPost2010Prop49
280
     0
102
RTVSPost2010PropOp49
 70
     1
102
RTVSPost2010Prop50
 90
       50
102
RTVSPost2010PropOp50
 70
     1
102
RTVSPost2010Prop51ColorIndex
 90
      256
102
RTVSPost2010Prop51ColorRGB
 90
-16777216
102
RTVSPost2010PropOp51
 70
     0
102
RTVSPost2010Prop52
140
1.0
102
RTVSPost2010PropOp52
 70
     0
102
RTVSPost2010Prop53
 90
        2
102
RTVSPost2010PropOp53
 70
     1
102
RTVSPost2010Prop54
  1
strokes_ogs.tif
102
RTVSPost2010PropOp54
 70
     1
102
RTVSPost2010Prop55
280
     0
102
RTVSPost2010PropOp55
 70
     1
102
RTVSPost2010Prop56
140
1.0
102
RTVSPost2010PropOp56
 70
     1
102
RTVSPost2010Prop57
140
1.0
102
RTVSPost2010PropOp57
 70
     1
  0
XRECORD
  5
464
102
{ACAD_REACTORS
330
463
102
}
330
463
100
AcDbXrecord
280
     1
102
RTVSPropertyOp0
 70
     1
102
RTVSPropertyOp1
 70
     1
102
RTVSPropertyOp2
 70
     1
102
RTVSPropertyOp3
 70
     1
102
RTVSPropertyOp4
 70
     1
102
RTVSPropertyOp5
 70
     1
102
RTVSPropertyOp6
 70
     1
102
RTVSPropertyOp7
 70
     1
102
RTVSPropertyOp8
 70
     1
102
RTVSPropertyOp9
 70
     1
102
RTVSPropertyOp10
 70
     1
102
RTVSPropertyOp11
 70
     1
102
RTVSPropertyOp12
 70
     1
102
RTVSPropertyOp13
 70
     1
102
RTVSPropertyOp14
 70
     1
102
RTVSPropertyOp15
 70
     1
102
RTVSPropertyOp16
 70
     1
102
RTVSPropertyOp17
 70
     1
102
RTVSPropertyOp18
 70
     1
102
RTVSPropertyOp19
 70
     1
102
RTVSPropertyOp20
 70
     1
102
RTVSPropertyOp21
 70
     1
102
RTVSPropertyOp22
 70
     1
102
RTVSPropertyOp23
 70
     1
102
RTVSPropertyOp24
 70
     1
102
RTVSPropertyOp25
 70
     1
102
RTVSPropertyOp26
 70
     1
102
RTVSPropertyOp27
 70
     1
102
RTVSPropertyOp28
 70
     1
102
RTVSPropertyOp29
 70
     1
102
RTVSPropertyOp30
 70
     1
102
RTVSPropertyOp31
 70
     1
102
RTVSPropertyOp32
 70
     1
102
RTVSPropertyOp33
 70
     1
102
RTVSPropertyOp34
 70
     1
102
RTVSPropertyOp35
 70
     1
102
RTVSPropertyOp36
 70
     1
102
RTVSPropertyOp37
 70
     1
102
RTVSPropertyOp38
 70
     1
102
RTVSPropertyOp39
 70
     1
102
RTVSPropertyOp40
 70
     1
102
RTVSPropertyOp41
 70
     1
102
RTVSPropertyOp42
 70
     1
102
RTVSPropertyOp43
 70
     1
102
RTVSPropertyOp44
 70
     1
102
RTVSPropertyOp45
 70
     1
102
RTVSPropertyOp46
 70
     1
102
RTVSPropertyOp47
 70
     1
102
RTVSPropertyOp48
 70
     1
102
RTVSPropertyOp49
 70
     1
102
RTVSPropertyOp50
 70
     1
102
RTVSPropertyOp51
 70
     0
102
RTVSPropertyOp52
 70
     0
102
RTVSPropertyOp53
 70
     1
102
RTVSPropertyOp54
 70
     1
102
RTVSPropertyOp55
 70
     1
102
RTVSPropertyOp56
 70
     1
102
RTVSPropertyOp57
 70
     1
102
RTVSPost2010Prop28
280
     0
102
RTVSPost2010PropOp28
 70
     1
102
RTVSPost2010Prop29
280
     1
102
RTVSPost2010PropOp29
 70
     1
102
RTVSPost2010Prop30
280
     1
102
RTVSPost2010PropOp30
 70
     1
102
RTVSPost2010Prop31
280
     0
102
RTVSPost2010PropOp31
 70
     1
102
RTVSPost2010Prop32
280
     0
102
RTVSPost2010PropOp32
 70
     1
102
RTVSPost2010Prop33
280
     0
102
RTVSPost2010PropOp33
 70
     1
102
RTVSPost2010Prop34
280
     0
102
RTVSPost2010PropOp34
 70
     1
102
RTVSPost2010Prop35
280
     0
102
RTVSPost2010PropOp35
 70
     1
102
RTVSPost2010Prop36
280
     0
102
RTVSPost2010PropOp36
 70
     1
102
RTVSPost2010Prop37
 90
       50
102
RTVSPost2010PropOp37
 70
     1
102
RTVSPost2010Prop38
140
0.0
102
RTVSPost2010PropOp38
 70
     1
102
RTVSPost2010Prop39
140
1.0
102
RTVSPost2010PropOp39
 70
     1
102
RTVSPost2010Prop40
 90
        0
102
RTVSPost2010PropOp40
 70
     1
102
RTVSPost2010Prop41ColorIndex
 90
      178
102
RTVSPost2010Prop41ColorRGB
 90
        0
102
RTVSPost2010PropOp41
 70
     1
102
RTVSPost2010Prop42
 90
       50
102
RTVSPost2010PropOp42
 70
     1
102
RTVSPost2010Prop43
 90
        3
102
RTVSPost2010PropOp43
 70
     1
102
RTVSPost2010Prop44ColorIndex
 90
        5
102
RTVSPost2010Prop44ColorRGB
 90
      255
102
RTVSPost2010PropOp44
 70
     1
102
RTVSPost2010Prop45
280
     0
102
RTVSPost2010PropOp45
 70
     1
102
RTVSPost2010Prop46
 90
       50
102
RTVSPost2010PropOp46
 70
     1
102
RTVSPost2010Prop47
 90
       50
102
RTVSPost2010PropOp47
 70
     1
102
RTVSPost2010Prop48
 90
       50
102
RTVSPost2010PropOp48
 70
     1
102
RTVSPost2010Prop49
280
     0
102
RTVSPost2010PropOp49
 70
     1
102
RTVSPost2010Prop50
 90
       50
102
RTVSPost2010PropOp50
 70
     1
102
RTVSPost2010Prop51ColorIndex
 90
      256
102
RTVSPost2010Prop51ColorRGB
 90
-16777216
102
RTVSPost2010PropOp51
 70
     0
102
RTVSPost2010Prop52
140
1.0
102
RTVSPost2010PropOp52
 70
     0
102
RTVSPost2010Prop53
 90
        2
102
RTVSPost2010PropOp53
 70
     1
102
RTVSPost2010Prop54
  1
strokes_ogs.tif
102
RTVSPost2010PropOp54
 70
     1
102
RTVSPost2010Prop55
280
     0
102
RTVSPost2010PropOp55
 70
     1
102
RTVSPost2010Prop56
140
1.0
102
RTVSPost2010PropOp56
 70
     1
102
RTVSPost2010Prop57
140
1.0
102
RTVSPost2010PropOp57
 70
     1
  0
XRECORD
  5
466
102
{ACAD_REACTORS
330
465
102
}
330
465
100
AcDbXrecord
280
     1
102
RTVSPropertyOp0
 70
     1
102
RTVSPropertyOp1
 70
     1
102
RTVSPropertyOp2
 70
     1
102
RTVSPropertyOp3
 70
     1
102
RTVSPropertyOp4
 70
     1
102
RTVSPropertyOp5
 70
     1
102
RTVSPropertyOp6
 70
     1
102
RTVSPropertyOp7
 70
     1
102
RTVSPropertyOp8
 70
     1
102
RTVSPropertyOp9
 70
     1
102
RTVSPropertyOp10
 70
     1
102
RTVSPropertyOp11
 70
     1
102
RTVSPropertyOp12
 70
     1
102
RTVSPropertyOp13
 70
     1
102
RTVSPropertyOp14
 70
     1
102
RTVSPropertyOp15
 70
     1
102
RTVSPropertyOp16
 70
     1
102
RTVSPropertyOp17
 70
     1
102
RTVSPropertyOp18
 70
     1
102
RTVSPropertyOp19
 70
     1
102
RTVSPropertyOp20
 70
     1
102
RTVSPropertyOp21
 70
     1
102
RTVSPropertyOp22
 70
     1
102
RTVSPropertyOp23
 70
     1
102
RTVSPropertyOp24
 70
     1
102
RTVSPropertyOp25
 70
     1
102
RTVSPropertyOp26
 70
     1
102
RTVSPropertyOp27
 70
     1
102
RTVSPropertyOp28
 70
     1
102
RTVSPropertyOp29
 70
     1
102
RTVSPropertyOp30
 70
     1
102
RTVSPropertyOp31
 70
     1
102
RTVSPropertyOp32
 70
     1
102
RTVSPropertyOp33
 70
     1
102
RTVSPropertyOp34
 70
     1
102
RTVSPropertyOp35
 70
     1
102
RTVSPropertyOp36
 70
     1
102
RTVSPropertyOp37
 70
     1
102
RTVSPropertyOp38
 70
     1
102
RTVSPropertyOp39
 70
     1
102
RTVSPropertyOp40
 70
     1
102
RTVSPropertyOp41
 70
     1
102
RTVSPropertyOp42
 70
     1
102
RTVSPropertyOp43
 70
     1
102
RTVSPropertyOp44
 70
     1
102
RTVSPropertyOp45
 70
     1
102
RTVSPropertyOp46
 70
     1
102
RTVSPropertyOp47
 70
     1
102
RTVSPropertyOp48
 70
     1
102
RTVSPropertyOp49
 70
     1
102
RTVSPropertyOp50
 70
     1
102
RTVSPropertyOp51
 70
     0
102
RTVSPropertyOp52
 70
     0
102
RTVSPropertyOp53
 70
     1
102
RTVSPropertyOp54
 70
     1
102
RTVSPropertyOp55
 70
     1
102
RTVSPropertyOp56
 70
     1
102
RTVSPropertyOp57
 70
     1
102
RTVSPost2010Prop28
280
     0
102
RTVSPost2010PropOp28
 70
     1
102
RTVSPost2010Prop29
280
     1
102
RTVSPost2010PropOp29
 70
     1
102
RTVSPost2010Prop30
280
     1
102
RTVSPost2010PropOp30
 70
     1
102
RTVSPost2010Prop31
280
     0
102
RTVSPost2010PropOp31
 70
     1
102
RTVSPost2010Prop32
280
     0
102
RTVSPost2010PropOp32
 70
     1
102
RTVSPost2010Prop33
280
     0
102
RTVSPost2010PropOp33
 70
     1
102
RTVSPost2010Prop34
280
     0
102
RTVSPost2010PropOp34
 70
     1
102
RTVSPost2010Prop35
280
     0
102
RTVSPost2010PropOp35
 70
     1
102
RTVSPost2010Prop36
280
     0
102
RTVSPost2010PropOp36
 70
     1
102
RTVSPost2010Prop37
 90
       50
102
RTVSPost2010PropOp37
 70
     1
102
RTVSPost2010Prop38
140
0.0
102
RTVSPost2010PropOp38
 70
     1
102
RTVSPost2010Prop39
140
1.0
102
RTVSPost2010PropOp39
 70
     1
102
RTVSPost2010Prop40
 90
        0
102
RTVSPost2010PropOp40
 70
     1
102
RTVSPost2010Prop41ColorIndex
 90
      178
102
RTVSPost2010Prop41ColorRGB
 90
        0
102
RTVSPost2010PropOp41
 70
     1
102
RTVSPost2010Prop42
 90
       50
102
RTVSPost2010PropOp42
 70
     1
102
RTVSPost2010Prop43
 90
        3
102
RTVSPost2010PropOp43
 70
     1
102
RTVSPost2010Prop44ColorIndex
 90
        5
102
RTVSPost2010Prop44ColorRGB
 90
      255
102
RTVSPost2010PropOp44
 70
     1
102
RTVSPost2010Prop45
280
     0
102
RTVSPost2010PropOp45
 70
     1
102
RTVSPost2010Prop46
 90
       50
102
RTVSPost2010PropOp46
 70
     1
102
RTVSPost2010Prop47
 90
       50
102
RTVSPost2010PropOp47
 70
     1
102
RTVSPost2010Prop48
 90
       50
102
RTVSPost2010PropOp48
 70
     1
102
RTVSPost2010Prop49
280
     0
102
RTVSPost2010PropOp49
 70
     1
102
RTVSPost2010Prop50
 90
       50
102
RTVSPost2010PropOp50
 70
     1
102
RTVSPost2010Prop51ColorIndex
 90
      256
102
RTVSPost2010Prop51ColorRGB
 90
-16777216
102
RTVSPost2010PropOp51
 70
     0
102
RTVSPost2010Prop52
140
1.0
102
RTVSPost2010PropOp52
 70
     0
102
RTVSPost2010Prop53
 90
        2
102
RTVSPost2010PropOp53
 70
     1
102
RTVSPost2010Prop54
  1
strokes_ogs.tif
102
RTVSPost2010PropOp54
 70
     1
102
RTVSPost2010Prop55
280
     0
102
RTVSPost2010PropOp55
 70
     1
102
RTVSPost2010Prop56
140
1.0
102
RTVSPost2010PropOp56
 70
     1
102
RTVSPost2010Prop57
140
1.0
102
RTVSPost2010PropOp57
 70
     1
  0
XRECORD
  5
46C
102
{ACAD_REACTORS
330
46B
102
}
330
46B
100
AcDbXrecord
280
     1
102
RTVSPropertyOp0
 70
     1
102
RTVSPropertyOp1
 70
     1
102
RTVSPropertyOp2
 70
     1
102
RTVSPropertyOp3
 70
     1
102
RTVSPropertyOp4
 70
     1
102
RTVSPropertyOp5
 70
     1
102
RTVSPropertyOp6
 70
     1
102
RTVSPropertyOp7
 70
     1
102
RTVSPropertyOp8
 70
     1
102
RTVSPropertyOp9
 70
     1
102
RTVSPropertyOp10
 70
     1
102
RTVSPropertyOp11
 70
     1
102
RTVSPropertyOp12
 70
     1
102
RTVSPropertyOp13
 70
     1
102
RTVSPropertyOp14
 70
     1
102
RTVSPropertyOp15
 70
     1
102
RTVSPropertyOp16
 70
     1
102
RTVSPropertyOp17
 70
     1
102
RTVSPropertyOp18
 70
     1
102
RTVSPropertyOp19
 70
     1
102
RTVSPropertyOp20
 70
     1
102
RTVSPropertyOp21
 70
     1
102
RTVSPropertyOp22
 70
     1
102
RTVSPropertyOp23
 70
     1
102
RTVSPropertyOp24
 70
     1
102
RTVSPropertyOp25
 70
     1
102
RTVSPropertyOp26
 70
     1
102
RTVSPropertyOp27
 70
     1
102
RTVSPropertyOp28
 70
     1
102
RTVSPropertyOp29
 70
     1
102
RTVSPropertyOp30
 70
     1
102
RTVSPropertyOp31
 70
     1
102
RTVSPropertyOp32
 70
     1
102
RTVSPropertyOp33
 70
     1
102
RTVSPropertyOp34
 70
     1
102
RTVSPropertyOp35
 70
     1
102
RTVSPropertyOp36
 70
     1
102
RTVSPropertyOp37
 70
     1
102
RTVSPropertyOp38
 70
     1
102
RTVSPropertyOp39
 70
     1
102
RTVSPropertyOp40
 70
     1
102
RTVSPropertyOp41
 70
     1
102
RTVSPropertyOp42
 70
     1
102
RTVSPropertyOp43
 70
     1
102
RTVSPropertyOp44
 70
     1
102
RTVSPropertyOp45
 70
     1
102
RTVSPropertyOp46
 70
     1
102
RTVSPropertyOp47
 70
     1
102
RTVSPropertyOp48
 70
     1
102
RTVSPropertyOp49
 70
     1
102
RTVSPropertyOp50
 70
     1
102
RTVSPropertyOp51
 70
     0
102
RTVSPropertyOp52
 70
     0
102
RTVSPropertyOp53
 70
     1
102
RTVSPropertyOp54
 70
     1
102
RTVSPropertyOp55
 70
     1
102
RTVSPropertyOp56
 70
     1
102
RTVSPropertyOp57
 70
     1
102
RTVSPost2010Prop28
280
     0
102
RTVSPost2010PropOp28
 70
     1
102
RTVSPost2010Prop29
280
     1
102
RTVSPost2010PropOp29
 70
     1
102
RTVSPost2010Prop30
280
     1
102
RTVSPost2010PropOp30
 70
     1
102
RTVSPost2010Prop31
280
     0
102
RTVSPost2010PropOp31
 70
     1
102
RTVSPost2010Prop32
280
     0
102
RTVSPost2010PropOp32
 70
     1
102
RTVSPost2010Prop33
280
     0
102
RTVSPost2010PropOp33
 70
     1
102
RTVSPost2010Prop34
280
     0
102
RTVSPost2010PropOp34
 70
     1
102
RTVSPost2010Prop35
280
     0
102
RTVSPost2010PropOp35
 70
     1
102
RTVSPost2010Prop36
280
     0
102
RTVSPost2010PropOp36
 70
     1
102
RTVSPost2010Prop37
 90
       50
102
RTVSPost2010PropOp37
 70
     1
102
RTVSPost2010Prop38
140
0.0
102
RTVSPost2010PropOp38
 70
     1
102
RTVSPost2010Prop39
140
1.0
102
RTVSPost2010PropOp39
 70
     1
102
RTVSPost2010Prop40
 90
        0
102
RTVSPost2010PropOp40
 70
     1
102
RTVSPost2010Prop41ColorIndex
 90
      178
102
RTVSPost2010Prop41ColorRGB
 90
        0
102
RTVSPost2010PropOp41
 70
     1
102
RTVSPost2010Prop42
 90
       50
102
RTVSPost2010PropOp42
 70
     1
102
RTVSPost2010Prop43
 90
        3
102
RTVSPost2010PropOp43
 70
     1
102
RTVSPost2010Prop44ColorIndex
 90
        5
102
RTVSPost2010Prop44ColorRGB
 90
      255
102
RTVSPost2010PropOp44
 70
     1
102
RTVSPost2010Prop45
280
     0
102
RTVSPost2010PropOp45
 70
     1
102
RTVSPost2010Prop46
 90
       50
102
RTVSPost2010PropOp46
 70
     1
102
RTVSPost2010Prop47
 90
       50
102
RTVSPost2010PropOp47
 70
     1
102
RTVSPost2010Prop48
 90
       50
102
RTVSPost2010PropOp48
 70
     1
102
RTVSPost2010Prop49
280
     0
102
RTVSPost2010PropOp49
 70
     1
102
RTVSPost2010Prop50
 90
       50
102
RTVSPost2010PropOp50
 70
     1
102
RTVSPost2010Prop51ColorIndex
 90
      256
102
RTVSPost2010Prop51ColorRGB
 90
-16777216
102
RTVSPost2010PropOp51
 70
     0
102
RTVSPost2010Prop52
140
1.0
102
RTVSPost2010PropOp52
 70
     0
102
RTVSPost2010Prop53
 90
        2
102
RTVSPost2010PropOp53
 70
     1
102
RTVSPost2010Prop54
  1
strokes_ogs.tif
102
RTVSPost2010PropOp54
 70
     1
102
RTVSPost2010Prop55
280
     0
102
RTVSPost2010PropOp55
 70
     1
102
RTVSPost2010Prop56
140
1.0
102
RTVSPost2010PropOp56
 70
     1
102
RTVSPost2010Prop57
140
1.0
102
RTVSPost2010PropOp57
 70
     1
  0
XRECORD
  5
480
102
{ACAD_REACTORS
330
47F
102
}
330
47F
100
AcDbXrecord
280
     1
102
RTVSPropertyOp0
 70
     0
102
RTVSPropertyOp1
 70
     0
102
RTVSPropertyOp2
 70
     0
102
RTVSPropertyOp3
 70
     0
102
RTVSPropertyOp4
 70
     0
102
RTVSPropertyOp5
 70
     0
102
RTVSPropertyOp6
 70
     0
102
RTVSPropertyOp7
 70
     0
102
RTVSPropertyOp8
 70
     0
102
RTVSPropertyOp9
 70
     0
102
RTVSPropertyOp10
 70
     0
102
RTVSPropertyOp11
 70
     0
102
RTVSPropertyOp12
 70
     0
102
RTVSPropertyOp13
 70
     0
102
RTVSPropertyOp14
 70
     2
102
RTVSPropertyOp15
 70
     0
102
RTVSPropertyOp16
 70
     0
102
RTVSPropertyOp17
 70
     0
102
RTVSPropertyOp18
 70
     0
102
RTVSPropertyOp19
 70
     0
102
RTVSPropertyOp20
 70
     0
102
RTVSPropertyOp21
 70
     0
102
RTVSPropertyOp22
 70
     0
102
RTVSPropertyOp23
 70
     0
102
RTVSPropertyOp24
 70
     0
102
RTVSPropertyOp25
 70
     0
102
RTVSPropertyOp26
 70
     0
102
RTVSPropertyOp27
 70
     0
102
RTVSPropertyOp28
 70
     0
102
RTVSPropertyOp29
 70
     0
102
RTVSPropertyOp30
 70
     0
102
RTVSPropertyOp31
 70
     0
102
RTVSPropertyOp32
 70
     0
102
RTVSPropertyOp33
 70
     0
102
RTVSPropertyOp34
 70
     0
102
RTVSPropertyOp35
 70
     0
102
RTVSPropertyOp36
 70
     0
102
RTVSPropertyOp37
 70
     0
102
RTVSPropertyOp38
 70
     0
102
RTVSPropertyOp39
 70
     0
102
RTVSPropertyOp40
 70
     0
102
RTVSPropertyOp41
 70
     0
102
RTVSPropertyOp42
 70
     0
102
RTVSPropertyOp43
 70
     0
102
RTVSPropertyOp44
 70
     0
102
RTVSPropertyOp45
 70
     0
102
RTVSPropertyOp46
 70
     0
102
RTVSPropertyOp47
 70
     0
102
RTVSPropertyOp48
 70
     0
102
RTVSPropertyOp49
 70
     0
102
RTVSPropertyOp50
 70
     0
102
RTVSPropertyOp51
 70
     0
102
RTVSPropertyOp52
 70
     0
102
RTVSPropertyOp53
 70
     0
102
RTVSPropertyOp54
 70
     0
102
RTVSPropertyOp55
 70
     0
102
RTVSPropertyOp56
 70
     0
102
RTVSPropertyOp57
 70
     0
102
RTVSPost2010Prop28
280
     0
102
RTVSPost2010PropOp28
 70
     0
102
RTVSPost2010Prop29
280
     1
102
RTVSPost2010PropOp29
 70
     0
102
RTVSPost2010Prop30
280
     1
102
RTVSPost2010PropOp30
 70
     0
102
RTVSPost2010Prop31
280
     0
102
RTVSPost2010PropOp31
 70
     0
102
RTVSPost2010Prop32
280
     0
102
RTVSPost2010PropOp32
 70
     0
102
RTVSPost2010Prop33
280
     0
102
RTVSPost2010PropOp33
 70
     0
102
RTVSPost2010Prop34
280
     0
102
RTVSPost2010PropOp34
 70
     0
102
RTVSPost2010Prop35
280
     0
102
RTVSPost2010PropOp35
 70
     0
102
RTVSPost2010Prop36
280
     0
102
RTVSPost2010PropOp36
 70
     0
102
RTVSPost2010Prop37
 90
       50
102
RTVSPost2010PropOp37
 70
     0
102
RTVSPost2010Prop38
140
0.0
102
RTVSPost2010PropOp38
 70
     0
102
RTVSPost2010Prop39
140
1.0
102
RTVSPost2010PropOp39
 70
     0
102
RTVSPost2010Prop40
 90
        0
102
RTVSPost2010PropOp40
 70
     0
102
RTVSPost2010Prop41ColorIndex
 90
      178
102
RTVSPost2010Prop41ColorRGB
 90
        0
102
RTVSPost2010PropOp41
 70
     0
102
RTVSPost2010Prop42
 90
       50
102
RTVSPost2010PropOp42
 70
     0
102
RTVSPost2010Prop43
 90
        3
102
RTVSPost2010PropOp43
 70
     0
102
RTVSPost2010Prop44ColorIndex
 90
        5
102
RTVSPost2010Prop44ColorRGB
 90
      255
102
RTVSPost2010PropOp44
 70
     0
102
RTVSPost2010Prop45
280
     0
102
RTVSPost2010PropOp45
 70
     0
102
RTVSPost2010Prop46
 90
       50
102
RTVSPost2010PropOp46
 70
     0
102
RTVSPost2010Prop47
 90
       50
102
RTVSPost2010PropOp47
 70
     0
102
RTVSPost2010Prop48
 90
       50
102
RTVSPost2010PropOp48
 70
     0
102
RTVSPost2010Prop49
280
     0
102
RTVSPost2010PropOp49
 70
     0
102
RTVSPost2010Prop50
 90
       50
102
RTVSPost2010PropOp50
 70
     0
102
RTVSPost2010Prop51ColorIndex
 90
      256
102
RTVSPost2010Prop51ColorRGB
 90
-16777216
102
RTVSPost2010PropOp51
 70
     0
102
RTVSPost2010Prop52
140
1.0
102
RTVSPost2010PropOp52
 70
     0
102
RTVSPost2010Prop53
 90
        2
102
RTVSPost2010PropOp53
 70
     0
102
RTVSPost2010Prop54
  1
strokes_ogs.tif
102
RTVSPost2010PropOp54
 70
     0
102
RTVSPost2010Prop55
280
     0
102
RTVSPost2010PropOp55
 70
     0
102
RTVSPost2010Prop56
140
1.0
102
RTVSPost2010PropOp56
 70
     0
102
RTVSPost2010Prop57
140
1.0
102
RTVSPost2010PropOp57
 70
     0
  0
XRECORD
  5
47A
102
{ACAD_REACTORS
330
479
102
}
330
479
100
AcDbXrecord
280
     1
102
RTVSPropertyOp0
 70
     1
102
RTVSPropertyOp1
 70
     1
102
RTVSPropertyOp2
 70
     1
102
RTVSPropertyOp3
 70
     1
102
RTVSPropertyOp4
 70
     1
102
RTVSPropertyOp5
 70
     1
102
RTVSPropertyOp6
 70
     1
102
RTVSPropertyOp7
 70
     1
102
RTVSPropertyOp8
 70
     1
102
RTVSPropertyOp9
 70
     1
102
RTVSPropertyOp10
 70
     1
102
RTVSPropertyOp11
 70
     1
102
RTVSPropertyOp12
 70
     1
102
RTVSPropertyOp13
 70
     1
102
RTVSPropertyOp14
 70
     1
102
RTVSPropertyOp15
 70
     1
102
RTVSPropertyOp16
 70
     1
102
RTVSPropertyOp17
 70
     1
102
RTVSPropertyOp18
 70
     1
102
RTVSPropertyOp19
 70
     1
102
RTVSPropertyOp20
 70
     1
102
RTVSPropertyOp21
 70
     1
102
RTVSPropertyOp22
 70
     1
102
RTVSPropertyOp23
 70
     1
102
RTVSPropertyOp24
 70
     1
102
RTVSPropertyOp25
 70
     1
102
RTVSPropertyOp26
 70
     1
102
RTVSPropertyOp27
 70
     1
102
RTVSPropertyOp28
 70
     1
102
RTVSPropertyOp29
 70
     1
102
RTVSPropertyOp30
 70
     1
102
RTVSPropertyOp31
 70
     1
102
RTVSPropertyOp32
 70
     1
102
RTVSPropertyOp33
 70
     1
102
RTVSPropertyOp34
 70
     1
102
RTVSPropertyOp35
 70
     1
102
RTVSPropertyOp36
 70
     1
102
RTVSPropertyOp37
 70
     1
102
RTVSPropertyOp38
 70
     1
102
RTVSPropertyOp39
 70
     1
102
RTVSPropertyOp40
 70
     1
102
RTVSPropertyOp41
 70
     1
102
RTVSPropertyOp42
 70
     1
102
RTVSPropertyOp43
 70
     1
102
RTVSPropertyOp44
 70
     1
102
RTVSPropertyOp45
 70
     1
102
RTVSPropertyOp46
 70
     1
102
RTVSPropertyOp47
 70
     1
102
RTVSPropertyOp48
 70
     1
102
RTVSPropertyOp49
 70
     1
102
RTVSPropertyOp50
 70
     1
102
RTVSPropertyOp51
 70
     0
102
RTVSPropertyOp52
 70
     0
102
RTVSPropertyOp53
 70
     1
102
RTVSPropertyOp54
 70
     1
102
RTVSPropertyOp55
 70
     1
102
RTVSPropertyOp56
 70
     1
102
RTVSPropertyOp57
 70
     1
102
RTVSPost2010Prop28
280
     0
102
RTVSPost2010PropOp28
 70
     1
102
RTVSPost2010Prop29
280
     1
102
RTVSPost2010PropOp29
 70
     1
102
RTVSPost2010Prop30
280
     1
102
RTVSPost2010PropOp30
 70
     1
102
RTVSPost2010Prop31
280
     0
102
RTVSPost2010PropOp31
 70
     1
102
RTVSPost2010Prop32
280
     0
102
RTVSPost2010PropOp32
 70
     1
102
RTVSPost2010Prop33
280
     0
102
RTVSPost2010PropOp33
 70
     1
102
RTVSPost2010Prop34
280
     0
102
RTVSPost2010PropOp34
 70
     1
102
RTVSPost2010Prop35
280
     0
102
RTVSPost2010PropOp35
 70
     1
102
RTVSPost2010Prop36
280
     0
102
RTVSPost2010PropOp36
 70
     1
102
RTVSPost2010Prop37
 90
       50
102
RTVSPost2010PropOp37
 70
     1
102
RTVSPost2010Prop38
140
0.0
102
RTVSPost2010PropOp38
 70
     1
102
RTVSPost2010Prop39
140
1.0
102
RTVSPost2010PropOp39
 70
     1
102
RTVSPost2010Prop40
 90
        0
102
RTVSPost2010PropOp40
 70
     1
102
RTVSPost2010Prop41ColorIndex
 90
      178
102
RTVSPost2010Prop41ColorRGB
 90
        0
102
RTVSPost2010PropOp41
 70
     1
102
RTVSPost2010Prop42
 90
       50
102
RTVSPost2010PropOp42
 70
     1
102
RTVSPost2010Prop43
 90
        3
102
RTVSPost2010PropOp43
 70
     1
102
RTVSPost2010Prop44ColorIndex
 90
        5
102
RTVSPost2010Prop44ColorRGB
 90
      255
102
RTVSPost2010PropOp44
 70
     1
102
RTVSPost2010Prop45
280
     0
102
RTVSPost2010PropOp45
 70
     1
102
RTVSPost2010Prop46
 90
       50
102
RTVSPost2010PropOp46
 70
     1
102
RTVSPost2010Prop47
 90
       50
102
RTVSPost2010PropOp47
 70
     1
102
RTVSPost2010Prop48
 90
       50
102
RTVSPost2010PropOp48
 70
     1
102
RTVSPost2010Prop49
280
     0
102
RTVSPost2010PropOp49
 70
     1
102
RTVSPost2010Prop50
 90
       50
102
RTVSPost2010PropOp50
 70
     1
102
RTVSPost2010Prop51ColorIndex
 90
      256
102
RTVSPost2010Prop51ColorRGB
 90
-16777216
102
RTVSPost2010PropOp51
 70
     0
102
RTVSPost2010Prop52
140
1.0
102
RTVSPost2010PropOp52
 70
     0
102
RTVSPost2010Prop53
 90
        2
102
RTVSPost2010PropOp53
 70
     1
102
RTVSPost2010Prop54
  1
strokes_ogs.tif
102
RTVSPost2010PropOp54
 70
     1
102
RTVSPost2010Prop55
280
     0
102
RTVSPost2010PropOp55
 70
     1
102
RTVSPost2010Prop56
140
1.0
102
RTVSPost2010PropOp56
 70
     1
102
RTVSPost2010Prop57
140
1.0
102
RTVSPost2010PropOp57
 70
     1
  0
XRECORD
  5
482
102
{ACAD_REACTORS
330
481
102
}
330
481
100
AcDbXrecord
280
     1
102
RTVSPropertyOp0
 70
     0
102
RTVSPropertyOp1
 70
     0
102
RTVSPropertyOp2
 70
     0
102
RTVSPropertyOp3
 70
     0
102
RTVSPropertyOp4
 70
     0
102
RTVSPropertyOp5
 70
     0
102
RTVSPropertyOp6
 70
     0
102
RTVSPropertyOp7
 70
     0
102
RTVSPropertyOp8
 70
     0
102
RTVSPropertyOp9
 70
     0
102
RTVSPropertyOp10
 70
     0
102
RTVSPropertyOp11
 70
     0
102
RTVSPropertyOp12
 70
     0
102
RTVSPropertyOp13
 70
     0
102
RTVSPropertyOp14
 70
     2
102
RTVSPropertyOp15
 70
     0
102
RTVSPropertyOp16
 70
     0
102
RTVSPropertyOp17
 70
     0
102
RTVSPropertyOp18
 70
     0
102
RTVSPropertyOp19
 70
     0
102
RTVSPropertyOp20
 70
     0
102
RTVSPropertyOp21
 70
     0
102
RTVSPropertyOp22
 70
     0
102
RTVSPropertyOp23
 70
     0
102
RTVSPropertyOp24
 70
     0
102
RTVSPropertyOp25
 70
     0
102
RTVSPropertyOp26
 70
     0
102
RTVSPropertyOp27
 70
     0
102
RTVSPropertyOp28
 70
     0
102
RTVSPropertyOp29
 70
     0
102
RTVSPropertyOp30
 70
     0
102
RTVSPropertyOp31
 70
     0
102
RTVSPropertyOp32
 70
     0
102
RTVSPropertyOp33
 70
     0
102
RTVSPropertyOp34
 70
     0
102
RTVSPropertyOp35
 70
     0
102
RTVSPropertyOp36
 70
     0
102
RTVSPropertyOp37
 70
     0
102
RTVSPropertyOp38
 70
     0
102
RTVSPropertyOp39
 70
     0
102
RTVSPropertyOp40
 70
     0
102
RTVSPropertyOp41
 70
     0
102
RTVSPropertyOp42
 70
     0
102
RTVSPropertyOp43
 70
     0
102
RTVSPropertyOp44
 70
     0
102
RTVSPropertyOp45
 70
     0
102
RTVSPropertyOp46
 70
     0
102
RTVSPropertyOp47
 70
     0
102
RTVSPropertyOp48
 70
     0
102
RTVSPropertyOp49
 70
     0
102
RTVSPropertyOp50
 70
     0
102
RTVSPropertyOp51
 70
     0
102
RTVSPropertyOp52
 70
     0
102
RTVSPropertyOp53
 70
     0
102
RTVSPropertyOp54
 70
     0
102
RTVSPropertyOp55
 70
     0
102
RTVSPropertyOp56
 70
     0
102
RTVSPropertyOp57
 70
     0
102
RTVSPost2010Prop28
280
     0
102
RTVSPost2010PropOp28
 70
     0
102
RTVSPost2010Prop29
280
     1
102
RTVSPost2010PropOp29
 70
     0
102
RTVSPost2010Prop30
280
     1
102
RTVSPost2010PropOp30
 70
     0
102
RTVSPost2010Prop31
280
     0
102
RTVSPost2010PropOp31
 70
     0
102
RTVSPost2010Prop32
280
     0
102
RTVSPost2010PropOp32
 70
     0
102
RTVSPost2010Prop33
280
     0
102
RTVSPost2010PropOp33
 70
     0
102
RTVSPost2010Prop34
280
     0
102
RTVSPost2010PropOp34
 70
     0
102
RTVSPost2010Prop35
280
     0
102
RTVSPost2010PropOp35
 70
     0
102
RTVSPost2010Prop36
280
     0
102
RTVSPost2010PropOp36
 70
     0
102
RTVSPost2010Prop37
 90
       50
102
RTVSPost2010PropOp37
 70
     0
102
RTVSPost2010Prop38
140
0.0
102
RTVSPost2010PropOp38
 70
     0
102
RTVSPost2010Prop39
140
1.0
102
RTVSPost2010PropOp39
 70
     0
102
RTVSPost2010Prop40
 90
        0
102
RTVSPost2010PropOp40
 70
     0
102
RTVSPost2010Prop41ColorIndex
 90
      178
102
RTVSPost2010Prop41ColorRGB
 90
        0
102
RTVSPost2010PropOp41
 70
     0
102
RTVSPost2010Prop42
 90
       50
102
RTVSPost2010PropOp42
 70
     0
102
RTVSPost2010Prop43
 90
        3
102
RTVSPost2010PropOp43
 70
     0
102
RTVSPost2010Prop44ColorIndex
 90
        5
102
RTVSPost2010Prop44ColorRGB
 90
      255
102
RTVSPost2010PropOp44
 70
     0
102
RTVSPost2010Prop45
280
     0
102
RTVSPost2010PropOp45
 70
     0
102
RTVSPost2010Prop46
 90
       50
102
RTVSPost2010PropOp46
 70
     0
102
RTVSPost2010Prop47
 90
       50
102
RTVSPost2010PropOp47
 70
     0
102
RTVSPost2010Prop48
 90
       50
102
RTVSPost2010PropOp48
 70
     0
102
RTVSPost2010Prop49
280
     0
102
RTVSPost2010PropOp49
 70
     0
102
RTVSPost2010Prop50
 90
       50
102
RTVSPost2010PropOp50
 70
     0
102
RTVSPost2010Prop51ColorIndex
 90
      256
102
RTVSPost2010Prop51ColorRGB
 90
-16777216
102
RTVSPost2010PropOp51
 70
     0
102
RTVSPost2010Prop52
140
1.0
102
RTVSPost2010PropOp52
 70
     0
102
RTVSPost2010Prop53
 90
        2
102
RTVSPost2010PropOp53
 70
     0
102
RTVSPost2010Prop54
  1
strokes_ogs.tif
102
RTVSPost2010PropOp54
 70
     0
102
RTVSPost2010Prop55
280
     0
102
RTVSPost2010PropOp55
 70
     0
102
RTVSPost2010Prop56
140
1.0
102
RTVSPost2010PropOp56
 70
     0
102
RTVSPost2010Prop57
140
1.0
102
RTVSPost2010PropOp57
 70
     0
  0
XRECORD
  5
470
102
{ACAD_REACTORS
330
46F
102
}
330
46F
100
AcDbXrecord
280
     1
102
RTVSPropertyOp0
 70
     1
102
RTVSPropertyOp1
 70
     1
102
RTVSPropertyOp2
 70
     1
102
RTVSPropertyOp3
 70
     1
102
RTVSPropertyOp4
 70
     1
102
RTVSPropertyOp5
 70
     1
102
RTVSPropertyOp6
 70
     1
102
RTVSPropertyOp7
 70
     1
102
RTVSPropertyOp8
 70
     1
102
RTVSPropertyOp9
 70
     1
102
RTVSPropertyOp10
 70
     1
102
RTVSPropertyOp11
 70
     1
102
RTVSPropertyOp12
 70
     1
102
RTVSPropertyOp13
 70
     1
102
RTVSPropertyOp14
 70
     1
102
RTVSPropertyOp15
 70
     1
102
RTVSPropertyOp16
 70
     1
102
RTVSPropertyOp17
 70
     1
102
RTVSPropertyOp18
 70
     1
102
RTVSPropertyOp19
 70
     1
102
RTVSPropertyOp20
 70
     1
102
RTVSPropertyOp21
 70
     1
102
RTVSPropertyOp22
 70
     1
102
RTVSPropertyOp23
 70
     1
102
RTVSPropertyOp24
 70
     1
102
RTVSPropertyOp25
 70
     1
102
RTVSPropertyOp26
 70
     1
102
RTVSPropertyOp27
 70
     1
102
RTVSPropertyOp28
 70
     1
102
RTVSPropertyOp29
 70
     1
102
RTVSPropertyOp30
 70
     1
102
RTVSPropertyOp31
 70
     1
102
RTVSPropertyOp32
 70
     1
102
RTVSPropertyOp33
 70
     1
102
RTVSPropertyOp34
 70
     1
102
RTVSPropertyOp35
 70
     1
102
RTVSPropertyOp36
 70
     1
102
RTVSPropertyOp37
 70
     1
102
RTVSPropertyOp38
 70
     1
102
RTVSPropertyOp39
 70
     1
102
RTVSPropertyOp40
 70
     1
102
RTVSPropertyOp41
 70
     1
102
RTVSPropertyOp42
 70
     1
102
RTVSPropertyOp43
 70
     1
102
RTVSPropertyOp44
 70
     1
102
RTVSPropertyOp45
 70
     1
102
RTVSPropertyOp46
 70
     1
102
RTVSPropertyOp47
 70
     1
102
RTVSPropertyOp48
 70
     1
102
RTVSPropertyOp49
 70
     1
102
RTVSPropertyOp50
 70
     1
102
RTVSPropertyOp51
 70
     0
102
RTVSPropertyOp52
 70
     0
102
RTVSPropertyOp53
 70
     1
102
RTVSPropertyOp54
 70
     1
102
RTVSPropertyOp55
 70
     1
102
RTVSPropertyOp56
 70
     1
102
RTVSPropertyOp57
 70
     1
102
RTVSPost2010Prop28
280
     0
102
RTVSPost2010PropOp28
 70
     1
102
RTVSPost2010Prop29
280
     1
102
RTVSPost2010PropOp29
 70
     1
102
RTVSPost2010Prop30
280
     1
102
RTVSPost2010PropOp30
 70
     1
102
RTVSPost2010Prop31
280
     0
102
RTVSPost2010PropOp31
 70
     1
102
RTVSPost2010Prop32
280
     0
102
RTVSPost2010PropOp32
 70
     1
102
RTVSPost2010Prop33
280
     0
102
RTVSPost2010PropOp33
 70
     1
102
RTVSPost2010Prop34
280
     0
102
RTVSPost2010PropOp34
 70
     1
102
RTVSPost2010Prop35
280
     0
102
RTVSPost2010PropOp35
 70
     1
102
RTVSPost2010Prop36
280
     0
102
RTVSPost2010PropOp36
 70
     1
102
RTVSPost2010Prop37
 90
       50
102
RTVSPost2010PropOp37
 70
     1
102
RTVSPost2010Prop38
140
0.0
102
RTVSPost2010PropOp38
 70
     1
102
RTVSPost2010Prop39
140
1.0
102
RTVSPost2010PropOp39
 70
     1
102
RTVSPost2010Prop40
 90
        0
102
RTVSPost2010PropOp40
 70
     1
102
RTVSPost2010Prop41ColorIndex
 90
      178
102
RTVSPost2010Prop41ColorRGB
 90
        0
102
RTVSPost2010PropOp41
 70
     1
102
RTVSPost2010Prop42
 90
       50
102
RTVSPost2010PropOp42
 70
     1
102
RTVSPost2010Prop43
 90
        3
102
RTVSPost2010PropOp43
 70
     1
102
RTVSPost2010Prop44ColorIndex
 90
        5
102
RTVSPost2010Prop44ColorRGB
 90
      255
102
RTVSPost2010PropOp44
 70
     1
102
RTVSPost2010Prop45
280
     0
102
RTVSPost2010PropOp45
 70
     1
102
RTVSPost2010Prop46
 90
       50
102
RTVSPost2010PropOp46
 70
     1
102
RTVSPost2010Prop47
 90
       50
102
RTVSPost2010PropOp47
 70
     1
102
RTVSPost2010Prop48
 90
       50
102
RTVSPost2010PropOp48
 70
     1
102
RTVSPost2010Prop49
280
     0
102
RTVSPost2010PropOp49
 70
     1
102
RTVSPost2010Prop50
 90
       50
102
RTVSPost2010PropOp50
 70
     1
102
RTVSPost2010Prop51ColorIndex
 90
      256
102
RTVSPost2010Prop51ColorRGB
 90
-16777216
102
RTVSPost2010PropOp51
 70
     0
102
RTVSPost2010Prop52
140
1.0
102
RTVSPost2010PropOp52
 70
     0
102
RTVSPost2010Prop53
 90
        2
102
RTVSPost2010PropOp53
 70
     1
102
RTVSPost2010Prop54
  1
strokes_ogs.tif
102
RTVSPost2010PropOp54
 70
     1
102
RTVSPost2010Prop55
280
     0
102
RTVSPost2010PropOp55
 70
     1
102
RTVSPost2010Prop56
140
1.0
102
RTVSPost2010PropOp56
 70
     1
102
RTVSPost2010Prop57
140
1.0
102
RTVSPost2010PropOp57
 70
     1
  0
XRECORD
  5
48E
102
{ACAD_REACTORS
330
48D
102
}
330
48D
100
AcDbXrecord
280
     1
102
RTVSPropertyOp0
 70
     1
102
RTVSPropertyOp1
 70
     1
102
RTVSPropertyOp2
 70
     1
102
RTVSPropertyOp3
 70
     1
102
RTVSPropertyOp4
 70
     1
102
RTVSPropertyOp5
 70
     1
102
RTVSPropertyOp6
 70
     1
102
RTVSPropertyOp7
 70
     1
102
RTVSPropertyOp8
 70
     1
102
RTVSPropertyOp9
 70
     1
102
RTVSPropertyOp10
 70
     1
102
RTVSPropertyOp11
 70
     1
102
RTVSPropertyOp12
 70
     1
102
RTVSPropertyOp13
 70
     1
102
RTVSPropertyOp14
 70
     1
102
RTVSPropertyOp15
 70
     1
102
RTVSPropertyOp16
 70
     1
102
RTVSPropertyOp17
 70
     1
102
RTVSPropertyOp18
 70
     1
102
RTVSPropertyOp19
 70
     1
102
RTVSPropertyOp20
 70
     1
102
RTVSPropertyOp21
 70
     1
102
RTVSPropertyOp22
 70
     1
102
RTVSPropertyOp23
 70
     1
102
RTVSPropertyOp24
 70
     1
102
RTVSPropertyOp25
 70
     1
102
RTVSPropertyOp26
 70
     1
102
RTVSPropertyOp27
 70
     1
102
RTVSPropertyOp28
 70
     1
102
RTVSPropertyOp29
 70
     1
102
RTVSPropertyOp30
 70
     1
102
RTVSPropertyOp31
 70
     1
102
RTVSPropertyOp32
 70
     1
102
RTVSPropertyOp33
 70
     1
102
RTVSPropertyOp34
 70
     1
102
RTVSPropertyOp35
 70
     1
102
RTVSPropertyOp36
 70
     1
102
RTVSPropertyOp37
 70
     1
102
RTVSPropertyOp38
 70
     1
102
RTVSPropertyOp39
 70
     1
102
RTVSPropertyOp40
 70
     1
102
RTVSPropertyOp41
 70
     1
102
RTVSPropertyOp42
 70
     1
102
RTVSPropertyOp43
 70
     1
102
RTVSPropertyOp44
 70
     1
102
RTVSPropertyOp45
 70
     1
102
RTVSPropertyOp46
 70
     1
102
RTVSPropertyOp47
 70
     1
102
RTVSPropertyOp48
 70
     1
102
RTVSPropertyOp49
 70
     1
102
RTVSPropertyOp50
 70
     1
102
RTVSPropertyOp51
 70
     0
102
RTVSPropertyOp52
 70
     0
102
RTVSPropertyOp53
 70
     1
102
RTVSPropertyOp54
 70
     1
102
RTVSPropertyOp55
 70
     1
102
RTVSPropertyOp56
 70
     1
102
RTVSPropertyOp57
 70
     1
102
RTVSPost2010Prop28
280
     0
102
RTVSPost2010PropOp28
 70
     1
102
RTVSPost2010Prop29
280
     1
102
RTVSPost2010PropOp29
 70
     1
102
RTVSPost2010Prop30
280
     1
102
RTVSPost2010PropOp30
 70
     1
102
RTVSPost2010Prop31
280
     0
102
RTVSPost2010PropOp31
 70
     1
102
RTVSPost2010Prop32
280
     0
102
RTVSPost2010PropOp32
 70
     1
102
RTVSPost2010Prop33
280
     0
102
RTVSPost2010PropOp33
 70
     1
102
RTVSPost2010Prop34
280
     0
102
RTVSPost2010PropOp34
 70
     1
102
RTVSPost2010Prop35
280
     0
102
RTVSPost2010PropOp35
 70
     1
102
RTVSPost2010Prop36
280
     0
102
RTVSPost2010PropOp36
 70
     1
102
RTVSPost2010Prop37
 90
       50
102
RTVSPost2010PropOp37
 70
     1
102
RTVSPost2010Prop38
140
0.0
102
RTVSPost2010PropOp38
 70
     1
102
RTVSPost2010Prop39
140
1.0
102
RTVSPost2010PropOp39
 70
     1
102
RTVSPost2010Prop40
 90
        0
102
RTVSPost2010PropOp40
 70
     1
102
RTVSPost2010Prop41ColorIndex
 90
      178
102
RTVSPost2010Prop41ColorRGB
 90
        0
102
RTVSPost2010PropOp41
 70
     1
102
RTVSPost2010Prop42
 90
       50
102
RTVSPost2010PropOp42
 70
     1
102
RTVSPost2010Prop43
 90
        3
102
RTVSPost2010PropOp43
 70
     1
102
RTVSPost2010Prop44ColorIndex
 90
        5
102
RTVSPost2010Prop44ColorRGB
 90
      255
102
RTVSPost2010PropOp44
 70
     1
102
RTVSPost2010Prop45
280
     0
102
RTVSPost2010PropOp45
 70
     1
102
RTVSPost2010Prop46
 90
       50
102
RTVSPost2010PropOp46
 70
     1
102
RTVSPost2010Prop47
 90
       50
102
RTVSPost2010PropOp47
 70
     1
102
RTVSPost2010Prop48
 90
       50
102
RTVSPost2010PropOp48
 70
     1
102
RTVSPost2010Prop49
280
     0
102
RTVSPost2010PropOp49
 70
     1
102
RTVSPost2010Prop50
 90
       50
102
RTVSPost2010PropOp50
 70
     1
102
RTVSPost2010Prop51ColorIndex
 90
      256
102
RTVSPost2010Prop51ColorRGB
 90
-16777216
102
RTVSPost2010PropOp51
 70
     0
102
RTVSPost2010Prop52
140
1.0
102
RTVSPost2010PropOp52
 70
     0
102
RTVSPost2010Prop53
 90
        2
102
RTVSPost2010PropOp53
 70
     1
102
RTVSPost2010Prop54
  1
strokes_ogs.tif
102
RTVSPost2010PropOp54
 70
     1
102
RTVSPost2010Prop55
280
     0
102
RTVSPost2010PropOp55
 70
     1
102
RTVSPost2010Prop56
140
1.0
102
RTVSPost2010PropOp56
 70
     1
102
RTVSPost2010Prop57
140
1.0
102
RTVSPost2010PropOp57
 70
     1
  0
XRECORD
  5
48C
102
{ACAD_REACTORS
330
48B
102
}
330
48B
100
AcDbXrecord
280
     1
102
RTVSPropertyOp0
 70
     1
102
RTVSPropertyOp1
 70
     1
102
RTVSPropertyOp2
 70
     1
102
RTVSPropertyOp3
 70
     1
102
RTVSPropertyOp4
 70
     1
102
RTVSPropertyOp5
 70
     1
102
RTVSPropertyOp6
 70
     1
102
RTVSPropertyOp7
 70
     1
102
RTVSPropertyOp8
 70
     1
102
RTVSPropertyOp9
 70
     1
102
RTVSPropertyOp10
 70
     1
102
RTVSPropertyOp11
 70
     1
102
RTVSPropertyOp12
 70
     1
102
RTVSPropertyOp13
 70
     1
102
RTVSPropertyOp14
 70
     1
102
RTVSPropertyOp15
 70
     1
102
RTVSPropertyOp16
 70
     1
102
RTVSPropertyOp17
 70
     1
102
RTVSPropertyOp18
 70
     1
102
RTVSPropertyOp19
 70
     1
102
RTVSPropertyOp20
 70
     1
102
RTVSPropertyOp21
 70
     1
102
RTVSPropertyOp22
 70
     1
102
RTVSPropertyOp23
 70
     1
102
RTVSPropertyOp24
 70
     1
102
RTVSPropertyOp25
 70
     1
102
RTVSPropertyOp26
 70
     1
102
RTVSPropertyOp27
 70
     1
102
RTVSPropertyOp28
 70
     1
102
RTVSPropertyOp29
 70
     1
102
RTVSPropertyOp30
 70
     1
102
RTVSPropertyOp31
 70
     1
102
RTVSPropertyOp32
 70
     1
102
RTVSPropertyOp33
 70
     1
102
RTVSPropertyOp34
 70
     1
102
RTVSPropertyOp35
 70
     1
102
RTVSPropertyOp36
 70
     1
102
RTVSPropertyOp37
 70
     1
102
RTVSPropertyOp38
 70
     1
102
RTVSPropertyOp39
 70
     1
102
RTVSPropertyOp40
 70
     1
102
RTVSPropertyOp41
 70
     1
102
RTVSPropertyOp42
 70
     1
102
RTVSPropertyOp43
 70
     1
102
RTVSPropertyOp44
 70
     1
102
RTVSPropertyOp45
 70
     1
102
RTVSPropertyOp46
 70
     1
102
RTVSPropertyOp47
 70
     1
102
RTVSPropertyOp48
 70
     1
102
RTVSPropertyOp49
 70
     1
102
RTVSPropertyOp50
 70
     1
102
RTVSPropertyOp51
 70
     0
102
RTVSPropertyOp52
 70
     0
102
RTVSPropertyOp53
 70
     1
102
RTVSPropertyOp54
 70
     1
102
RTVSPropertyOp55
 70
     1
102
RTVSPropertyOp56
 70
     1
102
RTVSPropertyOp57
 70
     1
102
RTVSPost2010Prop28
280
     0
102
RTVSPost2010PropOp28
 70
     1
102
RTVSPost2010Prop29
280
     1
102
RTVSPost2010PropOp29
 70
     1
102
RTVSPost2010Prop30
280
     1
102
RTVSPost2010PropOp30
 70
     1
102
RTVSPost2010Prop31
280
     0
102
RTVSPost2010PropOp31
 70
     1
102
RTVSPost2010Prop32
280
     0
102
RTVSPost2010PropOp32
 70
     1
102
RTVSPost2010Prop33
280
     0
102
RTVSPost2010PropOp33
 70
     1
102
RTVSPost2010Prop34
280
     0
102
RTVSPost2010PropOp34
 70
     1
102
RTVSPost2010Prop35
280
     0
102
RTVSPost2010PropOp35
 70
     1
102
RTVSPost2010Prop36
280
     0
102
RTVSPost2010PropOp36
 70
     1
102
RTVSPost2010Prop37
 90
       50
102
RTVSPost2010PropOp37
 70
     1
102
RTVSPost2010Prop38
140
0.0
102
RTVSPost2010PropOp38
 70
     1
102
RTVSPost2010Prop39
140
1.0
102
RTVSPost2010PropOp39
 70
     1
102
RTVSPost2010Prop40
 90
        0
102
RTVSPost2010PropOp40
 70
     1
102
RTVSPost2010Prop41ColorIndex
 90
      178
102
RTVSPost2010Prop41ColorRGB
 90
        0
102
RTVSPost2010PropOp41
 70
     1
102
RTVSPost2010Prop42
 90
       50
102
RTVSPost2010PropOp42
 70
     1
102
RTVSPost2010Prop43
 90
        3
102
RTVSPost2010PropOp43
 70
     1
102
RTVSPost2010Prop44ColorIndex
 90
        5
102
RTVSPost2010Prop44ColorRGB
 90
      255
102
RTVSPost2010PropOp44
 70
     1
102
RTVSPost2010Prop45
280
     0
102
RTVSPost2010PropOp45
 70
     1
102
RTVSPost2010Prop46
 90
       50
102
RTVSPost2010PropOp46
 70
     1
102
RTVSPost2010Prop47
 90
       50
102
RTVSPost2010PropOp47
 70
     1
102
RTVSPost2010Prop48
 90
       50
102
RTVSPost2010PropOp48
 70
     1
102
RTVSPost2010Prop49
280
     0
102
RTVSPost2010PropOp49
 70
     1
102
RTVSPost2010Prop50
 90
       50
102
RTVSPost2010PropOp50
 70
     1
102
RTVSPost2010Prop51ColorIndex
 90
      256
102
RTVSPost2010Prop51ColorRGB
 90
-16777216
102
RTVSPost2010PropOp51
 70
     0
102
RTVSPost2010Prop52
140
1.0
102
RTVSPost2010PropOp52
 70
     0
102
RTVSPost2010Prop53
 90
        2
102
RTVSPost2010PropOp53
 70
     1
102
RTVSPost2010Prop54
  1
strokes_ogs.tif
102
RTVSPost2010PropOp54
 70
     1
102
RTVSPost2010Prop55
280
     0
102
RTVSPost2010PropOp55
 70
     1
102
RTVSPost2010Prop56
140
1.0
102
RTVSPost2010PropOp56
 70
     1
102
RTVSPost2010Prop57
140
1.0
102
RTVSPost2010PropOp57
 70
     1
  0
XRECORD
  5
486
102
{ACAD_REACTORS
330
485
102
}
330
485
100
AcDbXrecord
280
     1
102
RTVSPropertyOp0
 70
     1
102
RTVSPropertyOp1
 70
     1
102
RTVSPropertyOp2
 70
     1
102
RTVSPropertyOp3
 70
     1
102
RTVSPropertyOp4
 70
     1
102
RTVSPropertyOp5
 70
     1
102
RTVSPropertyOp6
 70
     1
102
RTVSPropertyOp7
 70
     1
102
RTVSPropertyOp8
 70
     1
102
RTVSPropertyOp9
 70
     1
102
RTVSPropertyOp10
 70
     1
102
RTVSPropertyOp11
 70
     1
102
RTVSPropertyOp12
 70
     1
102
RTVSPropertyOp13
 70
     1
102
RTVSPropertyOp14
 70
     1
102
RTVSPropertyOp15
 70
     1
102
RTVSPropertyOp16
 70
     1
102
RTVSPropertyOp17
 70
     1
102
RTVSPropertyOp18
 70
     1
102
RTVSPropertyOp19
 70
     1
102
RTVSPropertyOp20
 70
     1
102
RTVSPropertyOp21
 70
     1
102
RTVSPropertyOp22
 70
     1
102
RTVSPropertyOp23
 70
     1
102
RTVSPropertyOp24
 70
     1
102
RTVSPropertyOp25
 70
     1
102
RTVSPropertyOp26
 70
     1
102
RTVSPropertyOp27
 70
     1
102
RTVSPropertyOp28
 70
     1
102
RTVSPropertyOp29
 70
     1
102
RTVSPropertyOp30
 70
     1
102
RTVSPropertyOp31
 70
     1
102
RTVSPropertyOp32
 70
     1
102
RTVSPropertyOp33
 70
     1
102
RTVSPropertyOp34
 70
     1
102
RTVSPropertyOp35
 70
     1
102
RTVSPropertyOp36
 70
     1
102
RTVSPropertyOp37
 70
     1
102
RTVSPropertyOp38
 70
     1
102
RTVSPropertyOp39
 70
     1
102
RTVSPropertyOp40
 70
     1
102
RTVSPropertyOp41
 70
     1
102
RTVSPropertyOp42
 70
     1
102
RTVSPropertyOp43
 70
     1
102
RTVSPropertyOp44
 70
     1
102
RTVSPropertyOp45
 70
     1
102
RTVSPropertyOp46
 70
     1
102
RTVSPropertyOp47
 70
     1
102
RTVSPropertyOp48
 70
     1
102
RTVSPropertyOp49
 70
     1
102
RTVSPropertyOp50
 70
     1
102
RTVSPropertyOp51
 70
     0
102
RTVSPropertyOp52
 70
     0
102
RTVSPropertyOp53
 70
     1
102
RTVSPropertyOp54
 70
     1
102
RTVSPropertyOp55
 70
     1
102
RTVSPropertyOp56
 70
     1
102
RTVSPropertyOp57
 70
     1
102
RTVSPost2010Prop28
280
     0
102
RTVSPost2010PropOp28
 70
     1
102
RTVSPost2010Prop29
280
     1
102
RTVSPost2010PropOp29
 70
     1
102
RTVSPost2010Prop30
280
     1
102
RTVSPost2010PropOp30
 70
     1
102
RTVSPost2010Prop31
280
     0
102
RTVSPost2010PropOp31
 70
     1
102
RTVSPost2010Prop32
280
     0
102
RTVSPost2010PropOp32
 70
     1
102
RTVSPost2010Prop33
280
     0
102
RTVSPost2010PropOp33
 70
     1
102
RTVSPost2010Prop34
280
     0
102
RTVSPost2010PropOp34
 70
     1
102
RTVSPost2010Prop35
280
     0
102
RTVSPost2010PropOp35
 70
     1
102
RTVSPost2010Prop36
280
     0
102
RTVSPost2010PropOp36
 70
     1
102
RTVSPost2010Prop37
 90
       50
102
RTVSPost2010PropOp37
 70
     1
102
RTVSPost2010Prop38
140
0.0
102
RTVSPost2010PropOp38
 70
     1
102
RTVSPost2010Prop39
140
1.0
102
RTVSPost2010PropOp39
 70
     1
102
RTVSPost2010Prop40
 90
        0
102
RTVSPost2010PropOp40
 70
     1
102
RTVSPost2010Prop41ColorIndex
 90
      178
102
RTVSPost2010Prop41ColorRGB
 90
        0
102
RTVSPost2010PropOp41
 70
     1
102
RTVSPost2010Prop42
 90
       50
102
RTVSPost2010PropOp42
 70
     1
102
RTVSPost2010Prop43
 90
        3
102
RTVSPost2010PropOp43
 70
     1
102
RTVSPost2010Prop44ColorIndex
 90
        5
102
RTVSPost2010Prop44ColorRGB
 90
      255
102
RTVSPost2010PropOp44
 70
     1
102
RTVSPost2010Prop45
280
     0
102
RTVSPost2010PropOp45
 70
     1
102
RTVSPost2010Prop46
 90
       50
102
RTVSPost2010PropOp46
 70
     1
102
RTVSPost2010Prop47
 90
       50
102
RTVSPost2010PropOp47
 70
     1
102
RTVSPost2010Prop48
 90
       50
102
RTVSPost2010PropOp48
 70
     1
102
RTVSPost2010Prop49
280
     0
102
RTVSPost2010PropOp49
 70
     1
102
RTVSPost2010Prop50
 90
       50
102
RTVSPost2010PropOp50
 70
     1
102
RTVSPost2010Prop51ColorIndex
 90
      256
102
RTVSPost2010Prop51ColorRGB
 90
-16777216
102
RTVSPost2010PropOp51
 70
     0
102
RTVSPost2010Prop52
140
1.0
102
RTVSPost2010PropOp52
 70
     0
102
RTVSPost2010Prop53
 90
        2
102
RTVSPost2010PropOp53
 70
     1
102
RTVSPost2010Prop54
  1
strokes_ogs.tif
102
RTVSPost2010PropOp54
 70
     1
102
RTVSPost2010Prop55
280
     0
102
RTVSPost2010PropOp55
 70
     1
102
RTVSPost2010Prop56
140
1.0
102
RTVSPost2010PropOp56
 70
     1
102
RTVSPost2010Prop57
140
1.0
102
RTVSPost2010PropOp57
 70
     1
  0
XRECORD
  5
488
102
{ACAD_REACTORS
330
487
102
}
330
487
100
AcDbXrecord
280
     1
102
RTVSPropertyOp0
 70
     1
102
RTVSPropertyOp1
 70
     1
102
RTVSPropertyOp2
 70
     1
102
RTVSPropertyOp3
 70
     1
102
RTVSPropertyOp4
 70
     1
102
RTVSPropertyOp5
 70
     1
102
RTVSPropertyOp6
 70
     1
102
RTVSPropertyOp7
 70
     1
102
RTVSPropertyOp8
 70
     1
102
RTVSPropertyOp9
 70
     1
102
RTVSPropertyOp10
 70
     1
102
RTVSPropertyOp11
 70
     1
102
RTVSPropertyOp12
 70
     1
102
RTVSPropertyOp13
 70
     1
102
RTVSPropertyOp14
 70
     1
102
RTVSPropertyOp15
 70
     1
102
RTVSPropertyOp16
 70
     1
102
RTVSPropertyOp17
 70
     1
102
RTVSPropertyOp18
 70
     1
102
RTVSPropertyOp19
 70
     1
102
RTVSPropertyOp20
 70
     1
102
RTVSPropertyOp21
 70
     1
102
RTVSPropertyOp22
 70
     1
102
RTVSPropertyOp23
 70
     1
102
RTVSPropertyOp24
 70
     1
102
RTVSPropertyOp25
 70
     1
102
RTVSPropertyOp26
 70
     1
102
RTVSPropertyOp27
 70
     1
102
RTVSPropertyOp28
 70
     1
102
RTVSPropertyOp29
 70
     1
102
RTVSPropertyOp30
 70
     1
102
RTVSPropertyOp31
 70
     1
102
RTVSPropertyOp32
 70
     1
102
RTVSPropertyOp33
 70
     1
102
RTVSPropertyOp34
 70
     1
102
RTVSPropertyOp35
 70
     1
102
RTVSPropertyOp36
 70
     1
102
RTVSPropertyOp37
 70
     1
102
RTVSPropertyOp38
 70
     1
102
RTVSPropertyOp39
 70
     1
102
RTVSPropertyOp40
 70
     1
102
RTVSPropertyOp41
 70
     1
102
RTVSPropertyOp42
 70
     1
102
RTVSPropertyOp43
 70
     1
102
RTVSPropertyOp44
 70
     1
102
RTVSPropertyOp45
 70
     1
102
RTVSPropertyOp46
 70
     1
102
RTVSPropertyOp47
 70
     1
102
RTVSPropertyOp48
 70
     1
102
RTVSPropertyOp49
 70
     1
102
RTVSPropertyOp50
 70
     1
102
RTVSPropertyOp51
 70
     0
102
RTVSPropertyOp52
 70
     0
102
RTVSPropertyOp53
 70
     1
102
RTVSPropertyOp54
 70
     1
102
RTVSPropertyOp55
 70
     1
102
RTVSPropertyOp56
 70
     1
102
RTVSPropertyOp57
 70
     1
102
RTVSPost2010Prop28
280
     0
102
RTVSPost2010PropOp28
 70
     1
102
RTVSPost2010Prop29
280
     1
102
RTVSPost2010PropOp29
 70
     1
102
RTVSPost2010Prop30
280
     1
102
RTVSPost2010PropOp30
 70
     1
102
RTVSPost2010Prop31
280
     0
102
RTVSPost2010PropOp31
 70
     1
102
RTVSPost2010Prop32
280
     0
102
RTVSPost2010PropOp32
 70
     1
102
RTVSPost2010Prop33
280
     0
102
RTVSPost2010PropOp33
 70
     1
102
RTVSPost2010Prop34
280
     0
102
RTVSPost2010PropOp34
 70
     1
102
RTVSPost2010Prop35
280
     0
102
RTVSPost2010PropOp35
 70
     1
102
RTVSPost2010Prop36
280
     0
102
RTVSPost2010PropOp36
 70
     1
102
RTVSPost2010Prop37
 90
       50
102
RTVSPost2010PropOp37
 70
     1
102
RTVSPost2010Prop38
140
0.0
102
RTVSPost2010PropOp38
 70
     1
102
RTVSPost2010Prop39
140
1.0
102
RTVSPost2010PropOp39
 70
     1
102
RTVSPost2010Prop40
 90
        0
102
RTVSPost2010PropOp40
 70
     1
102
RTVSPost2010Prop41ColorIndex
 90
      178
102
RTVSPost2010Prop41ColorRGB
 90
        0
102
RTVSPost2010PropOp41
 70
     1
102
RTVSPost2010Prop42
 90
       50
102
RTVSPost2010PropOp42
 70
     1
102
RTVSPost2010Prop43
 90
        3
102
RTVSPost2010PropOp43
 70
     1
102
RTVSPost2010Prop44ColorIndex
 90
        5
102
RTVSPost2010Prop44ColorRGB
 90
      255
102
RTVSPost2010PropOp44
 70
     1
102
RTVSPost2010Prop45
280
     0
102
RTVSPost2010PropOp45
 70
     1
102
RTVSPost2010Prop46
 90
       50
102
RTVSPost2010PropOp46
 70
     1
102
RTVSPost2010Prop47
 90
       50
102
RTVSPost2010PropOp47
 70
     1
102
RTVSPost2010Prop48
 90
       50
102
RTVSPost2010PropOp48
 70
     1
102
RTVSPost2010Prop49
280
     0
102
RTVSPost2010PropOp49
 70
     1
102
RTVSPost2010Prop50
 90
       50
102
RTVSPost2010PropOp50
 70
     1
102
RTVSPost2010Prop51ColorIndex
 90
      256
102
RTVSPost2010Prop51ColorRGB
 90
-16777216
102
RTVSPost2010PropOp51
 70
     0
102
RTVSPost2010Prop52
140
1.0
102
RTVSPost2010PropOp52
 70
     0
102
RTVSPost2010Prop53
 90
        2
102
RTVSPost2010PropOp53
 70
     1
102
RTVSPost2010Prop54
  1
strokes_ogs.tif
102
RTVSPost2010PropOp54
 70
     1
102
RTVSPost2010Prop55
280
     0
102
RTVSPost2010PropOp55
 70
     1
102
RTVSPost2010Prop56
140
1.0
102
RTVSPost2010PropOp56
 70
     1
102
RTVSPost2010Prop57
140
1.0
102
RTVSPost2010PropOp57
 70
     1
  0
XRECORD
  5
478
102
{ACAD_REACTORS
330
477
102
}
330
477
100
AcDbXrecord
280
     1
102
RTVSPropertyOp0
 70
     1
102
RTVSPropertyOp1
 70
     1
102
RTVSPropertyOp2
 70
     1
102
RTVSPropertyOp3
 70
     1
102
RTVSPropertyOp4
 70
     1
102
RTVSPropertyOp5
 70
     1
102
RTVSPropertyOp6
 70
     1
102
RTVSPropertyOp7
 70
     1
102
RTVSPropertyOp8
 70
     1
102
RTVSPropertyOp9
 70
     1
102
RTVSPropertyOp10
 70
     1
102
RTVSPropertyOp11
 70
     1
102
RTVSPropertyOp12
 70
     1
102
RTVSPropertyOp13
 70
     1
102
RTVSPropertyOp14
 70
     1
102
RTVSPropertyOp15
 70
     1
102
RTVSPropertyOp16
 70
     1
102
RTVSPropertyOp17
 70
     1
102
RTVSPropertyOp18
 70
     1
102
RTVSPropertyOp19
 70
     1
102
RTVSPropertyOp20
 70
     1
102
RTVSPropertyOp21
 70
     1
102
RTVSPropertyOp22
 70
     1
102
RTVSPropertyOp23
 70
     1
102
RTVSPropertyOp24
 70
     1
102
RTVSPropertyOp25
 70
     1
102
RTVSPropertyOp26
 70
     1
102
RTVSPropertyOp27
 70
     1
102
RTVSPropertyOp28
 70
     1
102
RTVSPropertyOp29
 70
     1
102
RTVSPropertyOp30
 70
     1
102
RTVSPropertyOp31
 70
     1
102
RTVSPropertyOp32
 70
     1
102
RTVSPropertyOp33
 70
     1
102
RTVSPropertyOp34
 70
     1
102
RTVSPropertyOp35
 70
     1
102
RTVSPropertyOp36
 70
     1
102
RTVSPropertyOp37
 70
     1
102
RTVSPropertyOp38
 70
     1
102
RTVSPropertyOp39
 70
     1
102
RTVSPropertyOp40
 70
     1
102
RTVSPropertyOp41
 70
     1
102
RTVSPropertyOp42
 70
     1
102
RTVSPropertyOp43
 70
     1
102
RTVSPropertyOp44
 70
     1
102
RTVSPropertyOp45
 70
     1
102
RTVSPropertyOp46
 70
     1
102
RTVSPropertyOp47
 70
     1
102
RTVSPropertyOp48
 70
     1
102
RTVSPropertyOp49
 70
     1
102
RTVSPropertyOp50
 70
     1
102
RTVSPropertyOp51
 70
     0
102
RTVSPropertyOp52
 70
     0
102
RTVSPropertyOp53
 70
     1
102
RTVSPropertyOp54
 70
     1
102
RTVSPropertyOp55
 70
     1
102
RTVSPropertyOp56
 70
     1
102
RTVSPropertyOp57
 70
     1
102
RTVSPost2010Prop28
280
     0
102
RTVSPost2010PropOp28
 70
     1
102
RTVSPost2010Prop29
280
     1
102
RTVSPost2010PropOp29
 70
     1
102
RTVSPost2010Prop30
280
     1
102
RTVSPost2010PropOp30
 70
     1
102
RTVSPost2010Prop31
280
     0
102
RTVSPost2010PropOp31
 70
     1
102
RTVSPost2010Prop32
280
     0
102
RTVSPost2010PropOp32
 70
     1
102
RTVSPost2010Prop33
280
     0
102
RTVSPost2010PropOp33
 70
     1
102
RTVSPost2010Prop34
280
     0
102
RTVSPost2010PropOp34
 70
     1
102
RTVSPost2010Prop35
280
     0
102
RTVSPost2010PropOp35
 70
     1
102
RTVSPost2010Prop36
280
     0
102
RTVSPost2010PropOp36
 70
     1
102
RTVSPost2010Prop37
 90
       50
102
RTVSPost2010PropOp37
 70
     1
102
RTVSPost2010Prop38
140
0.0
102
RTVSPost2010PropOp38
 70
     1
102
RTVSPost2010Prop39
140
1.0
102
RTVSPost2010PropOp39
 70
     1
102
RTVSPost2010Prop40
 90
        0
102
RTVSPost2010PropOp40
 70
     1
102
RTVSPost2010Prop41ColorIndex
 90
      178
102
RTVSPost2010Prop41ColorRGB
 90
        0
102
RTVSPost2010PropOp41
 70
     1
102
RTVSPost2010Prop42
 90
       50
102
RTVSPost2010PropOp42
 70
     1
102
RTVSPost2010Prop43
 90
        3
102
RTVSPost2010PropOp43
 70
     1
102
RTVSPost2010Prop44ColorIndex
 90
        5
102
RTVSPost2010Prop44ColorRGB
 90
      255
102
RTVSPost2010PropOp44
 70
     1
102
RTVSPost2010Prop45
280
     0
102
RTVSPost2010PropOp45
 70
     1
102
RTVSPost2010Prop46
 90
       50
102
RTVSPost2010PropOp46
 70
     1
102
RTVSPost2010Prop47
 90
       50
102
RTVSPost2010PropOp47
 70
     1
102
RTVSPost2010Prop48
 90
       50
102
RTVSPost2010PropOp48
 70
     1
102
RTVSPost2010Prop49
280
     0
102
RTVSPost2010PropOp49
 70
     1
102
RTVSPost2010Prop50
 90
       50
102
RTVSPost2010PropOp50
 70
     1
102
RTVSPost2010Prop51ColorIndex
 90
      256
102
RTVSPost2010Prop51ColorRGB
 90
-16777216
102
RTVSPost2010PropOp51
 70
     0
102
RTVSPost2010Prop52
140
1.0
102
RTVSPost2010PropOp52
 70
     0
102
RTVSPost2010Prop53
 90
        2
102
RTVSPost2010PropOp53
 70
     1
102
RTVSPost2010Prop54
  1
strokes_ogs.tif
102
RTVSPost2010PropOp54
 70
     1
102
RTVSPost2010Prop55
280
     0
102
RTVSPost2010PropOp55
 70
     1
102
RTVSPost2010Prop56
140
1.0
102
RTVSPost2010PropOp56
 70
     1
102
RTVSPost2010Prop57
140
1.0
102
RTVSPost2010PropOp57
 70
     1
  0
XRECORD
  5
46A
102
{ACAD_REACTORS
330
469
102
}
330
469
100
AcDbXrecord
280
     1
102
RTVSPropertyOp0
 70
     1
102
RTVSPropertyOp1
 70
     1
102
RTVSPropertyOp2
 70
     1
102
RTVSPropertyOp3
 70
     1
102
RTVSPropertyOp4
 70
     1
102
RTVSPropertyOp5
 70
     1
102
RTVSPropertyOp6
 70
     1
102
RTVSPropertyOp7
 70
     1
102
RTVSPropertyOp8
 70
     1
102
RTVSPropertyOp9
 70
     1
102
RTVSPropertyOp10
 70
     1
102
RTVSPropertyOp11
 70
     1
102
RTVSPropertyOp12
 70
     1
102
RTVSPropertyOp13
 70
     1
102
RTVSPropertyOp14
 70
     1
102
RTVSPropertyOp15
 70
     1
102
RTVSPropertyOp16
 70
     1
102
RTVSPropertyOp17
 70
     1
102
RTVSPropertyOp18
 70
     1
102
RTVSPropertyOp19
 70
     1
102
RTVSPropertyOp20
 70
     1
102
RTVSPropertyOp21
 70
     1
102
RTVSPropertyOp22
 70
     1
102
RTVSPropertyOp23
 70
     1
102
RTVSPropertyOp24
 70
     1
102
RTVSPropertyOp25
 70
     1
102
RTVSPropertyOp26
 70
     1
102
RTVSPropertyOp27
 70
     1
102
RTVSPropertyOp28
 70
     1
102
RTVSPropertyOp29
 70
     1
102
RTVSPropertyOp30
 70
     1
102
RTVSPropertyOp31
 70
     1
102
RTVSPropertyOp32
 70
     1
102
RTVSPropertyOp33
 70
     1
102
RTVSPropertyOp34
 70
     1
102
RTVSPropertyOp35
 70
     1
102
RTVSPropertyOp36
 70
     1
102
RTVSPropertyOp37
 70
     1
102
RTVSPropertyOp38
 70
     1
102
RTVSPropertyOp39
 70
     1
102
RTVSPropertyOp40
 70
     1
102
RTVSPropertyOp41
 70
     1
102
RTVSPropertyOp42
 70
     1
102
RTVSPropertyOp43
 70
     1
102
RTVSPropertyOp44
 70
     1
102
RTVSPropertyOp45
 70
     1
102
RTVSPropertyOp46
 70
     1
102
RTVSPropertyOp47
 70
     1
102
RTVSPropertyOp48
 70
     1
102
RTVSPropertyOp49
 70
     1
102
RTVSPropertyOp50
 70
     1
102
RTVSPropertyOp51
 70
     0
102
RTVSPropertyOp52
 70
     0
102
RTVSPropertyOp53
 70
     1
102
RTVSPropertyOp54
 70
     1
102
RTVSPropertyOp55
 70
     1
102
RTVSPropertyOp56
 70
     1
102
RTVSPropertyOp57
 70
     1
102
RTVSPost2010Prop28
280
     0
102
RTVSPost2010PropOp28
 70
     1
102
RTVSPost2010Prop29
280
     1
102
RTVSPost2010PropOp29
 70
     1
102
RTVSPost2010Prop30
280
     1
102
RTVSPost2010PropOp30
 70
     1
102
RTVSPost2010Prop31
280
     0
102
RTVSPost2010PropOp31
 70
     1
102
RTVSPost2010Prop32
280
     0
102
RTVSPost2010PropOp32
 70
     1
102
RTVSPost2010Prop33
280
     0
102
RTVSPost2010PropOp33
 70
     1
102
RTVSPost2010Prop34
280
     0
102
RTVSPost2010PropOp34
 70
     1
102
RTVSPost2010Prop35
280
     0
102
RTVSPost2010PropOp35
 70
     1
102
RTVSPost2010Prop36
280
     0
102
RTVSPost2010PropOp36
 70
     1
102
RTVSPost2010Prop37
 90
       50
102
RTVSPost2010PropOp37
 70
     1
102
RTVSPost2010Prop38
140
0.0
102
RTVSPost2010PropOp38
 70
     1
102
RTVSPost2010Prop39
140
1.0
102
RTVSPost2010PropOp39
 70
     1
102
RTVSPost2010Prop40
 90
        0
102
RTVSPost2010PropOp40
 70
     1
102
RTVSPost2010Prop41ColorIndex
 90
      178
102
RTVSPost2010Prop41ColorRGB
 90
        0
102
RTVSPost2010PropOp41
 70
     1
102
RTVSPost2010Prop42
 90
       50
102
RTVSPost2010PropOp42
 70
     1
102
RTVSPost2010Prop43
 90
        3
102
RTVSPost2010PropOp43
 70
     1
102
RTVSPost2010Prop44ColorIndex
 90
        5
102
RTVSPost2010Prop44ColorRGB
 90
      255
102
RTVSPost2010PropOp44
 70
     1
102
RTVSPost2010Prop45
280
     0
102
RTVSPost2010PropOp45
 70
     1
102
RTVSPost2010Prop46
 90
       50
102
RTVSPost2010PropOp46
 70
     1
102
RTVSPost2010Prop47
 90
       50
102
RTVSPost2010PropOp47
 70
     1
102
RTVSPost2010Prop48
 90
       50
102
RTVSPost2010PropOp48
 70
     1
102
RTVSPost2010Prop49
280
     0
102
RTVSPost2010PropOp49
 70
     1
102
RTVSPost2010Prop50
 90
       50
102
RTVSPost2010PropOp50
 70
     1
102
RTVSPost2010Prop51ColorIndex
 90
      256
102
RTVSPost2010Prop51ColorRGB
 90
-16777216
102
RTVSPost2010PropOp51
 70
     0
102
RTVSPost2010Prop52
140
1.0
102
RTVSPost2010PropOp52
 70
     0
102
RTVSPost2010Prop53
 90
        2
102
RTVSPost2010PropOp53
 70
     1
102
RTVSPost2010Prop54
  1
strokes_ogs.tif
102
RTVSPost2010PropOp54
 70
     1
102
RTVSPost2010Prop55
280
     0
102
RTVSPost2010PropOp55
 70
     1
102
RTVSPost2010Prop56
140
1.0
102
RTVSPost2010PropOp56
 70
     1
102
RTVSPost2010Prop57
140
1.0
102
RTVSPost2010PropOp57
 70
     1
  0
XRECORD
  5
48A
102
{ACAD_REACTORS
330
489
102
}
330
489
100
AcDbXrecord
280
     1
102
RTVSPropertyOp0
 70
     1
102
RTVSPropertyOp1
 70
     1
102
RTVSPropertyOp2
 70
     1
102
RTVSPropertyOp3
 70
     1
102
RTVSPropertyOp4
 70
     1
102
RTVSPropertyOp5
 70
     1
102
RTVSPropertyOp6
 70
     1
102
RTVSPropertyOp7
 70
     1
102
RTVSPropertyOp8
 70
     1
102
RTVSPropertyOp9
 70
     1
102
RTVSPropertyOp10
 70
     1
102
RTVSPropertyOp11
 70
     1
102
RTVSPropertyOp12
 70
     1
102
RTVSPropertyOp13
 70
     1
102
RTVSPropertyOp14
 70
     1
102
RTVSPropertyOp15
 70
     1
102
RTVSPropertyOp16
 70
     1
102
RTVSPropertyOp17
 70
     1
102
RTVSPropertyOp18
 70
     1
102
RTVSPropertyOp19
 70
     1
102
RTVSPropertyOp20
 70
     1
102
RTVSPropertyOp21
 70
     1
102
RTVSPropertyOp22
 70
     1
102
RTVSPropertyOp23
 70
     1
102
RTVSPropertyOp24
 70
     1
102
RTVSPropertyOp25
 70
     1
102
RTVSPropertyOp26
 70
     1
102
RTVSPropertyOp27
 70
     1
102
RTVSPropertyOp28
 70
     1
102
RTVSPropertyOp29
 70
     1
102
RTVSPropertyOp30
 70
     1
102
RTVSPropertyOp31
 70
     1
102
RTVSPropertyOp32
 70
     1
102
RTVSPropertyOp33
 70
     1
102
RTVSPropertyOp34
 70
     1
102
RTVSPropertyOp35
 70
     1
102
RTVSPropertyOp36
 70
     1
102
RTVSPropertyOp37
 70
     1
102
RTVSPropertyOp38
 70
     1
102
RTVSPropertyOp39
 70
     1
102
RTVSPropertyOp40
 70
     1
102
RTVSPropertyOp41
 70
     1
102
RTVSPropertyOp42
 70
     1
102
RTVSPropertyOp43
 70
     1
102
RTVSPropertyOp44
 70
     1
102
RTVSPropertyOp45
 70
     1
102
RTVSPropertyOp46
 70
     1
102
RTVSPropertyOp47
 70
     1
102
RTVSPropertyOp48
 70
     1
102
RTVSPropertyOp49
 70
     1
102
RTVSPropertyOp50
 70
     1
102
RTVSPropertyOp51
 70
     0
102
RTVSPropertyOp52
 70
     0
102
RTVSPropertyOp53
 70
     1
102
RTVSPropertyOp54
 70
     1
102
RTVSPropertyOp55
 70
     1
102
RTVSPropertyOp56
 70
     1
102
RTVSPropertyOp57
 70
     1
102
RTVSPost2010Prop28
280
     0
102
RTVSPost2010PropOp28
 70
     1
102
RTVSPost2010Prop29
280
     1
102
RTVSPost2010PropOp29
 70
     1
102
RTVSPost2010Prop30
280
     1
102
RTVSPost2010PropOp30
 70
     1
102
RTVSPost2010Prop31
280
     0
102
RTVSPost2010PropOp31
 70
     1
102
RTVSPost2010Prop32
280
     0
102
RTVSPost2010PropOp32
 70
     1
102
RTVSPost2010Prop33
280
     0
102
RTVSPost2010PropOp33
 70
     1
102
RTVSPost2010Prop34
280
     0
102
RTVSPost2010PropOp34
 70
     1
102
RTVSPost2010Prop35
280
     0
102
RTVSPost2010PropOp35
 70
     1
102
RTVSPost2010Prop36
280
     0
102
RTVSPost2010PropOp36
 70
     1
102
RTVSPost2010Prop37
 90
       50
102
RTVSPost2010PropOp37
 70
     1
102
RTVSPost2010Prop38
140
0.0
102
RTVSPost2010PropOp38
 70
     1
102
RTVSPost2010Prop39
140
1.0
102
RTVSPost2010PropOp39
 70
     1
102
RTVSPost2010Prop40
 90
        0
102
RTVSPost2010PropOp40
 70
     1
102
RTVSPost2010Prop41ColorIndex
 90
      178
102
RTVSPost2010Prop41ColorRGB
 90
        0
102
RTVSPost2010PropOp41
 70
     1
102
RTVSPost2010Prop42
 90
       50
102
RTVSPost2010PropOp42
 70
     1
102
RTVSPost2010Prop43
 90
        3
102
RTVSPost2010PropOp43
 70
     1
102
RTVSPost2010Prop44ColorIndex
 90
        5
102
RTVSPost2010Prop44ColorRGB
 90
      255
102
RTVSPost2010PropOp44
 70
     1
102
RTVSPost2010Prop45
280
     0
102
RTVSPost2010PropOp45
 70
     1
102
RTVSPost2010Prop46
 90
       50
102
RTVSPost2010PropOp46
 70
     1
102
RTVSPost2010Prop47
 90
       50
102
RTVSPost2010PropOp47
 70
     1
102
RTVSPost2010Prop48
 90
       50
102
RTVSPost2010PropOp48
 70
     1
102
RTVSPost2010Prop49
280
     0
102
RTVSPost2010PropOp49
 70
     1
102
RTVSPost2010Prop50
 90
       50
102
RTVSPost2010PropOp50
 70
     1
102
RTVSPost2010Prop51ColorIndex
 90
      256
102
RTVSPost2010Prop51ColorRGB
 90
-16777216
102
RTVSPost2010PropOp51
 70
     0
102
RTVSPost2010Prop52
140
1.0
102
RTVSPost2010PropOp52
 70
     0
102
RTVSPost2010Prop53
 90
        2
102
RTVSPost2010PropOp53
 70
     1
102
RTVSPost2010Prop54
  1
strokes_ogs.tif
102
RTVSPost2010PropOp54
 70
     1
102
RTVSPost2010Prop55
280
     0
102
RTVSPost2010PropOp55
 70
     1
102
RTVSPost2010Prop56
140
1.0
102
RTVSPost2010PropOp56
 70
     1
102
RTVSPost2010Prop57
140
1.0
102
RTVSPost2010PropOp57
 70
     1
  0
ENDSEC
  0
EOF
