  0
SECTION
  2
HEADER
  9
$ACADVER
  1
AC1021
  9
$ACADMAINTVER
 70
    25
  9
$DWGCODEPAGE
  3
ANSI_1252
  9
$INSBASE
 10
0.0
 20
0.0
 30
0.0
  9
$EXTMIN
 10
1.000000000000000E+20
 20
1.000000000000000E+20
 30
1.000000000000000E+20
  9
$EXTMAX
 10
-1.000000000000000E+20
 20
-1.000000000000000E+20
 30
-1.000000000000000E+20
  9
$LIMMIN
 10
0.0
 20
0.0
  9
$LIMMAX
 10
12.0
 20
9.0
  9
$ORTHOMODE
 70
     0
  9
$REGENMODE
 70
     1
  9
$FILLMODE
 70
     1
  9
$QTEXTMODE
 70
     0
  9
$MIRRTEXT
 70
     1
  9
$LTSCALE
 40
1.0
  9
$ATTMODE
 70
     1
  9
$TEXTSIZE
 40
0.2
  9
$TRACEWID
 40
0.05
  9
$TEXTSTYLE
  7
Standard
  9
$CLAYER
  8
Graypants_Kerf_P2
  9
$CELTYPE
  6
ByLayer
  9
$CECOLOR
 62
   256
  9
$CELTSCALE
 40
1.0
  9
$DISPSILH
 70
     0
  9
$DIMSCALE
 40
1.0
  9
$DIMASZ
 40
0.18
  9
$DIMEXO
 40
0.0625
  9
$DIMDLI
 40
0.38
  9
$DIMRND
 40
0.0
  9
$DIMDLE
 40
0.0
  9
$DIMEXE
 40
0.18
  9
$DIMTP
 40
0.0
  9
$DIMTM
 40
0.0
  9
$DIMTXT
 40
0.18
  9
$DIMCEN
 40
0.09
  9
$DIMTSZ
 40
0.0
  9
$DIMTOL
 70
     0
  9
$DIMLIM
 70
     0
  9
$DIMTIH
 70
     1
  9
$DIMTOH
 70
     1
  9
$DIMSE1
 70
     0
  9
$DIMSE2
 70
     0
  9
$DIMTAD
 70
     0
  9
$DIMZIN
 70
     0
  9
$DIMBLK
  1

  9
$DIMASO
 70
     1
  9
$DIMSHO
 70
     1
  9
$DIMPOST
  1

  9
$DIMAPOST
  1

  9
$DIMALT
 70
     0
  9
$DIMALTD
 70
     2
  9
$DIMALTF
 40
25.4
  9
$DIMLFAC
 40
1.0
  9
$DIMTOFL
 70
     0
  9
$DIMTVP
 40
0.0
  9
$DIMTIX
 70
     0
  9
$DIMSOXD
 70
     0
  9
$DIMSAH
 70
     0
  9
$DIMBLK1
  1

  9
$DIMBLK2
  1

  9
$DIMSTYLE
  2
STANDARD_ACAD
  9
$DIMCLRD
 70
     0
  9
$DIMCLRE
 70
     0
  9
$DIMCLRT
 70
     0
  9
$DIMTFAC
 40
1.0
  9
$DIMGAP
 40
0.09
  9
$DIMJUST
 70
     0
  9
$DIMSD1
 70
     0
  9
$DIMSD2
 70
     0
  9
$DIMTOLJ
 70
     1
  9
$DIMTZIN
 70
     0
  9
$DIMALTZ
 70
     0
  9
$DIMALTTZ
 70
     0
  9
$DIMUPT
 70
     0
  9
$DIMDEC
 70
     4
  9
$DIMTDEC
 70
     4
  9
$DIMALTU
 70
     2
  9
$DIMALTTD
 70
     2
  9
$DIMTXSTY
  7
Standard
  9
$DIMAUNIT
 70
     0
  9
$DIMADEC
 70
     0
  9
$DIMALTRND
 40
0.0
  9
$DIMAZIN
 70
     0
  9
$DIMDSEP
 70
    46
  9
$DIMATFIT
 70
     3
  9
$DIMFRAC
 70
     0
  9
$DIMLDRBLK
  1

  9
$DIMLUNIT
 70
     2
  9
$DIMLWD
 70
    -2
  9
$DIMLWE
 70
    -2
  9
$DIMTMOVE
 70
     2
  9
$DIMFXL
 40
1.0
  9
$DIMFXLON
 70
     0
  9
$DIMJOGANG
 40
0.7853981633974483
  9
$DIMTFILL
 70
     0
  9
$DIMTFILLCLR
 70
     0
  9
$DIMARCSYM
 70
     0
  9
$DIMLTYPE
  6

  9
$DIMLTEX1
  6

  9
$DIMLTEX2
  6

  9
$LUNITS
 70
     2
  9
$LUPREC
 70
     3
  9
$SKETCHINC
 40
0.1
  9
$FILLETRAD
 40
0.5
  9
$AUNITS
 70
     0
  9
$AUPREC
 70
     0
  9
$MENU
  1
.
  9
$ELEVATION
 40
0.0
  9
$PELEVATION
 40
0.0
  9
$THICKNESS
 40
0.0
  9
$LIMCHECK
 70
     0
  9
$CHAMFERA
 40
0.0
  9
$CHAMFERB
 40
0.0
  9
$CHAMFERC
 40
0.0
  9
$CHAMFERD
 40
0.0
  9
$SKPOLY
 70
     0
  9
$TDCREATE
 40
2460858.687456887
  9
$TDUCREATE
 40
2460859.02079022
  9
$TDUPDATE
 40
2460858.687469329
  9
$TDUUPDATE
 40
2460859.020802662
  9
$TDINDWG
 40
0.0000000116
  9
$TDUSRTIMER
 40
0.0000000116
  9
$USRTIMER
 70
     1
  9
$ANGBASE
 50
0.0
  9
$ANGDIR
 70
     0
  9
$PDMODE
 70
     0
  9
$PDSIZE
 40
0.0
  9
$PLINEWID
 40
0.0
  9
$SPLFRAME
 70
     0
  9
$SPLINETYPE
 70
     6
  9
$SPLINESEGS
 70
     8
  9
$HANDSEED
  5
33C
  9
$SURFTAB1
 70
     6
  9
$SURFTAB2
 70
     6
  9
$SURFTYPE
 70
     6
  9
$SURFU
 70
     6
  9
$SURFV
 70
     6
  9
$UCSBASE
  2

  9
$UCSNAME
  2

  9
$UCSORG
 10
0.0
 20
0.0
 30
0.0
  9
$UCSXDIR
 10
1.0
 20
0.0
 30
0.0
  9
$UCSYDIR
 10
0.0
 20
1.0
 30
0.0
  9
$UCSORTHOREF
  2

  9
$UCSORTHOVIEW
 70
     0
  9
$UCSORGTOP
 10
0.0
 20
0.0
 30
0.0
  9
$UCSORGBOTTOM
 10
0.0
 20
0.0
 30
0.0
  9
$UCSORGLEFT
 10
0.0
 20
0.0
 30
0.0
  9
$UCSORGRIGHT
 10
0.0
 20
0.0
 30
0.0
  9
$UCSORGFRONT
 10
0.0
 20
0.0
 30
0.0
  9
$UCSORGBACK
 10
0.0
 20
0.0
 30
0.0
  9
$PUCSBASE
  2

  9
$PUCSNAME
  2

  9
$PUCSORG
 10
0.0
 20
0.0
 30
0.0
  9
$PUCSXDIR
 10
1.0
 20
0.0
 30
0.0
  9
$PUCSYDIR
 10
0.0
 20
1.0
 30
0.0
  9
$PUCSORTHOREF
  2

  9
$PUCSORTHOVIEW
 70
     0
  9
$PUCSORGTOP
 10
0.0
 20
0.0
 30
0.0
  9
$PUCSORGBOTTOM
 10
0.0
 20
0.0
 30
0.0
  9
$PUCSORGLEFT
 10
0.0
 20
0.0
 30
0.0
  9
$PUCSORGRIGHT
 10
0.0
 20
0.0
 30
0.0
  9
$PUCSORGFRONT
 10
0.0
 20
0.0
 30
0.0
  9
$PUCSORGBACK
 10
0.0
 20
0.0
 30
0.0
  9
$USERI1
 70
     0
  9
$USERI2
 70
     0
  9
$USERI3
 70
     0
  9
$USERI4
 70
     0
  9
$USERI5
 70
     0
  9
$USERR1
 40
0.0
  9
$USERR2
 40
0.0
  9
$USERR3
 40
0.0
  9
$USERR4
 40
0.0
  9
$USERR5
 40
0.0
  9
$WORLDVIEW
 70
     1
  9
$SHADEDGE
 70
     3
  9
$SHADEDIF
 70
    70
  9
$TILEMODE
 70
     1
  9
$MAXACTVP
 70
    64
  9
$PINSBASE
 10
0.0
 20
0.0
 30
0.0
  9
$PLIMCHECK
 70
     0
  9
$PEXTMIN
 10
1.000000000000000E+20
 20
1.000000000000000E+20
 30
1.000000000000000E+20
  9
$PEXTMAX
 10
-1.000000000000000E+20
 20
-1.000000000000000E+20
 30
-1.000000000000000E+20
  9
$PLIMMIN
 10
0.0
 20
0.0
  9
$PLIMMAX
 10
12.0
 20
9.0
  9
$UNITMODE
 70
     0
  9
$VISRETAIN
 70
     1
  9
$PLINEGEN
 70
     0
  9
$PSLTSCALE
 70
     1
  9
$TREEDEPTH
 70
  3020
  9
$CMLSTYLE
  2
Standard
  9
$CMLJUST
 70
     0
  9
$CMLSCALE
 40
1.0
  9
$PROXYGRAPHICS
 70
     1
  9
$MEASUREMENT
 70
     1
  9
$CELWEIGHT
370
    -1
  9
$ENDCAPS
280
     0
  9
$JOINSTYLE
280
     0
  9
$LWDISPLAY
290
     0
  9
$INSUNITS
 70
     4
  9
$HYPERLINKBASE
  1

  9
$STYLESHEET
  1

  9
$XEDIT
290
     1
  9
$CEPSNTYPE
380
     0
  9
$PSTYLEMODE
290
     1
  9
$FINGERPRINTGUID
  2
{4246aaff-064a-3044-9aba-1b99eec316f2}
  9
$VERSIONGUID
  2
{FAEB1C32-E019-11D5-929B-00C0DF256EC4}
  9
$EXTNAMES
290
     1
  9
$PSVPSCALE
 40
0.0
  9
$OLESTARTUP
290
     0
  9
$SORTENTS
280
   127
  9
$INDEXCTL
280
     0
  9
$HIDETEXT
280
     1
  9
$XCLIPFRAME
290
     0
  9
$HALOGAP
280
     0
  9
$OBSCOLOR
 70
   257
  9
$OBSLTYPE
280
     0
  9
$INTERSECTIONDISPLAY
280
     0
  9
$INTERSECTIONCOLOR
 70
   257
  9
$DIMASSOC
280
     2
  9
$PROJECTNAME
  1

  9
$CAMERADISPLAY
290
     0
  9
$LENSLENGTH
 40
50.0
  9
$CAMERAHEIGHT
 40
0.0
  9
$STEPSPERSEC
 40
2.0
  9
$STEPSIZE
 40
6.0
  9
$3DDWFPREC
 40
2.0
  9
$PSOLWIDTH
 40
0.25
  9
$PSOLHEIGHT
 40
4.0
  9
$LOFTANG1
 40
1.570796326794897
  9
$LOFTANG2
 40
1.570796326794897
  9
$LOFTMAG1
 40
0.0
  9
$LOFTMAG2
 40
0.0
  9
$LOFTPARAM
 70
     7
  9
$LOFTNORMALS
280
     1
  9
$LATITUDE
 40
37.795
  9
$LONGITUDE
 40
-122.394
  9
$NORTHDIRECTION
 40
0.0
  9
$TIMEZONE
 70
 -8000
  9
$LIGHTGLYPHDISPLAY
280
     1
  9
$TILEMODELIGHTSYNCH
280
     1
  9
$CMATERIAL
347
44
  9
$SOLIDHIST
280
     0
  9
$SHOWHIST
280
     1
  9
$DWFFRAME
280
     2
  9
$DGNFRAME
280
     2
  9
$REALWORLDSCALE
290
     1
  9
$INTERFERECOLOR
 62
   256
  9
$CSHADOW
280
     0
  9
$SHADOWPLANELOCATION
 40
0.0
  0
ENDSEC
  0
SECTION
  2
CLASSES
  0
CLASS
  1
ACDBDICTIONARYWDFLT
  2
AcDbDictionaryWithDefault
  3
ObjectDBX Classes
 90
        0
 91
        3
280
     0
281
     0
  0
CLASS
  1
VISUALSTYLE
  2
AcDbVisualStyle
  3
ObjectDBX Classes
 90
     4095
 91
        3
280
     0
281
     0
  0
CLASS
  1
MATERIAL
  2
AcDbMaterial
  3
ObjectDBX Classes
 90
     1153
 91
        3
280
     0
281
     0
  0
CLASS
  1
SCALE
  2
AcDbScale
  3
ObjectDBX Classes
 90
     1153
 91
        3
280
     0
281
     0
  0
CLASS
  1
TABLESTYLE
  2
AcDbTableStyle
  3
ObjectDBX Classes
 90
     4095
 91
        3
280
     0
281
     0
  0
CLASS
  1
MLEADERSTYLE
  2
AcDbMLeaderStyle
  3
ACDB_MLEADERSTYLE_CLASS
 90
     4095
 91
        3
280
     0
281
     0
  0
CLASS
  1
SUN
  2
AcDbSun
  3
SCENEOE
 90
     1153
 91
        3
280
     0
281
     0
  0
CLASS
  1
DICTIONARYVAR
  2
AcDbDictionaryVar
  3
ObjectDBX Classes
 90
        0
 91
        3
280
     0
281
     0
  0
CLASS
  1
CELLSTYLEMAP
  2
AcDbCellStyleMap
  3
ObjectDBX Classes
 90
     1152
 91
        3
280
     0
281
     0
  0
ENDSEC
  0
SECTION
  2
TABLES
  0
TABLE
  2
VPORT
  5
8
330
0
100
AcDbSymbolTable
 70
     1
  0
VPORT
  5
29
330
8
100
AcDbSymbolTableRecord
100
AcDbViewportTableRecord
  2
*Active
 70
     0
 10
0.0
 20
0.0
 11
1.0
 21
1.0
 12
10.42990654205607
 22
4.5
 13
0.0
 23
0.0
 14
0.5
 24
0.5
 15
0.5
 25
0.5
 16
0.0
 26
0.0
 36
1.0
 17
0.0
 27
0.0
 37
0.0
 40
9.0
 41
1.972972972850329
 42
50.0
 43
0.0
 44
0.0
 50
0.0
 51
0.0
 71
     0
 72
   100
 73
     1
 74
     3
 75
     0
 76
     0
 77
     0
 78
     0
281
     0
 65
     1
110
0.0
120
0.0
130
0.0
111
1.0
121
0.0
131
0.0
112
0.0
122
1.0
132
0.0
 79
     0
146
0.0
348
2F
 60
     3
 61
     5
292
     1
282
     1
141
0.0
142
0.0
 63
   250
361
6D
  0
ENDTAB
  0
TABLE
  2
LTYPE
  5
5
330
0
100
AcDbSymbolTable
 70
     2
  0
LTYPE
  5
14
330
5
100
AcDbSymbolTableRecord
100
AcDbLinetypeTableRecord
  2
ByBlock
 70
     0
  3

 72
    65
 73
     0
 40
0.0
  0
LTYPE
  5
15
330
5
100
AcDbSymbolTableRecord
100
AcDbLinetypeTableRecord
  2
ByLayer
 70
     0
  3

 72
    65
 73
     0
 40
0.0
  0
LTYPE
  5
16
330
5
100
AcDbSymbolTableRecord
100
AcDbLinetypeTableRecord
  2
Continuous
 70
     0
  3
Solid line
 72
    65
 73
     0
 40
0.0
  0
LTYPE
  5
74
330
5
100
AcDbSymbolTableRecord
100
AcDbLinetypeTableRecord
  2
Hidden
 70
     0
  3

 72
    65
 73
     2
 40
4.0
 49
2.0
 74
     0
 49
-2.0
 74
     0
  0
ENDTAB
  0
TABLE
  2
LAYER
  5
2
330
0
100
AcDbSymbolTable
 70
     2
  0
LAYER
  5
10
330
2
100
AcDbSymbolTableRecord
100
AcDbLayerTableRecord
  2
0
 70
     0
 62
     7
  6
Continuous
370
    -3
390
F
347
46
  0
LAYER
  5
6E
330
2
100
AcDbSymbolTableRecord
100
AcDbLayerTableRecord
  2
Graypants_Kerf_P2
 70
     0
 62
    36
420
  8866048
  6
Continuous
370
    -3
390
F
347
46
  0
ENDTAB
  0
TABLE
  2
STYLE
  5
3
330
0
100
AcDbSymbolTable
 70
     1
  0
STYLE
  5
11
330
3
100
AcDbSymbolTableRecord
100
AcDbTextStyleTableRecord
  2
Standard
 70
     0
 40
0.0
 41
1.0
 50
0.0
 71
     0
 42
0.2
  3
txt
  4

  0
ENDTAB
  0
TABLE
  2
VIEW
  5
6
330
0
100
AcDbSymbolTable
 70
     0
  0
ENDTAB
  0
TABLE
  2
UCS
  5
7
330
0
100
AcDbSymbolTable
 70
     0
  0
ENDTAB
  0
TABLE
  2
APPID
  5
9
330
0
100
AcDbSymbolTable
 70
     2
  0
APPID
  5
12
330
9
100
AcDbSymbolTableRecord
100
AcDbRegAppTableRecord
  2
ACAD
 70
     0
  0
APPID
  5
334
330
9
100
AcDbSymbolTableRecord
100
AcDbRegAppTableRecord
  2
ACAD_MLEADERVER
 70
     0
  0
ENDTAB
  0
TABLE
  2
DIMSTYLE
  5
A
330
0
100
AcDbSymbolTable
 70
     1
100
AcDbDimStyleTable
  0
DIMSTYLE
105
27
330
A
100
AcDbSymbolTableRecord
100
AcDbDimStyleTableRecord
  2
STANDARD_ACAD
 70
     0
178
     0
340
11
  0
ENDTAB
  0
TABLE
  2
BLOCK_RECORD
  5
1
330
0
100
AcDbSymbolTable
 70
     1
  0
BLOCK_RECORD
  5
1F
330
1
100
AcDbSymbolTableRecord
100
AcDbBlockTableRecord
  2
*Model_Space
340
22
 70
     0
280
     1
281
     0
  0
BLOCK_RECORD
  5
1B
330
1
100
AcDbSymbolTableRecord
100
AcDbBlockTableRecord
  2
*Paper_Space
340
1E
 70
     0
280
     1
281
     0
  0
BLOCK_RECORD
  5
23
330
1
100
AcDbSymbolTableRecord
100
AcDbBlockTableRecord
  2
*Paper_Space0
340
26
 70
     0
280
     1
281
     0
  0
ENDTAB
  0
ENDSEC
  0
SECTION
  2
BLOCKS
  0
BLOCK
  5
20
330
1F
100
AcDbEntity
  8
0
100
AcDbBlockBegin
  2
*Model_Space
 70
     0
 10
0.0
 20
0.0
 30
0.0
  3
*Model_Space
  1

  0
ENDBLK
  5
21
330
1F
100
AcDbEntity
  8
0
100
AcDbBlockEnd
  0
BLOCK
  5
1C
330
1B
100
AcDbEntity
 67
     1
  8
0
100
AcDbBlockBegin
  2
*Paper_Space
 70
     0
 10
0.0
 20
0.0
 30
0.0
  3
*Paper_Space
  1

  0
ENDBLK
  5
1D
330
1B
100
AcDbEntity
 67
     1
  8
0
100
AcDbBlockEnd
  0
BLOCK
  5
24
330
23
100
AcDbEntity
  8
0
100
AcDbBlockBegin
  2
*Paper_Space0
 70
     0
 10
0.0
 20
0.0
 30
0.0
  3
*Paper_Space0
  1

  0
ENDBLK
  5
25
330
23
100
AcDbEntity
  8
0
100
AcDbBlockEnd
  0
ENDSEC
  0
SECTION
  2
ENTITIES
  0
CIRCLE
  5
6F
330
1F
100
AcDbEntity
  8
Graypants_Kerf_P2
100
AcDbCircle
 10
0.00084092600639
 20
0.0008232856735049
 30
0.0
 40
3.174999999999955
  0
LINE
  5
70
330
1F
100
AcDbEntity
  8
Graypants_Kerf_P2
 62
    36
420
  8866048
370
    -3
100
AcDbLine
 10
84.69397908331473
 20
-2.056576714326866
 30
0.0
 11
23.9124930069479
 21
-2.056576714326866
 31
0.0
  0
LINE
  5
71
330
1F
100
AcDbEntity
  8
Graypants_Kerf_P2
 62
    36
420
  8866048
370
    -3
100
AcDbLine
 10
23.91249300694813
 20
2.058223285672966
 30
0.0
 11
84.69228817356282
 21
2.058223285672966
 31
0.0
  0
LINE
  5
72
330
1F
100
AcDbEntity
  8
Graypants_Kerf_P2
 62
    36
420
  8866048
370
    -3
100
AcDbLine
 10
-23.91081115493512
 20
-2.056576714326866
 30
0.0
 11
-84.6900257098415
 21
-2.056576714326866
 31
0.0
  0
LINE
  5
73
330
1F
100
AcDbEntity
  8
Graypants_Kerf_P2
 62
    36
420
  8866048
370
    -3
100
AcDbLine
 10
-84.69200372662476
 20
2.058223285672966
 30
0.0
 11
-23.91081115493512
 21
2.058223285672966
 31
0.0
  0
CIRCLE
  5
75
330
1F
100
AcDbEntity
  8
Graypants_Kerf_P2
  6
Hidden
 62
    36
420
  8866048
370
    -3
100
AcDbCircle
 10
0.0000000000000578
 20
0.0000000000000578
 30
0.0
 40
57.15000000000003
  0
LINE
  5
76
330
1F
100
AcDbEntity
  8
Graypants_Kerf_P2
 62
    36
420
  8866048
370
    -3
100
AcDbLine
 10
53.70216323406862
 20
-1257.693665410798
 30
0.0
 11
53.65675581633036
 21
-1257.693665410798
 31
0.0
  0
LINE
  5
77
330
1F
100
AcDbEntity
  8
Graypants_Kerf_P2
 62
    36
420
  8866048
370
    -3
100
AcDbLine
 10
27.21902163098002
 20
-1257.693665410846
 30
0.0
 11
27.16706077622416
 21
-1257.693665410846
 31
0.0
  0
LINE
  5
78
330
1F
100
AcDbEntity
  8
Graypants_Kerf_P2
 62
    36
420
  8866048
370
    -3
100
AcDbLine
 10
100.5021811721142
 20
-1081.803132557047
 30
0.0
 11
100.6812802615725
 21
-945.2736654108519
 31
0.0
  0
LINE
  5
79
330
1F
100
AcDbEntity
  8
Graypants_Kerf_P2
 62
    36
420
  8866048
370
    -3
100
AcDbLine
 10
100.4943567559724
 20
-1081.803132557531
 30
0.0
 11
100.2975364501222
 21
-945.2736654108826
 31
0.0
  0
LINE
  5
7A
330
1F
100
AcDbEntity
  8
Graypants_Kerf_P2
 62
    36
420
  8866048
370
    -3
100
AcDbLine
 10
29.69979157922353
 20
-945.2736654108517
 30
0.0
 11
28.77108306576361
 21
-945.2736654108515
 31
0.0
  0
LINE
  5
7B
330
1F
100
AcDbEntity
  8
Graypants_Kerf_P2
 62
    36
420
  8866048
370
    -3
100
AcDbLine
 10
55.87861519515968
 20
-1257.693665410655
 30
0.0
 11
54.13134020454368
 21
-1257.69366541076
 31
0.0
  0
LINE
  5
7C
330
1F
100
AcDbEntity
  8
Graypants_Kerf_P2
 62
    36
420
  8866048
370
    -3
100
AcDbLine
 10
100.2975364501219
 20
-1257.693665410815
 30
0.0
 11
100.4943567559724
 21
-1121.164198264166
 31
0.0
  0
LINE
  5
7D
330
1F
100
AcDbEntity
  8
Graypants_Kerf_P2
 62
    36
420
  8866048
370
    -3
100
AcDbLine
 10
100.6812802615725
 20
-1257.693665410846
 30
0.0
 11
100.5021811721142
 21
-1121.16419826465
 31
0.0
  0
LINE
  5
7E
330
1F
100
AcDbEntity
  8
Graypants_Kerf_P2
 62
    36
420
  8866048
370
    -3
100
AcDbLine
 10
92.8903532384852
 20
-1257.693665410846
 30
0.0
 11
92.87204675312671
 21
-1253.005342961978
 31
0.0
  0
LINE
  5
7F
330
1F
100
AcDbEntity
  8
Graypants_Kerf_P2
 62
    36
420
  8866048
370
    -3
100
AcDbLine
 10
27.2190216309798
 20
-945.2736654108519
 30
0.0
 11
27.26556385511776
 21
-950.275371850691
 31
0.0
  0
LINE
  5
80
330
1F
100
AcDbEntity
  8
Graypants_Kerf_P2
 62
    36
420
  8866048
370
    -3
100
AcDbLine
 10
53.70216323406885
 20
-945.2736654108996
 30
0.0
 11
53.70837856477408
 21
-946.0315544327034
 31
0.0
  0
LINE
  5
81
330
1F
100
AcDbEntity
  8
Graypants_Kerf_P2
 62
    36
420
  8866048
370
    -3
100
AcDbLine
 10
14.31342952253794
 20
-1236.421165410849
 30
0.0
 11
14.28573043749509
 21
-1233.560139697981
 31
0.0
  0
LINE
  5
82
330
1F
100
AcDbEntity
  8
Graypants_Kerf_P2
 62
    36
420
  8866048
370
    -3
100
AcDbLine
 10
13.00587980573346
 20
-1101.483665410849
 30
0.0
 11
13.33220887831055
 21
-1067.829035736035
 31
0.0
  0
LINE
  5
83
330
1F
100
AcDbEntity
  8
Graypants_Kerf_P2
 62
    36
420
  8866048
370
    -3
100
AcDbLine
 10
66.43406801068
 20
-1236.421165410833
 30
0.0
 11
66.41489258795514
 21
-1233.828383283692
 31
0.0
  0
LINE
  5
84
330
1F
100
AcDbEntity
  8
Graypants_Kerf_P2
 62
    36
420
  8866048
370
    -3
100
AcDbLine
 10
1.074058079468614
 20
-1257.693665410846
 30
0.0
 11
1.108428641023693
 21
-1257.693665410846
 31
0.0
  0
LINE
  5
85
330
1F
100
AcDbEntity
  8
Graypants_Kerf_P2
 62
    36
420
  8866048
370
    -3
100
AcDbLine
 10
28.77108306575701
 20
-1257.693665410846
 30
0.0
 11
29.69979157922285
 21
-1257.693665410846
 31
0.0
  0
LINE
  5
86
330
1F
100
AcDbEntity
  8
Graypants_Kerf_P2
 62
    36
420
  8866048
370
    -3
100
AcDbLine
 10
0.9709463947818904
 20
-1248.168665410846
 30
0.0
 11
1.074058079468614
 21
-1257.693665410846
 31
0.0
  0
LINE
  5
87
330
1F
100
AcDbEntity
  8
Graypants_Kerf_P2
 62
    36
420
  8866048
370
    -3
100
AcDbLine
 10
54.13134020467101
 20
-945.2736654109375
 30
0.0
 11
55.87861519515968
 21
-945.2736654110424
 31
0.0
  0
LINE
  5
88
330
1F
100
AcDbEntity
  8
Graypants_Kerf_P2
 62
    36
420
  8866048
370
    -3
100
AcDbLine
 10
1.074058079468841
 20
-945.2736654108515
 30
0.0
 11
1.10842864102392
 21
-945.2736654108515
 31
0.0
  0
LINE
  5
89
330
1F
100
AcDbEntity
  8
Graypants_Kerf_P2
 62
    36
420
  8866048
370
    -3
100
AcDbLine
 10
101.5342484327894
 20
-945.2736654108517
 30
0.0
 11
101.5342484327894
 21
-966.5461654126364
 31
0.0
  0
LINE
  5
8A
330
1F
100
AcDbEntity
  8
Graypants_Kerf_P2
 62
    36
420
  8866048
370
    -3
100
AcDbLine
 10
27.16706077622416
 20
-945.2736654108519
 30
0.0
 11
27.2190216309798
 21
-945.2736654108519
 31
0.0
  0
LINE
  5
8B
330
1F
100
AcDbEntity
  8
Graypants_Kerf_P2
 62
    36
420
  8866048
370
    -3
100
AcDbLine
 10
53.65675581633081
 20
-945.2736654108996
 30
0.0
 11
53.70216323406885
 21
-945.2736654108996
 31
0.0
  0
LINE
  5
8C
330
1F
100
AcDbEntity
  8
Graypants_Kerf_P2
 62
    36
420
  8866048
370
    -3
100
AcDbLine
 10
100.4982731913026
 20
-1124.005764374304
 30
0.0
 11
100.3061045356767
 21
-1257.693665410846
 31
0.0
  0
LINE
  5
8D
330
1F
100
AcDbEntity
  8
Graypants_Kerf_P2
 62
    36
420
  8866048
370
    -3
100
AcDbLine
 10
53.70837945653147
 20
-1256.935667646834
 30
0.0
 11
53.70216323406862
 21
-1257.693665410798
 31
0.0
  0
LINE
  5
8E
330
1F
100
AcDbEntity
  8
Graypants_Kerf_P2
 62
    36
420
  8866048
370
    -3
100
AcDbLine
 10
27.2655655168079
 20
-1252.691780383717
 30
0.0
 11
27.21902163098002
 21
-1257.693665410846
 31
0.0
  0
LINE
  5
8F
330
1F
100
AcDbEntity
  8
Graypants_Kerf_P2
 62
    36
420
  8866048
370
    -3
100
AcDbLine
 10
28.46151395190316
 20
-1079.035191403657
 30
0.0
 11
28.48717644275825
 21
-1081.803132557489
 31
0.0
  0
LINE
  5
90
330
1F
100
AcDbEntity
  8
Graypants_Kerf_P2
 62
    36
420
  8866048
370
    -3
100
AcDbLine
 10
54.79478372310962
 20
-1079.038460532475
 30
0.0
 11
54.81727307675828
 21
-1081.803132557499
 31
0.0
  0
LINE
  5
91
330
1F
100
AcDbEntity
  8
Graypants_Kerf_P2
 62
    36
420
  8866048
370
    -3
100
AcDbLine
 10
92.87204671863901
 20
-949.9619966876292
 30
0.0
 11
92.8903532384852
 21
-945.2736654108517
 31
0.0
  0
LINE
  5
92
330
1F
100
AcDbEntity
  8
Graypants_Kerf_P2
 62
    36
420
  8866048
370
    -3
100
AcDbLine
 10
13.33220887831067
 20
-1135.138295085655
 30
0.0
 11
13.00587980573346
 21
-1101.483665410849
 31
0.0
  0
LINE
  5
93
330
1F
100
AcDbEntity
  8
Graypants_Kerf_P2
 62
    36
420
  8866048
370
    -3
100
AcDbLine
 10
66.41489258795548
 20
-969.1389475379607
 30
0.0
 11
66.43406801068
 21
-966.5461654108642
 31
0.0
  0
LINE
  5
94
330
1F
100
AcDbEntity
  8
Graypants_Kerf_P2
 62
    36
420
  8866048
370
    -3
100
AcDbLine
 10
12.95103694151555
 20
-1101.483665410849
 30
0.0
 11
13.00587980573346
 21
-1101.483665410849
 31
0.0
  0
LINE
  5
95
330
1F
100
AcDbEntity
  8
Graypants_Kerf_P2
 62
    36
420
  8866048
370
    -3
100
AcDbLine
 10
101.5342484327894
 20
-1236.421014217561
 30
0.0
 11
101.5342484327894
 21
-1257.693665410846
 31
0.0
  0
LINE
  5
96
330
1F
100
AcDbEntity
  8
Graypants_Kerf_P2
 62
    36
420
  8866048
370
    -3
100
AcDbLine
 10
91.77244410965864
 20
-945.2736654108517
 30
0.0
 11
77.52312000436609
 21
-945.2736654108517
 31
0.0
  0
LINE
  5
97
330
1F
100
AcDbEntity
  8
Graypants_Kerf_P2
 62
    36
420
  8866048
370
    -3
100
AcDbLine
 10
75.79289579805913
 20
-945.2736654109232
 30
0.0
 11
55.87861519515968
 21
-945.2736654110424
 31
0.0
  0
LINE
  5
98
330
1F
100
AcDbEntity
  8
Graypants_Kerf_P2
 62
    36
420
  8866048
370
    -3
100
AcDbLine
 10
53.65675581633081
 20
-945.2736654109118
 30
0.0
 11
29.69979157922353
 21
-945.2736654108517
 31
0.0
  0
LINE
  5
99
330
1F
100
AcDbEntity
  8
Graypants_Kerf_P2
 62
    36
420
  8866048
370
    -3
100
AcDbLine
 10
1.108428641023693
 20
-1257.693665410846
 30
0.0
 11
27.16706077622416
 21
-1257.693665410846
 31
0.0
  0
LINE
  5
9A
330
1F
100
AcDbEntity
  8
Graypants_Kerf_P2
 62
    36
420
  8866048
370
    -3
100
AcDbLine
 10
29.69979157922285
 20
-1257.693665410846
 30
0.0
 11
53.65675581633036
 21
-1257.693665410785
 31
0.0
  0
LINE
  5
9B
330
1F
100
AcDbEntity
  8
Graypants_Kerf_P2
 62
    36
420
  8866048
370
    -3
100
AcDbLine
 10
55.87861519515968
 20
-1257.693665410655
 30
0.0
 11
75.79289579805891
 21
-1257.693665410774
 31
0.0
  0
LINE
  5
9C
330
1F
100
AcDbEntity
  8
Graypants_Kerf_P2
 62
    36
420
  8866048
370
    -3
100
AcDbLine
 10
77.52312000436564
 20
-1257.693665410846
 30
0.0
 11
91.77244410965795
 21
-1257.693665410846
 31
0.0
  0
LINE
  5
9D
330
1F
100
AcDbEntity
  8
Graypants_Kerf_P2
 62
    36
420
  8866048
370
    -3
100
AcDbLine
 10
92.32893563403536
 20
-1081.803132557525
 30
0.0
 11
91.77244410965864
 21
-945.2736654108517
 31
0.0
  0
LINE
  5
9E
330
1F
100
AcDbEntity
  8
Graypants_Kerf_P2
 62
    36
420
  8866048
370
    -3
100
AcDbLine
 10
91.77244410965795
 20
-1257.693665410846
 30
0.0
 11
92.32893563403536
 21
-1121.164198264166
 31
0.0
  0
LINE
  5
9F
330
1F
100
AcDbEntity
  8
Graypants_Kerf_P2
 62
    36
420
  8866048
370
    -3
100
AcDbLine
 10
91.7934676189202
 20
-945.2736654108518
 30
0.0
 11
92.33931594937303
 21
-1079.219492691601
 31
0.0
  0
POLYLINE
  5
A0
330
1F
100
AcDbEntity
  8
Graypants_Kerf_P2
 62
    36
420
  8866048
370
    -3
100
AcDb2dPolyline
 66
     1
 10
0.0
 20
0.0
 30
0.0
  0
VERTEX
  5
A1
330
A0
100
AcDbEntity
  8
Graypants_Kerf_P2
 62
    36
420
  8866048
370
    -3
100
AcDbVertex
100
AcDb2dVertex
 10
97.4195504717211
 20
-966.5461654122907
 30
0.0
  0
VERTEX
  5
A2
330
A0
100
AcDbEntity
  8
Graypants_Kerf_P2
 62
    36
420
  8866048
370
    -3
100
AcDbVertex
100
AcDb2dVertex
 10
97.78304046870926
 20
-1101.485724389227
 30
0.0
  0
VERTEX
  5
A3
330
A0
100
AcDbEntity
  8
Graypants_Kerf_P2
 62
    36
420
  8866048
370
    -3
100
AcDbVertex
100
AcDb2dVertex
 10
97.78303520266854
 20
-1101.487783376619
 30
0.0
  0
VERTEX
  5
A4
330
A0
100
AcDbEntity
  8
Graypants_Kerf_P2
 62
    36
420
  8866048
370
    -3
100
AcDbVertex
100
AcDb2dVertex
 10
97.78302442603118
 20
-1101.491901344126
 30
0.0
  0
VERTEX
  5
A5
330
A0
100
AcDbEntity
  8
Graypants_Kerf_P2
 62
    36
420
  8866048
370
    -3
100
AcDbVertex
100
AcDb2dVertex
 10
97.78300276327664
 20
-1101.50013727617
 30
0.0
  0
VERTEX
  5
A6
330
A0
100
AcDbEntity
  8
Graypants_Kerf_P2
 62
    36
420
  8866048
370
    -3
100
AcDbVertex
100
AcDb2dVertex
 10
97.78295939906903
 20
-1101.516609138997
 30
0.0
  0
VERTEX
  5
A7
330
A0
100
AcDbEntity
  8
Graypants_Kerf_P2
 62
    36
420
  8866048
370
    -3
100
AcDbVertex
100
AcDb2dVertex
 10
97.78287266546567
 20
-1101.549552864731
 30
0.0
  0
VERTEX
  5
A8
330
A0
100
AcDbEntity
  8
Graypants_Kerf_P2
 62
    36
420
  8866048
370
    -3
100
AcDbVertex
100
AcDb2dVertex
 10
97.78269919123265
 20
-1101.615440315932
 30
0.0
  0
VERTEX
  5
A9
330
A0
100
AcDbEntity
  8
Graypants_Kerf_P2
 62
    36
420
  8866048
370
    -3
100
AcDbVertex
100
AcDb2dVertex
 10
97.41955047172132
 20
-1236.421165409407
 30
0.0
  0
SEQEND
  5
AA
330
A0
100
AcDbEntity
  8
Graypants_Kerf_P2
 62
    36
420
  8866048
370
    -3
  0
LINE
  5
AB
330
1F
100
AcDbEntity
  8
Graypants_Kerf_P2
 62
    36
420
  8866048
370
    -3
100
AcDbLine
 10
97.41225708004026
 20
-1233.774728726202
 30
0.0
 11
97.03963074920398
 21
-1101.483665410849
 31
0.0
  0
LINE
  5
AC
330
1F
100
AcDbEntity
  8
Graypants_Kerf_P2
 62
    36
420
  8866048
370
    -3
100
AcDbLine
 10
97.03963074920398
 20
-1101.483665410849
 30
0.0
 11
97.41225708004015
 21
-969.1926020954766
 31
0.0
  0
POLYLINE
  5
AD
330
1F
100
AcDbEntity
  8
Graypants_Kerf_P2
 62
    36
420
  8866048
370
    -3
100
AcDb2dPolyline
 66
     1
 10
0.0
 20
0.0
 30
0.0
  0
VERTEX
  5
AE
330
AD
100
AcDbEntity
  8
Graypants_Kerf_P2
 62
    36
420
  8866048
370
    -3
100
AcDbVertex
100
AcDb2dVertex
 10
97.40495906424508
 20
-966.546165411127
 30
0.0
  0
VERTEX
  5
AF
330
AD
100
AcDbEntity
  8
Graypants_Kerf_P2
 62
    36
420
  8866048
370
    -3
100
AcDbVertex
100
AcDb2dVertex
 10
97.02445855795239
 20
-1101.483665390995
 30
0.0
  0
VERTEX
  5
B0
330
AD
100
AcDbEntity
  8
Graypants_Kerf_P2
 62
    36
420
  8866048
370
    -3
100
AcDbVertex
100
AcDb2dVertex
 10
97.02446368265328
 20
-1101.485724382909
 30
0.0
  0
VERTEX
  5
B1
330
AD
100
AcDbEntity
  8
Graypants_Kerf_P2
 62
    36
420
  8866048
370
    -3
100
AcDbVertex
100
AcDb2dVertex
 10
97.02446944475658
 20
-1101.48778337093
 30
0.0
  0
VERTEX
  5
B2
330
AD
100
AcDbEntity
  8
Graypants_Kerf_P2
 62
    36
420
  8866048
370
    -3
100
AcDbVertex
100
AcDb2dVertex
 10
97.02448123600584
 20
-1101.491901339132
 30
0.0
  0
VERTEX
  5
B3
330
AD
100
AcDbEntity
  8
Graypants_Kerf_P2
 62
    36
420
  8866048
370
    -3
100
AcDbVertex
100
AcDb2dVertex
 10
97.02450493787424
 20
-1101.500137271199
 30
0.0
  0
VERTEX
  5
B4
330
AD
100
AcDbEntity
  8
Graypants_Kerf_P2
 62
    36
420
  8866048
370
    -3
100
AcDbVertex
100
AcDb2dVertex
 10
97.02455238345738
 20
-1101.516609134184
 30
0.0
  0
VERTEX
  5
B5
330
AD
100
AcDbEntity
  8
Graypants_Kerf_P2
 62
    36
420
  8866048
370
    -3
100
AcDbVertex
100
AcDb2dVertex
 10
97.02464727874795
 20
-1101.549552859907
 30
0.0
  0
VERTEX
  5
B6
330
AD
100
AcDbEntity
  8
Graypants_Kerf_P2
 62
    36
420
  8866048
370
    -3
100
AcDbVertex
100
AcDb2dVertex
 10
97.0248370708517
 20
-1101.615440311122
 30
0.0
  0
VERTEX
  5
B7
330
AD
100
AcDbEntity
  8
Graypants_Kerf_P2
 62
    36
420
  8866048
370
    -3
100
AcDbVertex
100
AcDb2dVertex
 10
97.4049590642453
 20
-1236.42116541057
 30
0.0
  0
SEQEND
  5
B8
330
AD
100
AcDbEntity
  8
Graypants_Kerf_P2
 62
    36
420
  8866048
370
    -3
  0
LINE
  5
B9
330
1F
100
AcDbEntity
  8
Graypants_Kerf_P2
 62
    36
420
  8866048
370
    -3
100
AcDbLine
 10
57.15000000000009
 20
-301.2511448537393
 30
0.0
 11
57.15000000000009
 21
-309.1886448537393
 31
0.0
  0
LINE
  5
BA
330
1F
100
AcDbEntity
  8
Graypants_Kerf_P2
 62
    36
420
  8866048
370
    -3
100
AcDbLine
 10
-57.14999999999986
 20
-309.1886448537394
 30
0.0
 11
-57.14999999999986
 21
-301.2511448537393
 31
0.0
  0
LINE
  5
BB
330
1F
100
AcDbEntity
  8
Graypants_Kerf_P2
 62
    36
420
  8866048
370
    -3
100
AcDbLine
 10
-57.14999999999986
 20
-301.2511448537393
 30
0.0
 11
57.15000000000009
 21
-301.2511448537393
 31
0.0
  0
ARC
  5
BC
330
1F
100
AcDbEntity
  8
Graypants_Kerf_P2
 62
    36
420
  8866048
370
    -3
100
AcDbCircle
 10
-55.56250000000032
 20
-309.1886448537397
 30
0.0
 40
1.587499999999771
210
0.0
220
0.0
230
-1.0
100
AcDbArc
 50
179.9999999999877
 51
270.0000000000034
  0
ARC
  5
BD
330
1F
100
AcDbEntity
  8
Graypants_Kerf_P2
 62
    36
420
  8866048
370
    -3
100
AcDbCircle
 10
-55.56249999999946
 20
-309.188644853739
 30
0.0
 40
1.587500000000404
100
AcDbArc
 50
180.0000000000123
 51
269.9999999999805
  0
LINE
  5
BE
330
1F
100
AcDbEntity
  8
Graypants_Kerf_P2
 62
    36
420
  8866048
370
    -3
100
AcDbLine
 10
3.175000000000068
 20
-310.7761448537394
 30
0.0
 11
3.175762140919687
 21
-945.2735048849116
 31
0.0
  0
LINE
  5
BF
330
1F
100
AcDbEntity
  8
Graypants_Kerf_P2
 62
    36
420
  8866048
370
    -3
100
AcDbLine
 10
76.66448572745071
 20
-1081.803132557531
 30
0.0
 11
75.79289579805913
 21
-945.2736654109232
 31
0.0
  0
LINE
  5
C0
330
1F
100
AcDbEntity
  8
Graypants_Kerf_P2
 62
    36
420
  8866048
370
    -3
100
AcDbLine
 10
28.43584247116883
 20
-1121.164198265023
 30
0.0
 11
29.69979157922285
 21
-1257.693665410846
 31
0.0
  0
LINE
  5
C1
330
1F
100
AcDbEntity
  8
Graypants_Kerf_P2
 62
    36
420
  8866048
370
    -3
100
AcDbLine
 10
54.77228911469183
 20
-1121.164198264232
 30
0.0
 11
55.87861519515968
 21
-1257.693665410655
 31
0.0
  0
LINE
  5
C2
330
1F
100
AcDbEntity
  8
Graypants_Kerf_P2
 62
    36
420
  8866048
370
    -3
100
AcDbLine
 10
75.79289579805891
 20
-1257.693665410774
 30
0.0
 11
76.66448572745071
 21
-1121.164198264166
 31
0.0
  0
LINE
  5
C3
330
1F
100
AcDbEntity
  8
Graypants_Kerf_P2
 62
    36
420
  8866048
370
    -3
100
AcDbLine
 10
76.68088414359477
 20
-1123.752453635718
 30
0.0
 11
75.82574335502773
 21
-1257.693665410846
 31
0.0
  0
LINE
  5
C4
330
1F
100
AcDbEntity
  8
Graypants_Kerf_P2
 62
    36
420
  8866048
370
    -3
100
AcDbLine
 10
76.69728654079609
 20
-1081.803132557531
 30
0.0
 11
77.42296451681204
 21
-966.5460285356946
 31
0.0
  0
LINE
  5
C5
330
1F
100
AcDbEntity
  8
Graypants_Kerf_P2
 62
    36
420
  8866048
370
    -3
100
AcDbLine
 10
84.67432338296794
 20
-1101.483665410803
 30
0.0
 11
85.38105053981451
 21
-969.2541969503516
 31
0.0
  0
LINE
  5
C6
330
1F
100
AcDbEntity
  8
Graypants_Kerf_P2
 62
    36
420
  8866048
370
    -3
100
AcDbLine
 10
101.5342448509837
 20
-966.5461654126364
 30
0.0
 11
101.5342448509837
 21
-1236.421165409061
 31
0.0
  0
LINE
  5
C7
330
1F
100
AcDbEntity
  8
Graypants_Kerf_P2
 62
    36
420
  8866048
370
    -3
100
AcDbLine
 10
42.03307621019735
 20
-1236.421165409808
 30
0.0
 11
43.23072693003951
 21
-1101.483665410849
 31
0.0
  0
LINE
  5
C8
330
1F
100
AcDbEntity
  8
Graypants_Kerf_P2
 62
    36
420
  8866048
370
    -3
100
AcDbLine
 10
43.23072693003951
 20
-1101.483665410849
 30
0.0
 11
42.03307621019735
 21
-966.5461654118889
 31
0.0
  0
LINE
  5
C9
330
1F
100
AcDbEntity
  8
Graypants_Kerf_P2
 62
    36
420
  8866048
370
    -3
100
AcDbLine
 10
15.56309897260189
 20
-1101.483665409912
 30
0.0
 11
14.25803451418687
 21
-966.5461654108487
 31
0.0
  0
LINE
  5
CA
330
1F
100
AcDbEntity
  8
Graypants_Kerf_P2
 62
    36
420
  8866048
370
    -3
100
AcDbLine
 10
-100.6795984095595
 20
-945.2736654108519
 30
0.0
 11
-101.5325665807763
 21
-945.2736654108519
 31
0.0
  0
LINE
  5
CB
330
1F
100
AcDbEntity
  8
Graypants_Kerf_P2
 62
    36
420
  8866048
370
    -3
100
AcDbLine
 10
-1.106746789010572
 20
-1257.693665410846
 30
0.0
 11
-1.127565636425857
 21
-1257.693665410846
 31
0.0
  0
LINE
  5
CC
330
1F
100
AcDbEntity
  8
Graypants_Kerf_P2
 62
    36
420
  8866048
370
    -3
100
AcDbLine
 10
-100.500499320101
 20
-1081.803132557047
 30
0.0
 11
-100.6795984095595
 21
-945.2736654108519
 31
0.0
  0
LINE
  5
CD
330
1F
100
AcDbEntity
  8
Graypants_Kerf_P2
 62
    36
420
  8866048
370
    -3
100
AcDbLine
 10
-100.4926749039594
 20
-1081.803132557531
 30
0.0
 11
-100.2958545981089
 21
-945.2736654108826
 31
0.0
  0
LINE
  5
CE
330
1F
100
AcDbEntity
  8
Graypants_Kerf_P2
 62
    36
420
  8866048
370
    -3
100
AcDbLine
 10
-100.2958545981089
 20
-1257.693665410815
 30
0.0
 11
-100.4926749039594
 21
-1121.164198264166
 31
0.0
  0
LINE
  5
CF
330
1F
100
AcDbEntity
  8
Graypants_Kerf_P2
 62
    36
420
  8866048
370
    -3
100
AcDbLine
 10
-100.6795984095595
 20
-1257.693665410846
 30
0.0
 11
-100.500499320101
 21
-1121.16419826465
 31
0.0
  0
LINE
  5
D0
330
1F
100
AcDbEntity
  8
Graypants_Kerf_P2
 62
    36
420
  8866048
370
    -3
100
AcDbLine
 10
-101.5243218322696
 20
-1101.483665410849
 30
0.0
 11
-101.5325665807762
 21
-969.3007495822959
 31
0.0
  0
LINE
  5
D1
330
1F
100
AcDbEntity
  8
Graypants_Kerf_P2
 62
    36
420
  8866048
370
    -3
100
AcDbLine
 10
-66.39402029199005
 20
-1236.421165410839
 30
0.0
 11
-66.41321073594202
 21
-1233.828383283688
 31
0.0
  0
LINE
  5
D2
330
1F
100
AcDbEntity
  8
Graypants_Kerf_P2
 62
    36
420
  8866048
370
    -3
100
AcDbLine
 10
-13.61512614456706
 20
-1101.483665410849
 30
0.0
 11
-13.66303726025956
 21
-1101.483665410826
 31
0.0
  0
LINE
  5
D3
330
1F
100
AcDbEntity
  8
Graypants_Kerf_P2
 62
    36
420
  8866048
370
    -3
100
AcDbLine
 10
-13.61512614456706
 20
-1101.483665410849
 30
0.0
 11
-13.33052702629743
 21
-1067.829035736034
 31
0.0
  0
LINE
  5
D4
330
1F
100
AcDbEntity
  8
Graypants_Kerf_P2
 62
    36
420
  8866048
370
    -3
100
AcDbLine
 10
-1.072376227455607
 20
-1257.693665410846
 30
0.0
 11
-1.106746789010572
 21
-1257.693665410846
 31
0.0
  0
LINE
  5
D5
330
1F
100
AcDbEntity
  8
Graypants_Kerf_P2
 62
    36
420
  8866048
370
    -3
100
AcDbLine
 10
-1.127565636425857
 20
-1257.693665410846
 30
0.0
 11
-1.163996247726004
 21
-1257.693665410846
 31
0.0
  0
LINE
  5
D6
330
1F
100
AcDbEntity
  8
Graypants_Kerf_P2
 62
    36
420
  8866048
370
    -3
100
AcDbLine
 10
-0.9692645427687694
 20
-1248.168665410846
 30
0.0
 11
-1.072376227455607
 21
-1257.693665410846
 31
0.0
  0
LINE
  5
D7
330
1F
100
AcDbEntity
  8
Graypants_Kerf_P2
 62
    36
420
  8866048
370
    -3
100
AcDbLine
 10
-54.17273803048295
 20
-1257.693665410846
 30
0.0
 11
-53.7071258321555
 21
-1256.860016727932
 31
0.0
  0
LINE
  5
D8
330
1F
100
AcDbEntity
  8
Graypants_Kerf_P2
 62
    36
420
  8866048
370
    -3
100
AcDbLine
 10
-1.127565636422787
 20
-945.2736654108518
 30
0.0
 11
-1.163996247725663
 21
-945.2736654108518
 31
0.0
  0
LINE
  5
D9
330
1F
100
AcDbEntity
  8
Graypants_Kerf_P2
 62
    36
420
  8866048
370
    -3
100
AcDbLine
 10
-54.129658352658
 20
-945.2736654109375
 30
0.0
 11
-54.17273803048215
 21
-945.2736654109374
 31
0.0
  0
LINE
  5
DA
330
1F
100
AcDbEntity
  8
Graypants_Kerf_P2
 62
    36
420
  8866048
370
    -3
100
AcDbLine
 10
-28.76940121375048
 20
-945.2736654108515
 30
0.0
 11
-28.81851391018517
 21
-945.2736654108515
 31
0.0
  0
LINE
  5
DB
330
1F
100
AcDbEntity
  8
Graypants_Kerf_P2
 62
    36
420
  8866048
370
    -3
100
AcDbLine
 10
-101.5325665807762
 20
-1257.693665410846
 30
0.0
 11
-100.6795984095595
 21
-1257.693665410846
 31
0.0
  0
LINE
  5
DC
330
1F
100
AcDbEntity
  8
Graypants_Kerf_P2
 62
    36
420
  8866048
370
    -3
100
AcDbLine
 10
-101.5325665807762
 20
-1233.666581238664
 30
0.0
 11
-101.5243218322696
 21
-1101.483665410849
 31
0.0
  0
LINE
  5
DD
330
1F
100
AcDbEntity
  8
Graypants_Kerf_P2
 62
    36
420
  8866048
370
    -3
100
AcDbLine
 10
-1.127565636422787
 20
-945.2736654108515
 30
0.0
 11
-1.106746789010685
 21
-945.2736654108515
 31
0.0
  0
LINE
  5
DE
330
1F
100
AcDbEntity
  8
Graypants_Kerf_P2
 62
    36
420
  8866048
370
    -3
100
AcDbLine
 10
-1.106746789010572
 20
-1255.879261584723
 30
0.0
 11
-1.106746789010572
 21
-1257.693665410846
 31
0.0
  0
LINE
  5
DF
330
1F
100
AcDbEntity
  8
Graypants_Kerf_P2
 62
    36
420
  8866048
370
    -3
100
AcDbLine
 10
-100.4965912289474
 20
-1124.005844530711
 30
0.0
 11
-100.6725251329508
 21
-1257.693665410846
 31
0.0
  0
LINE
  5
E0
330
1F
100
AcDbEntity
  8
Graypants_Kerf_P2
 62
    36
420
  8866048
370
    -3
100
AcDbLine
 10
-66.41321073594236
 20
-969.1389475379638
 30
0.0
 11
-66.39402029199073
 21
-966.5461654108585
 31
0.0
  0
LINE
  5
E1
330
1F
100
AcDbEntity
  8
Graypants_Kerf_P2
 62
    36
420
  8866048
370
    -3
100
AcDbLine
 10
-13.33052706883666
 20
-1135.138290056535
 30
0.0
 11
-13.61512614456706
 21
-1101.483665410849
 31
0.0
  0
LINE
  5
E2
330
1F
100
AcDbEntity
  8
Graypants_Kerf_P2
 62
    36
420
  8866048
370
    -3
100
AcDbLine
 10
-28.81851391019188
 20
-1257.693665410846
 30
0.0
 11
-28.76940121374389
 21
-1257.693665410846
 31
0.0
  0
LINE
  5
E3
330
1F
100
AcDbEntity
  8
Graypants_Kerf_P2
 62
    36
420
  8866048
370
    -3
100
AcDbLine
 10
-54.17273803048283
 20
-1257.69366541076
 30
0.0
 11
-54.12965835253067
 21
-1257.69366541076
 31
0.0
  0
LINE
  5
E4
330
1F
100
AcDbEntity
  8
Graypants_Kerf_P2
 62
    36
420
  8866048
370
    -3
100
AcDbLine
 10
-91.79178576690697
 20
-1257.693665410846
 30
0.0
 11
-77.55420031290055
 21
-1257.693665410542
 31
0.0
  0
LINE
  5
E5
330
1F
100
AcDbEntity
  8
Graypants_Kerf_P2
 62
    36
420
  8866048
370
    -3
100
AcDbLine
 10
-75.82406150301472
 20
-1257.693665410846
 30
0.0
 11
-55.92145341759988
 21
-1257.693665410846
 31
0.0
  0
LINE
  5
E6
330
1F
100
AcDbEntity
  8
Graypants_Kerf_P2
 62
    36
420
  8866048
370
    -3
100
AcDbLine
 10
-53.70048138205561
 20
-1257.693665410798
 30
0.0
 11
-29.7488223581056
 21
-1257.693665410846
 31
0.0
  0
LINE
  5
E7
330
1F
100
AcDbEntity
  8
Graypants_Kerf_P2
 62
    36
420
  8866048
370
    -3
100
AcDbLine
 10
-27.21733977896702
 20
-1257.693665410846
 30
0.0
 11
-1.163996247726004
 21
-1257.693665410846
 31
0.0
  0
LINE
  5
E8
330
1F
100
AcDbEntity
  8
Graypants_Kerf_P2
 62
    36
420
  8866048
370
    -3
100
AcDbLine
 10
-29.7488223581056
 20
-945.2736654108519
 30
0.0
 11
-53.70048138205573
 21
-945.2736654108996
 31
0.0
  0
LINE
  5
E9
330
1F
100
AcDbEntity
  8
Graypants_Kerf_P2
 62
    36
420
  8866048
370
    -3
100
AcDbLine
 10
-55.92145341759931
 20
-945.2736654108519
 30
0.0
 11
-75.82406150301495
 21
-945.273665410859
 31
0.0
  0
LINE
  5
EA
330
1F
100
AcDbEntity
  8
Graypants_Kerf_P2
 62
    36
420
  8866048
370
    -3
100
AcDbLine
 10
-77.55420031290032
 20
-945.273665411155
 30
0.0
 11
-91.79178576690697
 21
-945.2736654108518
 31
0.0
  0
LINE
  5
EB
330
1F
100
AcDbEntity
  8
Graypants_Kerf_P2
 62
    36
420
  8866048
370
    -3
100
AcDbLine
 10
-100.6725251329508
 20
-945.2736654108518
 30
0.0
 11
-100.4965912289474
 21
-1078.961486290988
 31
0.0
  0
LINE
  5
EC
330
1F
100
AcDbEntity
  8
Graypants_Kerf_P2
 62
    36
420
  8866048
370
    -3
100
AcDbLine
 10
-92.86839454906158
 20
-945.2736654108688
 30
0.0
 11
-92.33763760557065
 21
-1079.219413444966
 31
0.0
  0
LINE
  5
ED
330
1F
100
AcDbEntity
  8
Graypants_Kerf_P2
 62
    36
420
  8866048
370
    -3
100
AcDbLine
 10
-92.32725378202235
 20
-1121.164198264166
 30
0.0
 11
-92.33763569254518
 21
-1123.747441248836
 31
0.0
  0
LINE
  5
EE
330
1F
100
AcDbEntity
  8
Graypants_Kerf_P2
 62
    36
420
  8866048
370
    -3
100
AcDbLine
 10
-92.88867138647208
 20
-1257.693665410846
 30
0.0
 11
-92.34801573594359
 21
-1121.164198264943
 31
0.0
  0
LINE
  5
EF
330
1F
100
AcDbEntity
  8
Graypants_Kerf_P2
 62
    36
420
  8866048
370
    -3
100
AcDbLine
 10
-55.92145341759988
 20
-1257.693665410846
 30
0.0
 11
-54.17273803048295
 21
-1257.693665410846
 31
0.0
  0
LINE
  5
F0
330
1F
100
AcDbEntity
  8
Graypants_Kerf_P2
 62
    36
420
  8866048
370
    -3
100
AcDbLine
 10
-29.7488223581056
 20
-1257.693665410846
 30
0.0
 11
-28.818513910192
 21
-1257.693665410846
 31
0.0
  0
LINE
  5
F1
330
1F
100
AcDbEntity
  8
Graypants_Kerf_P2
 62
    36
420
  8866048
370
    -3
100
AcDbLine
 10
-92.34801573594359
 20
-1081.803132556755
 30
0.0
 11
-92.88867138647208
 21
-945.2736654108517
 31
0.0
  0
POLYLINE
  5
F2
330
1F
100
AcDbEntity
  8
Graypants_Kerf_P2
 62
    36
420
  8866048
370
    -3
100
AcDb2dPolyline
 66
     1
 10
0.0
 20
0.0
 30
0.0
  0
VERTEX
  5
F3
330
F2
100
AcDbEntity
  8
Graypants_Kerf_P2
 62
    36
420
  8866048
370
    -3
100
AcDbVertex
100
AcDb2dVertex
 10
-97.41786861970786
 20
-966.5461654122907
 30
0.0
  0
VERTEX
  5
F4
330
F2
100
AcDbEntity
  8
Graypants_Kerf_P2
 62
    36
420
  8866048
370
    -3
100
AcDbVertex
100
AcDb2dVertex
 10
-97.78135861669602
 20
-1101.485724389227
 30
0.0
  0
VERTEX
  5
F5
330
F2
100
AcDbEntity
  8
Graypants_Kerf_P2
 62
    36
420
  8866048
370
    -3
100
AcDbVertex
100
AcDb2dVertex
 10
-97.78135335065545
 20
-1101.487783376619
 30
0.0
  0
VERTEX
  5
F6
330
F2
100
AcDbEntity
  8
Graypants_Kerf_P2
 62
    36
420
  8866048
370
    -3
100
AcDbVertex
100
AcDb2dVertex
 10
-97.78134257401803
 20
-1101.491901344126
 30
0.0
  0
VERTEX
  5
F7
330
F2
100
AcDbEntity
  8
Graypants_Kerf_P2
 62
    36
420
  8866048
370
    -3
100
AcDbVertex
100
AcDb2dVertex
 10
-97.78132091126356
 20
-1101.50013727617
 30
0.0
  0
VERTEX
  5
F8
330
F2
100
AcDbEntity
  8
Graypants_Kerf_P2
 62
    36
420
  8866048
370
    -3
100
AcDbVertex
100
AcDb2dVertex
 10
-97.78127754705595
 20
-1101.516609138997
 30
0.0
  0
VERTEX
  5
F9
330
F2
100
AcDbEntity
  8
Graypants_Kerf_P2
 62
    36
420
  8866048
370
    -3
100
AcDbVertex
100
AcDb2dVertex
 10
-97.78119081345261
 20
-1101.549552864731
 30
0.0
  0
VERTEX
  5
FA
330
F2
100
AcDbEntity
  8
Graypants_Kerf_P2
 62
    36
420
  8866048
370
    -3
100
AcDbVertex
100
AcDb2dVertex
 10
-97.7810173392194
 20
-1101.615440315932
 30
0.0
  0
VERTEX
  5
FB
330
F2
100
AcDbEntity
  8
Graypants_Kerf_P2
 62
    36
420
  8866048
370
    -3
100
AcDbVertex
100
AcDb2dVertex
 10
-97.41786861970809
 20
-1236.421165409407
 30
0.0
  0
SEQEND
  5
FC
330
F2
100
AcDbEntity
  8
Graypants_Kerf_P2
 62
    36
420
  8866048
370
    -3
  0
POLYLINE
  5
FD
330
1F
100
AcDbEntity
  8
Graypants_Kerf_P2
 62
    36
420
  8866048
370
    -3
100
AcDb2dPolyline
 66
     1
 10
0.0
 20
0.0
 30
0.0
  0
VERTEX
  5
FE
330
FD
100
AcDbEntity
  8
Graypants_Kerf_P2
 62
    36
420
  8866048
370
    -3
100
AcDbVertex
100
AcDb2dVertex
 10
-97.40327721223207
 20
-966.546165411127
 30
0.0
  0
VERTEX
  5
FF
330
FD
100
AcDbEntity
  8
Graypants_Kerf_P2
 62
    36
420
  8866048
370
    -3
100
AcDbVertex
100
AcDb2dVertex
 10
-97.02277670593915
 20
-1101.483665390995
 30
0.0
  0
VERTEX
  5
100
330
FD
100
AcDbEntity
  8
Graypants_Kerf_P2
 62
    36
420
  8866048
370
    -3
100
AcDbVertex
100
AcDb2dVertex
 10
-97.02278183064016
 20
-1101.485724382909
 30
0.0
  0
VERTEX
  5
101
330
FD
100
AcDbEntity
  8
Graypants_Kerf_P2
 62
    36
420
  8866048
370
    -3
100
AcDbVertex
100
AcDb2dVertex
 10
-97.02278759274338
 20
-1101.48778337093
 30
0.0
  0
VERTEX
  5
102
330
FD
100
AcDbEntity
  8
Graypants_Kerf_P2
 62
    36
420
  8866048
370
    -3
100
AcDbVertex
100
AcDb2dVertex
 10
-97.0227993839926
 20
-1101.491901339132
 30
0.0
  0
VERTEX
  5
103
330
FD
100
AcDbEntity
  8
Graypants_Kerf_P2
 62
    36
420
  8866048
370
    -3
100
AcDbVertex
100
AcDb2dVertex
 10
-97.02282308586112
 20
-1101.500137271199
 30
0.0
  0
VERTEX
  5
104
330
FD
100
AcDbEntity
  8
Graypants_Kerf_P2
 62
    36
420
  8866048
370
    -3
100
AcDbVertex
100
AcDb2dVertex
 10
-97.02287053144428
 20
-1101.516609134184
 30
0.0
  0
VERTEX
  5
105
330
FD
100
AcDbEntity
  8
Graypants_Kerf_P2
 62
    36
420
  8866048
370
    -3
100
AcDbVertex
100
AcDb2dVertex
 10
-97.02296542673483
 20
-1101.549552859907
 30
0.0
  0
VERTEX
  5
106
330
FD
100
AcDbEntity
  8
Graypants_Kerf_P2
 62
    36
420
  8866048
370
    -3
100
AcDbVertex
100
AcDb2dVertex
 10
-97.02315521883854
 20
-1101.615440311122
 30
0.0
  0
VERTEX
  5
107
330
FD
100
AcDbEntity
  8
Graypants_Kerf_P2
 62
    36
420
  8866048
370
    -3
100
AcDbVertex
100
AcDb2dVertex
 10
-97.40327721223207
 20
-1236.42116541057
 30
0.0
  0
SEQEND
  5
108
330
FD
100
AcDbEntity
  8
Graypants_Kerf_P2
 62
    36
420
  8866048
370
    -3
  0
LINE
  5
109
330
1F
100
AcDbEntity
  8
Graypants_Kerf_P2
 62
    36
420
  8866048
370
    -3
100
AcDbLine
 10
-97.41057522802714
 20
-1233.774728726223
 30
0.0
 11
-97.76730974346651
 21
-1101.483665410849
 31
0.0
  0
LINE
  5
10A
330
1F
100
AcDbEntity
  8
Graypants_Kerf_P2
 62
    36
420
  8866048
370
    -3
100
AcDbLine
 10
-97.76730974346651
 20
-1101.483665410849
 30
0.0
 11
-97.41057490221681
 21
-969.1924838974987
 31
0.0
  0
LINE
  5
10B
330
1F
100
AcDbEntity
  8
Graypants_Kerf_P2
 62
    36
420
  8866048
370
    -3
100
AcDbLine
 10
-28.81851391018517
 20
-945.2736654108519
 30
0.0
 11
-29.7488223581056
 21
-945.2736654108519
 31
0.0
  0
LINE
  5
10C
330
1F
100
AcDbEntity
  8
Graypants_Kerf_P2
 62
    36
420
  8866048
370
    -3
100
AcDbLine
 10
-54.17273803048215
 20
-945.2736654108518
 30
0.0
 11
-55.92145341759931
 21
-945.2736654108519
 31
0.0
  0
LINE
  5
10D
330
1F
100
AcDbEntity
  8
Graypants_Kerf_P2
 62
    36
420
  8866048
370
    -3
100
AcDbLine
 10
-101.5325665807763
 20
-1257.693665410846
 30
0.0
 11
-101.5325665807762
 21
-1233.666581238664
 31
0.0
  0
LINE
  5
10E
330
1F
100
AcDbEntity
  8
Graypants_Kerf_P2
 62
    36
420
  8866048
370
    -3
100
AcDbLine
 10
-101.5325665807761
 20
-969.3007495822959
 30
0.0
 11
-101.5325665807762
 21
-945.2736654108517
 31
0.0
  0
LINE
  5
10F
330
1F
100
AcDbEntity
  8
Graypants_Kerf_P2
 62
    36
420
  8866048
370
    -3
100
AcDbLine
 10
-3.174237858887409
 20
-945.2736654108518
 30
0.0
 11
-3.174999999999955
 21
-310.7761448537394
 31
0.0
  0
LINE
  5
110
330
1F
100
AcDbEntity
  8
Graypants_Kerf_P2
 62
    36
420
  8866048
370
    -3
100
AcDbLine
 10
-0.9692645427688831
 20
-1194.932422727137
 30
0.0
 11
-0.9692645427687694
 21
-1248.168665410846
 31
0.0
  0
LINE
  5
111
330
1F
100
AcDbEntity
  8
Graypants_Kerf_P2
 62
    36
420
  8866048
370
    -3
100
AcDbLine
 10
-0.9692645427688831
 20
-1062.933644848907
 30
0.0
 11
-0.9692645427688831
 21
-1190.817633432114
 31
0.0
  0
LINE
  5
112
330
1F
100
AcDbEntity
  8
Graypants_Kerf_P2
 62
    36
420
  8866048
370
    -3
100
AcDbLine
 10
-77.10242203123414
 20
-1012.159106897083
 30
0.0
 11
-76.67920229158165
 21
-1079.214877185993
 31
0.0
  0
LINE
  5
113
330
1F
100
AcDbEntity
  8
Graypants_Kerf_P2
 62
    36
420
  8866048
370
    -3
100
AcDbLine
 10
-77.12834772428664
 20
-1194.932160100235
 30
0.0
 11
-77.52143815235263
 21
-1257.693665410846
 31
0.0
  0
LINE
  5
114
330
1F
100
AcDbEntity
  8
Graypants_Kerf_P2
 62
    36
420
  8866048
370
    -3
100
AcDbLine
 10
-85.60565352480296
 20
-1012.158854193264
 30
0.0
 11
-85.58401628703416
 21
-1008.044306897083
 31
0.0
  0
LINE
  5
115
330
1F
100
AcDbEntity
  8
Graypants_Kerf_P2
 62
    36
420
  8866048
370
    -3
100
AcDbLine
 10
100.2975364501222
 20
-945.2736654108826
 30
0.0
 11
92.87007640107458
 21
-945.2736654108688
 31
0.0
  0
LINE
  5
116
330
1F
100
AcDbEntity
  8
Graypants_Kerf_P2
 62
    36
420
  8866048
370
    -3
100
AcDbLine
 10
27.16706077622416
 20
-945.2736654108515
 30
0.0
 11
1.10842864102392
 21
-945.2736654108515
 31
0.0
  0
LINE
  5
117
330
1F
100
AcDbEntity
  8
Graypants_Kerf_P2
 62
    36
420
  8866048
370
    -3
100
AcDbLine
 10
1.10842864102392
 20
-945.2736654108515
 30
0.0
 11
1.108428641023693
 21
-1257.693665410846
 31
0.0
  0
LINE
  5
118
330
1F
100
AcDbEntity
  8
Graypants_Kerf_P2
 62
    36
420
  8866048
370
    -3
100
AcDbLine
 10
92.87007640107458
 20
-1257.693665410846
 30
0.0
 11
100.2975364501219
 21
-1257.693665410815
 31
0.0
  0
LINE
  5
119
330
1F
100
AcDbEntity
  8
Graypants_Kerf_P2
 62
    36
420
  8866048
370
    -3
100
AcDbLine
 10
100.6742069849638
 20
-1257.693665410846
 30
0.0
 11
101.5342448509838
 21
-1257.693665410846
 31
0.0
  0
LINE
  5
11A
330
1F
100
AcDbEntity
  8
Graypants_Kerf_P2
 62
    36
420
  8866048
370
    -3
100
AcDbLine
 10
100.3061045356767
 20
-945.2736654108519
 30
0.0
 11
100.5021811721142
 21
-1081.803132557047
 31
0.0
  0
LINE
  5
11B
330
1F
100
AcDbEntity
  8
Graypants_Kerf_P2
 62
    36
420
  8866048
370
    -3
100
AcDbLine
 10
100.674206984964
 20
-945.2736654108518
 30
0.0
 11
100.4943567559724
 21
-1081.803132557531
 31
0.0
  0
LINE
  5
11C
330
1F
100
AcDbEntity
  8
Graypants_Kerf_P2
 62
    36
420
  8866048
370
    -3
100
AcDbLine
 10
100.674206984964
 20
-945.2736654108518
 30
0.0
 11
100.2975364501222
 21
-945.2736654108518
 31
0.0
  0
LINE
  5
11D
330
1F
100
AcDbEntity
  8
Graypants_Kerf_P2
 62
    36
420
  8866048
370
    -3
100
AcDbLine
 10
92.87007640107458
 20
-945.2736654108688
 30
0.0
 11
92.32893563403536
 21
-1081.803132557525
 31
0.0
  0
LINE
  5
11E
330
1F
100
AcDbEntity
  8
Graypants_Kerf_P2
 62
    36
420
  8866048
370
    -3
100
AcDbLine
 10
77.52312000436609
 20
-945.2736654108517
 30
0.0
 11
76.66448572745071
 21
-1081.803132557531
 31
0.0
  0
LINE
  5
11F
330
1F
100
AcDbEntity
  8
Graypants_Kerf_P2
 62
    36
420
  8866048
370
    -3
100
AcDbLine
 10
55.87861519515968
 20
-945.2736654110424
 30
0.0
 11
54.77228911469183
 21
-1081.803132557465
 31
0.0
  0
LINE
  5
120
330
1F
100
AcDbEntity
  8
Graypants_Kerf_P2
 62
    36
420
  8866048
370
    -3
100
AcDbLine
 10
54.77228911469183
 20
-1081.803132557465
 30
0.0
 11
53.65675581633081
 21
-945.2736654109118
 31
0.0
  0
LINE
  5
121
330
1F
100
AcDbEntity
  8
Graypants_Kerf_P2
 62
    36
420
  8866048
370
    -3
100
AcDbLine
 10
29.69979157922353
 20
-945.2736654108517
 30
0.0
 11
28.4358424711686
 21
-1081.803132556674
 31
0.0
  0
LINE
  5
122
330
1F
100
AcDbEntity
  8
Graypants_Kerf_P2
 62
    36
420
  8866048
370
    -3
100
AcDbLine
 10
28.4358424711686
 20
-1081.803132556674
 30
0.0
 11
27.16706077622416
 21
-945.2736654108515
 31
0.0
  0
LINE
  5
123
330
1F
100
AcDbEntity
  8
Graypants_Kerf_P2
 62
    36
420
  8866048
370
    -3
100
AcDbLine
 10
27.16706077622416
 20
-1257.693665410846
 30
0.0
 11
28.43584247116883
 21
-1121.164198265023
 31
0.0
  0
LINE
  5
124
330
1F
100
AcDbEntity
  8
Graypants_Kerf_P2
 62
    36
420
  8866048
370
    -3
100
AcDbLine
 10
53.65675581633036
 20
-1257.693665410785
 30
0.0
 11
54.77228911469183
 21
-1121.164198264232
 31
0.0
  0
LINE
  5
125
330
1F
100
AcDbEntity
  8
Graypants_Kerf_P2
 62
    36
420
  8866048
370
    -3
100
AcDbLine
 10
76.66448572745071
 20
-1121.164198264166
 30
0.0
 11
77.52312000436564
 21
-1257.693665410846
 31
0.0
  0
LINE
  5
126
330
1F
100
AcDbEntity
  8
Graypants_Kerf_P2
 62
    36
420
  8866048
370
    -3
100
AcDbLine
 10
92.32893563403536
 20
-1121.164198264166
 30
0.0
 11
92.87007640107458
 21
-1257.693665410846
 31
0.0
  0
LINE
  5
127
330
1F
100
AcDbEntity
  8
Graypants_Kerf_P2
 62
    36
420
  8866048
370
    -3
100
AcDbLine
 10
100.4943567559724
 20
-1121.164198264166
 30
0.0
 11
100.6742069849638
 21
-1257.693665410846
 31
0.0
  0
LINE
  5
128
330
1F
100
AcDbEntity
  8
Graypants_Kerf_P2
 62
    36
420
  8866048
370
    -3
100
AcDbLine
 10
92.3496975879566
 20
-1121.164198264943
 30
0.0
 11
91.7934676189202
 21
-1257.693665410846
 31
0.0
  0
LINE
  5
129
330
1F
100
AcDbEntity
  8
Graypants_Kerf_P2
 62
    36
420
  8866048
370
    -3
100
AcDbLine
 10
75.82574335502818
 20
-945.273665410859
 30
0.0
 11
76.69728654079609
 21
-1081.803132557531
 31
0.0
  0
LINE
  5
12A
330
1F
100
AcDbEntity
  8
Graypants_Kerf_P2
 62
    36
420
  8866048
370
    -3
100
AcDbLine
 10
85.39537907588465
 20
-1236.421165410761
 30
0.0
 11
84.67432338296794
 21
-1101.483665410803
 31
0.0
  0
LINE
  5
12B
330
1F
100
AcDbEntity
  8
Graypants_Kerf_P2
 62
    36
420
  8866048
370
    -3
100
AcDbLine
 10
97.4049590642453
 20
-1236.42116541057
 30
0.0
 11
97.76899159547975
 21
-1101.483665410849
 31
0.0
  0
LINE
  5
12C
330
1F
100
AcDbEntity
  8
Graypants_Kerf_P2
 62
    36
420
  8866048
370
    -3
100
AcDbLine
 10
97.76899159547975
 20
-1101.483665410849
 30
0.0
 11
97.40495906424508
 21
-966.546165411127
 31
0.0
  0
POLYLINE
  5
12D
330
1F
100
AcDbEntity
  8
Graypants_Kerf_P2
 62
    36
420
  8866048
370
    -3
100
AcDb2dPolyline
 66
     1
 10
0.0
 20
0.0
 30
0.0
  0
VERTEX
  5
12E
330
12D
100
AcDbEntity
  8
Graypants_Kerf_P2
 62
    36
420
  8866048
370
    -3
100
AcDbVertex
100
AcDb2dVertex
 10
85.3667189662508
 20
-966.5461654108839
 30
0.0
  0
VERTEX
  5
12F
330
12D
100
AcDbEntity
  8
Graypants_Kerf_P2
 62
    36
420
  8866048
370
    -3
100
AcDbVertex
100
AcDb2dVertex
 10
84.64524253735277
 20
-1101.483665392178
 30
0.0
  0
VERTEX
  5
130
330
12D
100
AcDbEntity
  8
Graypants_Kerf_P2
 62
    36
420
  8866048
370
    -3
100
AcDbVertex
100
AcDb2dVertex
 10
84.64525215295521
 20
-1101.485724384831
 30
0.0
  0
VERTEX
  5
131
330
12D
100
AcDbEntity
  8
Graypants_Kerf_P2
 62
    36
420
  8866048
370
    -3
100
AcDbVertex
100
AcDb2dVertex
 10
84.6452629539784
 20
-1101.487783372675
 30
0.0
  0
VERTEX
  5
132
330
12D
100
AcDbEntity
  8
Graypants_Kerf_P2
 62
    36
420
  8866048
370
    -3
100
AcDbVertex
100
AcDb2dVertex
 10
84.64528505758403
 20
-1101.491901340654
 30
0.0
  0
VERTEX
  5
133
330
12D
100
AcDbEntity
  8
Graypants_Kerf_P2
 62
    36
420
  8866048
370
    -3
100
AcDbVertex
100
AcDb2dVertex
 10
84.64532948920169
 20
-1101.500137272818
 30
0.0
  0
VERTEX
  5
134
330
12D
100
AcDbEntity
  8
Graypants_Kerf_P2
 62
    36
420
  8866048
370
    -3
100
AcDbVertex
100
AcDb2dVertex
 10
84.64541843127031
 20
-1101.516609135687
 30
0.0
  0
VERTEX
  5
135
330
12D
100
AcDbEntity
  8
Graypants_Kerf_P2
 62
    36
420
  8866048
370
    -3
100
AcDbVertex
100
AcDb2dVertex
 10
84.64559632389494
 20
-1101.549552861376
 30
0.0
  0
VERTEX
  5
136
330
12D
100
AcDbEntity
  8
Graypants_Kerf_P2
 62
    36
420
  8866048
370
    -3
100
AcDbVertex
100
AcDb2dVertex
 10
84.645952114944
 20
-1101.615440312605
 30
0.0
  0
VERTEX
  5
137
330
12D
100
AcDbEntity
  8
Graypants_Kerf_P2
 62
    36
420
  8866048
370
    -3
100
AcDbVertex
100
AcDb2dVertex
 10
85.3667189662508
 20
-1236.421165410813
 30
0.0
  0
SEQEND
  5
138
330
12D
100
AcDbEntity
  8
Graypants_Kerf_P2
 62
    36
420
  8866048
370
    -3
  0
LINE
  5
139
330
1F
100
AcDbEntity
  8
Graypants_Kerf_P2
 62
    36
420
  8866048
370
    -3
100
AcDbLine
 10
85.3667189662508
 20
-1236.421165410813
 30
0.0
 11
86.07374537476062
 21
-1101.483665410849
 31
0.0
  0
LINE
  5
13A
330
1F
100
AcDbEntity
  8
Graypants_Kerf_P2
 62
    36
420
  8866048
370
    -3
100
AcDbLine
 10
86.07374537476062
 20
-1101.483665410849
 30
0.0
 11
85.3667189662508
 21
-966.5461654108839
 31
0.0
  0
POLYLINE
  5
13B
330
1F
100
AcDbEntity
  8
Graypants_Kerf_P2
 62
    36
420
  8866048
370
    -3
100
AcDb2dPolyline
 66
     1
 10
0.0
 20
0.0
 30
0.0
  0
VERTEX
  5
13C
330
13B
100
AcDbEntity
  8
Graypants_Kerf_P2
 62
    36
420
  8866048
370
    -3
100
AcDbVertex
100
AcDb2dVertex
 10
66.39570214400374
 20
-966.5461654108585
 30
0.0
  0
VERTEX
  5
13D
330
13B
100
AcDbEntity
  8
Graypants_Kerf_P2
 62
    36
420
  8866048
370
    -3
100
AcDbVertex
100
AcDb2dVertex
 10
65.39131542406713
 20
-1101.483665392714
 30
0.0
  0
VERTEX
  5
13E
330
13B
100
AcDbEntity
  8
Graypants_Kerf_P2
 62
    36
420
  8866048
370
    -3
100
AcDbVertex
100
AcDb2dVertex
 10
65.3913287507869
 20
-1101.485724385839
 30
0.0
  0
VERTEX
  5
13F
330
13B
100
AcDbEntity
  8
Graypants_Kerf_P2
 62
    36
420
  8866048
370
    -3
100
AcDbVertex
100
AcDb2dVertex
 10
65.39134372042699
 20
-1101.487783373579
 30
0.0
  0
VERTEX
  5
140
330
13B
100
AcDbEntity
  8
Graypants_Kerf_P2
 62
    36
420
  8866048
370
    -3
100
AcDbVertex
100
AcDb2dVertex
 10
65.39137435485092
 20
-1101.491901341451
 30
0.0
  0
VERTEX
  5
141
330
13B
100
AcDbEntity
  8
Graypants_Kerf_P2
 62
    36
420
  8866048
370
    -3
100
AcDbVertex
100
AcDb2dVertex
 10
65.39143593474265
 20
-1101.500137273588
 30
0.0
  0
VERTEX
  5
142
330
13B
100
AcDbEntity
  8
Graypants_Kerf_P2
 62
    36
420
  8866048
370
    -3
100
AcDbVertex
100
AcDb2dVertex
 10
65.39155920388566
 20
-1101.516609136434
 30
0.0
  0
VERTEX
  5
143
330
13B
100
AcDbEntity
  8
Graypants_Kerf_P2
 62
    36
420
  8866048
370
    -3
100
AcDbVertex
100
AcDb2dVertex
 10
65.39180575433458
 20
-1101.549552862171
 30
0.0
  0
VERTEX
  5
144
330
13B
100
AcDbEntity
  8
Graypants_Kerf_P2
 62
    36
420
  8866048
370
    -3
100
AcDbVertex
100
AcDb2dVertex
 10
65.39229886486767
 20
-1101.615440313368
 30
0.0
  0
VERTEX
  5
145
330
13B
100
AcDbEntity
  8
Graypants_Kerf_P2
 62
    36
420
  8866048
370
    -3
100
AcDbVertex
100
AcDb2dVertex
 10
66.39570214400328
 20
-1236.421165410839
 30
0.0
  0
SEQEND
  5
146
330
13B
100
AcDbEntity
  8
Graypants_Kerf_P2
 62
    36
420
  8866048
370
    -3
  0
LINE
  5
147
330
1F
100
AcDbEntity
  8
Graypants_Kerf_P2
 62
    36
420
  8866048
370
    -3
100
AcDbLine
 10
66.39570214400328
 20
-1236.421165410839
 30
0.0
 11
67.38894194505838
 21
-1101.483665410849
 31
0.0
  0
LINE
  5
148
330
1F
100
AcDbEntity
  8
Graypants_Kerf_P2
 62
    36
420
  8866048
370
    -3
100
AcDbLine
 10
67.38894194505838
 20
-1101.483665410849
 30
0.0
 11
66.39570214400374
 21
-966.5461654108585
 31
0.0
  0
POLYLINE
  5
149
330
1F
100
AcDbEntity
  8
Graypants_Kerf_P2
 62
    36
420
  8866048
370
    -3
100
AcDb2dPolyline
 66
     1
 10
0.0
 20
0.0
 30
0.0
  0
VERTEX
  5
14A
330
149
100
AcDbEntity
  8
Graypants_Kerf_P2
 62
    36
420
  8866048
370
    -3
100
AcDbVertex
100
AcDb2dVertex
 10
42.03307621019735
 20
-966.5461654118889
 30
0.0
  0
VERTEX
  5
14B
330
149
100
AcDbEntity
  8
Graypants_Kerf_P2
 62
    36
420
  8866048
370
    -3
100
AcDbVertex
100
AcDb2dVertex
 10
40.82821725072548
 20
-1101.483665385887
 30
0.0
  0
VERTEX
  5
14C
330
149
100
AcDbEntity
  8
Graypants_Kerf_P2
 62
    36
420
  8866048
370
    -3
100
AcDbVertex
100
AcDb2dVertex
 10
40.82823319680654
 20
-1101.485724371908
 30
0.0
  0
VERTEX
  5
14D
330
149
100
AcDbEntity
  8
Graypants_Kerf_P2
 62
    36
420
  8866048
370
    -3
100
AcDbVertex
100
AcDb2dVertex
 10
40.828251108941
 20
-1101.487783361084
 30
0.0
  0
VERTEX
  5
14E
330
149
100
AcDbEntity
  8
Graypants_Kerf_P2
 62
    36
420
  8866048
370
    -3
100
AcDbVertex
100
AcDb2dVertex
 10
40.82828776495004
 20
-1101.491901330466
 30
0.0
  0
VERTEX
  5
14F
330
149
100
AcDbEntity
  8
Graypants_Kerf_P2
 62
    36
420
  8866048
370
    -3
100
AcDbVertex
100
AcDb2dVertex
 10
40.82836144911342
 20
-1101.500137262872
 30
0.0
  0
VERTEX
  5
150
330
149
100
AcDbEntity
  8
Graypants_Kerf_P2
 62
    36
420
  8866048
370
    -3
100
AcDbVertex
100
AcDb2dVertex
 10
40.82850894835337
 20
-1101.516609125882
 30
0.0
  0
VERTEX
  5
151
330
149
100
AcDbEntity
  8
Graypants_Kerf_P2
 62
    36
420
  8866048
370
    -3
100
AcDbVertex
100
AcDb2dVertex
 10
40.82880396165433
 20
-1101.549552851621
 30
0.0
  0
VERTEX
  5
152
330
149
100
AcDbEntity
  8
Graypants_Kerf_P2
 62
    36
420
  8866048
370
    -3
100
AcDbVertex
100
AcDb2dVertex
 10
40.82939400087314
 20
-1101.615440302843
 30
0.0
  0
VERTEX
  5
153
330
149
100
AcDbEntity
  8
Graypants_Kerf_P2
 62
    36
420
  8866048
370
    -3
100
AcDbVertex
100
AcDb2dVertex
 10
42.03307621019735
 20
-1236.421165409808
 30
0.0
  0
SEQEND
  5
154
330
149
100
AcDbEntity
  8
Graypants_Kerf_P2
 62
    36
420
  8866048
370
    -3
  0
POLYLINE
  5
155
330
1F
100
AcDbEntity
  8
Graypants_Kerf_P2
 62
    36
420
  8866048
370
    -3
100
AcDb2dPolyline
 66
     1
 10
0.0
 20
0.0
 30
0.0
  0
VERTEX
  5
156
330
155
100
AcDbEntity
  8
Graypants_Kerf_P2
 62
    36
420
  8866048
370
    -3
100
AcDbVertex
100
AcDb2dVertex
 10
14.25803451418687
 20
-966.5461654108487
 30
0.0
  0
VERTEX
  5
157
330
155
100
AcDbEntity
  8
Graypants_Kerf_P2
 62
    36
420
  8866048
370
    -3
100
AcDbVertex
100
AcDb2dVertex
 10
12.95061472442821
 20
-1101.483665393328
 30
0.0
  0
VERTEX
  5
158
330
155
100
AcDbEntity
  8
Graypants_Kerf_P2
 62
    36
420
  8866048
370
    -3
100
AcDbVertex
100
AcDb2dVertex
 10
12.95063199196659
 20
-1101.485724387194
 30
0.0
  0
VERTEX
  5
159
330
155
100
AcDbEntity
  8
Graypants_Kerf_P2
 62
    36
420
  8866048
370
    -3
100
AcDbVertex
100
AcDb2dVertex
 10
12.95065138822838
 20
-1101.487783374795
 30
0.0
  0
VERTEX
  5
15A
330
155
100
AcDbEntity
  8
Graypants_Kerf_P2
 62
    36
420
  8866048
370
    -3
100
AcDbVertex
100
AcDb2dVertex
 10
12.95069108146777
 20
-1101.491901342519
 30
0.0
  0
VERTEX
  5
15B
330
155
100
AcDbEntity
  8
Graypants_Kerf_P2
 62
    36
420
  8866048
370
    -3
100
AcDbVertex
100
AcDb2dVertex
 10
12.95077087100655
 20
-1101.500137274611
 30
0.0
  0
VERTEX
  5
15C
330
155
100
AcDbEntity
  8
Graypants_Kerf_P2
 62
    36
420
  8866048
370
    -3
100
AcDbVertex
100
AcDb2dVertex
 10
12.95093059191898
 20
-1101.516609137517
 30
0.0
  0
VERTEX
  5
15D
330
155
100
AcDbEntity
  8
Graypants_Kerf_P2
 62
    36
420
  8866048
370
    -3
100
AcDbVertex
100
AcDb2dVertex
 10
12.95125005004009
 20
-1101.549552863186
 30
0.0
  0
VERTEX
  5
15E
330
155
100
AcDbEntity
  8
Graypants_Kerf_P2
 62
    36
420
  8866048
370
    -3
100
AcDbVertex
100
AcDb2dVertex
 10
12.95188898092223
 20
-1101.615440314388
 30
0.0
  0
VERTEX
  5
15F
330
155
100
AcDbEntity
  8
Graypants_Kerf_P2
 62
    36
420
  8866048
370
    -3
100
AcDbVertex
100
AcDb2dVertex
 10
12.9531668465094
 20
-1101.747215216737
 30
0.0
  0
VERTEX
  5
160
330
155
100
AcDbEntity
  8
Graypants_Kerf_P2
 62
    36
420
  8866048
370
    -3
100
AcDbVertex
100
AcDb2dVertex
 10
14.25803451418665
 20
-1236.421165410849
 30
0.0
  0
SEQEND
  5
161
330
155
100
AcDbEntity
  8
Graypants_Kerf_P2
 62
    36
420
  8866048
370
    -3
  0
LINE
  5
162
330
1F
100
AcDbEntity
  8
Graypants_Kerf_P2
 62
    36
420
  8866048
370
    -3
100
AcDbLine
 10
13.30643711900109
 20
-1138.185054176394
 30
0.0
 11
13.61680799658006
 21
-1101.483665410849
 31
0.0
  0
LINE
  5
163
330
1F
100
AcDbEntity
  8
Graypants_Kerf_P2
 62
    36
420
  8866048
370
    -3
100
AcDbLine
 10
14.25803451418665
 20
-1236.421165410849
 30
0.0
 11
15.56309897260189
 21
-1101.483665409912
 31
0.0
  0
LINE
  5
164
330
1F
100
AcDbEntity
  8
Graypants_Kerf_P2
 62
    36
420
  8866048
370
    -3
100
AcDbLine
 10
13.61680799658006
 20
-1101.483665410849
 30
0.0
 11
13.30643701276381
 21
-1064.782264086113
 31
0.0
  0
LINE
  5
165
330
1F
100
AcDbEntity
  8
Graypants_Kerf_P2
 62
    36
420
  8866048
370
    -3
100
AcDbLine
 10
75.79289579805891
 20
-1257.693665410846
 30
0.0
 11
77.52312000436564
 21
-1257.693665410846
 31
0.0
  0
LINE
  5
166
330
1F
100
AcDbEntity
  8
Graypants_Kerf_P2
 62
    36
420
  8866048
370
    -3
100
AcDbLine
 10
91.77244410965795
 20
-1257.693665410846
 30
0.0
 11
92.87007640107458
 21
-1257.693665410846
 31
0.0
  0
LINE
  5
167
330
1F
100
AcDbEntity
  8
Graypants_Kerf_P2
 62
    36
420
  8866048
370
    -3
100
AcDbLine
 10
100.2975364501219
 20
-1257.693665410846
 30
0.0
 11
100.6742069849638
 21
-1257.693665410846
 31
0.0
  0
LINE
  5
168
330
1F
100
AcDbEntity
  8
Graypants_Kerf_P2
 62
    36
420
  8866048
370
    -3
100
AcDbLine
 10
27.21518567178305
 20
-1252.524335855866
 30
0.0
 11
28.77108306575701
 21
-1257.693665410846
 31
0.0
  0
LINE
  5
169
330
1F
100
AcDbEntity
  8
Graypants_Kerf_P2
 62
    36
420
  8866048
370
    -3
100
AcDbLine
 10
53.66363120267511
 20
-1256.855586045646
 30
0.0
 11
54.13134020454368
 21
-1257.69366541076
 31
0.0
  0
LINE
  5
16A
330
1F
100
AcDbEntity
  8
Graypants_Kerf_P2
 62
    36
420
  8866048
370
    -3
100
AcDbLine
 10
0.9709463947821177
 20
-954.7986654108516
 30
0.0
 11
0.9709463947818904
 21
-1248.168665410846
 31
0.0
  0
LINE
  5
16B
330
1F
100
AcDbEntity
  8
Graypants_Kerf_P2
 62
    36
420
  8866048
370
    -3
100
AcDbLine
 10
91.77244410965864
 20
-945.2736654108653
 30
0.0
 11
92.87007640107458
 21
-945.2736654108688
 31
0.0
  0
LINE
  5
16C
330
1F
100
AcDbEntity
  8
Graypants_Kerf_P2
 62
    36
420
  8866048
370
    -3
100
AcDbLine
 10
75.79289579805913
 20
-945.2736654108517
 30
0.0
 11
77.52312000436609
 21
-945.2736654108517
 31
0.0
  0
LINE
  5
16D
330
1F
100
AcDbEntity
  8
Graypants_Kerf_P2
 62
    36
420
  8866048
370
    -3
100
AcDbLine
 10
54.13134020467101
 20
-945.2736654109375
 30
0.0
 11
53.66363120505309
 21
-946.1117450658783
 31
0.0
  0
LINE
  5
16E
330
1F
100
AcDbEntity
  8
Graypants_Kerf_P2
 62
    36
420
  8866048
370
    -3
100
AcDbLine
 10
28.77108306576361
 20
-945.2736654108515
 30
0.0
 11
27.2151857338032
 21
-950.4430016281874
 31
0.0
  0
LINE
  5
16F
330
1F
100
AcDbEntity
  8
Graypants_Kerf_P2
 62
    36
420
  8866048
370
    -3
100
AcDbLine
 10
101.5342448509838
 20
-945.2736654108519
 30
0.0
 11
100.674206984964
 21
-945.2736654108518
 31
0.0
  0
LINE
  5
170
330
1F
100
AcDbEntity
  8
Graypants_Kerf_P2
 62
    36
420
  8866048
370
    -3
100
AcDbLine
 10
-1.018273802495173
 20
-1190.817633432114
 30
0.0
 11
0.9711033626452943
 21
-1190.817633432114
 31
0.0
  0
LINE
  5
171
330
1F
100
AcDbEntity
  8
Graypants_Kerf_P2
 62
    36
420
  8866048
370
    -3
100
AcDbLine
 10
-1.017893732292805
 20
-1194.932433432114
 30
0.0
 11
0.9711483164855961
 21
-1194.932433432114
 31
0.0
  0
LINE
  5
172
330
1F
100
AcDbEntity
  8
Graypants_Kerf_P2
 62
    36
420
  8866048
370
    -3
100
AcDbLine
 10
-55.5625
 20
-310.7761448537394
 30
0.0
 11
55.56250000000023
 21
-310.7761448537394
 31
0.0
  0
LINE
  5
173
330
1F
100
AcDbEntity
  8
Graypants_Kerf_P2
 62
    36
420
  8866048
370
    -3
100
AcDbLine
 10
-1.018137255206738
 20
-1008.044306897083
 30
0.0
 11
0.9709463947821175
 21
-1008.044306897083
 31
0.0
  0
LINE
  5
174
330
1F
100
AcDbEntity
  8
Graypants_Kerf_P2
 62
    36
420
  8866048
370
    -3
100
AcDbLine
 10
-1.018092301368369
 20
-1012.159106897083
 30
0.0
 11
0.9709497473995723
 21
-1012.159106897083
 31
0.0
  0
LINE
  5
175
330
1F
100
AcDbEntity
  8
Graypants_Kerf_P2
 62
    36
420
  8866048
370
    -3
100
AcDbLine
 10
-100.3044226836636
 20
-1257.693665410846
 30
0.0
 11
-92.88867138647208
 21
-1257.693665410846
 31
0.0
  0
LINE
  5
176
330
1F
100
AcDbEntity
  8
Graypants_Kerf_P2
 62
    36
420
  8866048
370
    -3
100
AcDbLine
 10
-1.163996247726004
 20
-1257.693665410846
 30
0.0
 11
-1.163996247725663
 21
-945.2736654108518
 31
0.0
  0
LINE
  5
177
330
1F
100
AcDbEntity
  8
Graypants_Kerf_P2
 62
    36
420
  8866048
370
    -3
100
AcDbLine
 10
-1.163996247725663
 20
-945.2736654108518
 30
0.0
 11
-27.21733977896679
 21
-945.2736654108519
 31
0.0
  0
LINE
  5
178
330
1F
100
AcDbEntity
  8
Graypants_Kerf_P2
 62
    36
420
  8866048
370
    -3
100
AcDbLine
 10
-92.88867138647208
 20
-945.2736654108517
 30
0.0
 11
-100.3044226836637
 21
-945.2736654108519
 31
0.0
  0
LINE
  5
179
330
1F
100
AcDbEntity
  8
Graypants_Kerf_P2
 62
    36
420
  8866048
370
    -3
100
AcDbLine
 10
-100.3044226836637
 20
-945.2736654108519
 30
0.0
 11
-100.500499320101
 21
-1081.803132557047
 31
0.0
  0
LINE
  5
17A
330
1F
100
AcDbEntity
  8
Graypants_Kerf_P2
 62
    36
420
  8866048
370
    -3
100
AcDbLine
 10
-100.500499320101
 20
-1121.16419826465
 30
0.0
 11
-100.3044226836636
 21
-1257.693665410846
 31
0.0
  0
LINE
  5
17B
330
1F
100
AcDbEntity
  8
Graypants_Kerf_P2
 62
    36
420
  8866048
370
    -3
100
AcDbLine
 10
-92.88867138647208
 20
-1257.693665410846
 30
0.0
 11
-91.79153117589226
 21
-1257.693665410846
 31
0.0
  0
LINE
  5
17C
330
1F
100
AcDbEntity
  8
Graypants_Kerf_P2
 62
    36
420
  8866048
370
    -3
100
AcDbLine
 10
-92.34801573594359
 20
-1121.164198264943
 30
0.0
 11
-91.79178576690697
 21
-1257.693665410846
 31
0.0
  0
LINE
  5
17D
330
1F
100
AcDbEntity
  8
Graypants_Kerf_P2
 62
    36
420
  8866048
370
    -3
100
AcDbLine
 10
-77.55420031290055
 20
-1257.693665410542
 30
0.0
 11
-76.69560468878308
 21
-1121.164198264166
 31
0.0
  0
LINE
  5
17E
330
1F
100
AcDbEntity
  8
Graypants_Kerf_P2
 62
    36
420
  8866048
370
    -3
100
AcDbLine
 10
-76.69560468878308
 20
-1121.164198264166
 30
0.0
 11
-75.82406150301472
 21
-1257.693665410846
 31
0.0
  0
LINE
  5
17F
330
1F
100
AcDbEntity
  8
Graypants_Kerf_P2
 62
    36
420
  8866048
370
    -3
100
AcDbLine
 10
-55.92145341759988
 20
-1257.693665410846
 30
0.0
 11
-54.81559122474516
 21
-1121.164198264198
 31
0.0
  0
LINE
  5
180
330
1F
100
AcDbEntity
  8
Graypants_Kerf_P2
 62
    36
420
  8866048
370
    -3
100
AcDbLine
 10
-54.81559122474516
 20
-1121.164198264198
 30
0.0
 11
-53.70048138205561
 21
-1257.693665410798
 31
0.0
  0
LINE
  5
181
330
1F
100
AcDbEntity
  8
Graypants_Kerf_P2
 62
    36
420
  8866048
370
    -3
100
AcDbLine
 10
-29.7488223581056
 20
-1257.693665410846
 30
0.0
 11
-28.48549459074536
 21
-1121.164198264209
 31
0.0
  0
LINE
  5
182
330
1F
100
AcDbEntity
  8
Graypants_Kerf_P2
 62
    36
420
  8866048
370
    -3
100
AcDbLine
 10
-28.48549459074536
 20
-1121.164198264209
 30
0.0
 11
-27.21733977896702
 21
-1257.693665410846
 31
0.0
  0
LINE
  5
183
330
1F
100
AcDbEntity
  8
Graypants_Kerf_P2
 62
    36
420
  8866048
370
    -3
100
AcDbLine
 10
-27.21733977896679
 20
-945.2736654108519
 30
0.0
 11
-28.48549459074502
 21
-1081.803132557489
 31
0.0
  0
LINE
  5
184
330
1F
100
AcDbEntity
  8
Graypants_Kerf_P2
 62
    36
420
  8866048
370
    -3
100
AcDbLine
 10
-28.48549459074502
 20
-1081.803132557489
 30
0.0
 11
-29.7488223581056
 21
-945.2736654108519
 31
0.0
  0
LINE
  5
185
330
1F
100
AcDbEntity
  8
Graypants_Kerf_P2
 62
    36
420
  8866048
370
    -3
100
AcDbLine
 10
-53.70048138205573
 20
-945.2736654108996
 30
0.0
 11
-54.81559122474505
 21
-1081.803132557499
 31
0.0
  0
LINE
  5
186
330
1F
100
AcDbEntity
  8
Graypants_Kerf_P2
 62
    36
420
  8866048
370
    -3
100
AcDbLine
 10
-54.81559122474505
 20
-1081.803132557499
 30
0.0
 11
-55.92145341759931
 21
-945.2736654108519
 31
0.0
  0
LINE
  5
187
330
1F
100
AcDbEntity
  8
Graypants_Kerf_P2
 62
    36
420
  8866048
370
    -3
100
AcDbLine
 10
-75.82406150301495
 20
-945.273665410859
 30
0.0
 11
-76.69560468878308
 21
-1081.803132557531
 31
0.0
  0
LINE
  5
188
330
1F
100
AcDbEntity
  8
Graypants_Kerf_P2
 62
    36
420
  8866048
370
    -3
100
AcDbLine
 10
-76.69560468878308
 20
-1081.803132557531
 30
0.0
 11
-77.55420031290032
 21
-945.273665411155
 31
0.0
  0
LINE
  5
189
330
1F
100
AcDbEntity
  8
Graypants_Kerf_P2
 62
    36
420
  8866048
370
    -3
100
AcDbLine
 10
-77.55420031290032
 20
-945.273665411155
 30
0.0
 11
-75.82433129029539
 21
-945.273665411036
 31
0.0
  0
LINE
  5
18A
330
1F
100
AcDbEntity
  8
Graypants_Kerf_P2
 62
    36
420
  8866048
370
    -3
100
AcDbLine
 10
-91.79178576690697
 20
-945.2736654108518
 30
0.0
 11
-92.34801573594359
 21
-1081.803132556755
 31
0.0
  0
POLYLINE
  5
18B
330
1F
100
AcDbEntity
  8
Graypants_Kerf_P2
 62
    36
420
  8866048
370
    -3
100
AcDb2dPolyline
 66
     1
 10
0.0
 20
0.0
 30
0.0
  0
VERTEX
  5
18C
330
18B
100
AcDbEntity
  8
Graypants_Kerf_P2
 62
    36
420
  8866048
370
    -3
100
AcDbVertex
100
AcDb2dVertex
 10
-13.35635459649109
 20
-1065.164802003339
 30
0.0
  0
VERTEX
  5
18D
330
18B
100
AcDbEntity
  8
Graypants_Kerf_P2
 62
    36
420
  8866048
370
    -3
100
AcDbVertex
100
AcDb2dVertex
 10
-13.66345883357735
 20
-1101.485724393698
 30
0.0
  0
VERTEX
  5
18E
330
18B
100
AcDbEntity
  8
Graypants_Kerf_P2
 62
    36
420
  8866048
370
    -3
100
AcDbVertex
100
AcDb2dVertex
 10
-13.35635459649075
 20
-1137.802528818353
 30
0.0
  0
SEQEND
  5
18F
330
18B
100
AcDbEntity
  8
Graypants_Kerf_P2
 62
    36
420
  8866048
370
    -3
  0
POLYLINE
  5
190
330
1F
100
AcDbEntity
  8
Graypants_Kerf_P2
 62
    36
420
  8866048
370
    -3
100
AcDb2dPolyline
 66
     1
 10
0.0
 20
0.0
 30
0.0
  0
VERTEX
  5
191
330
190
100
AcDbEntity
  8
Graypants_Kerf_P2
 62
    36
420
  8866048
370
    -3
100
AcDbVertex
100
AcDb2dVertex
 10
-14.3117476705246
 20
-966.5461654108489
 30
0.0
  0
VERTEX
  5
192
330
190
100
AcDbEntity
  8
Graypants_Kerf_P2
 62
    36
420
  8866048
370
    -3
100
AcDbVertex
100
AcDb2dVertex
 10
-15.61684706372489
 20
-1101.485724385601
 30
0.0
  0
VERTEX
  5
193
330
190
100
AcDbEntity
  8
Graypants_Kerf_P2
 62
    36
420
  8866048
370
    -3
100
AcDbVertex
100
AcDb2dVertex
 10
-15.61682773730346
 20
-1101.487783373366
 30
0.0
  0
VERTEX
  5
194
330
190
100
AcDbEntity
  8
Graypants_Kerf_P2
 62
    36
420
  8866048
370
    -3
100
AcDbVertex
100
AcDb2dVertex
 10
-15.61678818699064
 20
-1101.491901341263
 30
0.0
  0
VERTEX
  5
195
330
190
100
AcDbEntity
  8
Graypants_Kerf_P2
 62
    36
420
  8866048
370
    -3
100
AcDbVertex
100
AcDb2dVertex
 10
-15.61670868474929
 20
-1101.500137273405
 30
0.0
  0
VERTEX
  5
196
330
190
100
AcDbEntity
  8
Graypants_Kerf_P2
 62
    36
420
  8866048
370
    -3
100
AcDbVertex
100
AcDb2dVertex
 10
-15.61654953889122
 20
-1101.516609136256
 30
0.0
  0
VERTEX
  5
197
330
190
100
AcDbEntity
  8
Graypants_Kerf_P2
 62
    36
420
  8866048
370
    -3
100
AcDbVertex
100
AcDb2dVertex
 10
-15.61623123072044
 20
-1101.549552861973
 30
0.0
  0
VERTEX
  5
198
330
190
100
AcDbEntity
  8
Graypants_Kerf_P2
 62
    36
420
  8866048
370
    -3
100
AcDbVertex
100
AcDb2dVertex
 10
-15.6155945989298
 20
-1101.615440313189
 30
0.0
  0
VERTEX
  5
199
330
190
100
AcDbEntity
  8
Graypants_Kerf_P2
 62
    36
420
  8866048
370
    -3
100
AcDbVertex
100
AcDb2dVertex
 10
-15.61432132808856
 20
-1101.747215215536
 30
0.0
  0
VERTEX
  5
19A
330
190
100
AcDbEntity
  8
Graypants_Kerf_P2
 62
    36
420
  8866048
370
    -3
100
AcDbVertex
100
AcDb2dVertex
 10
-15.61177477815546
 20
-1102.010765020227
 30
0.0
  0
VERTEX
  5
19B
330
190
100
AcDbEntity
  8
Graypants_Kerf_P2
 62
    36
420
  8866048
370
    -3
100
AcDbVertex
100
AcDb2dVertex
 10
-14.31174767052494
 20
-1236.421165410849
 30
0.0
  0
SEQEND
  5
19C
330
190
100
AcDbEntity
  8
Graypants_Kerf_P2
 62
    36
420
  8866048
370
    -3
  0
LINE
  5
19D
330
1F
100
AcDbEntity
  8
Graypants_Kerf_P2
 62
    36
420
  8866048
370
    -3
100
AcDbLine
 10
-14.31174767052494
 20
-1236.421165410849
 30
0.0
 11
-13.00419795372022
 21
-1101.483665410849
 31
0.0
  0
LINE
  5
19E
330
1F
100
AcDbEntity
  8
Graypants_Kerf_P2
 62
    36
420
  8866048
370
    -3
100
AcDbLine
 10
-13.00419795372022
 20
-1101.483665410849
 30
0.0
 11
-14.3117476705246
 21
-966.5461654108489
 31
0.0
  0
POLYLINE
  5
19F
330
1F
100
AcDbEntity
  8
Graypants_Kerf_P2
 62
    36
420
  8866048
370
    -3
100
AcDb2dPolyline
 66
     1
 10
0.0
 20
0.0
 30
0.0
  0
VERTEX
  5
1A0
330
19F
100
AcDbEntity
  8
Graypants_Kerf_P2
 62
    36
420
  8866048
370
    -3
100
AcDbVertex
100
AcDb2dVertex
 10
-42.07678131872876
 20
-966.5461654108632
 30
0.0
  0
VERTEX
  5
1A1
330
19F
100
AcDbEntity
  8
Graypants_Kerf_P2
 62
    36
420
  8866048
370
    -3
100
AcDbVertex
100
AcDb2dVertex
 10
-43.27392712423472
 20
-1101.48572438562
 30
0.0
  0
VERTEX
  5
1A2
330
19F
100
AcDbEntity
  8
Graypants_Kerf_P2
 62
    36
420
  8866048
370
    -3
100
AcDbVertex
100
AcDb2dVertex
 10
-43.27390943520265
 20
-1101.487783373384
 30
0.0
  0
VERTEX
  5
1A3
330
19F
100
AcDbEntity
  8
Graypants_Kerf_P2
 62
    36
420
  8866048
370
    -3
100
AcDbVertex
100
AcDb2dVertex
 10
-43.27387323570118
 20
-1101.491901341302
 30
0.0
  0
VERTEX
  5
1A4
330
19F
100
AcDbEntity
  8
Graypants_Kerf_P2
 62
    36
420
  8866048
370
    -3
100
AcDbVertex
100
AcDb2dVertex
 10
-43.27380046909525
 20
-1101.50013727329
 30
0.0
  0
VERTEX
  5
1A5
330
19F
100
AcDbEntity
  8
Graypants_Kerf_P2
 62
    36
420
  8866048
370
    -3
100
AcDbVertex
100
AcDb2dVertex
 10
-43.27365480642239
 20
-1101.516609136268
 30
0.0
  0
VERTEX
  5
1A6
330
19F
100
AcDbEntity
  8
Graypants_Kerf_P2
 62
    36
420
  8866048
370
    -3
100
AcDbVertex
100
AcDb2dVertex
 10
-43.27336346578037
 20
-1101.54955286197
 30
0.0
  0
VERTEX
  5
1A7
330
19F
100
AcDbEntity
  8
Graypants_Kerf_P2
 62
    36
420
  8866048
370
    -3
100
AcDbVertex
100
AcDb2dVertex
 10
-43.27278076940396
 20
-1101.615440313195
 30
0.0
  0
VERTEX
  5
1A8
330
19F
100
AcDbEntity
  8
Graypants_Kerf_P2
 62
    36
420
  8866048
370
    -3
100
AcDbVertex
100
AcDb2dVertex
 10
-43.27161536619888
 20
-1101.747215215549
 30
0.0
  0
VERTEX
  5
1A9
330
19F
100
AcDbEntity
  8
Graypants_Kerf_P2
 62
    36
420
  8866048
370
    -3
100
AcDbVertex
100
AcDb2dVertex
 10
-42.07678131872888
 20
-1236.421165410834
 30
0.0
  0
SEQEND
  5
1AA
330
19F
100
AcDbEntity
  8
Graypants_Kerf_P2
 62
    36
420
  8866048
370
    -3
  0
LINE
  5
1AB
330
1F
100
AcDbEntity
  8
Graypants_Kerf_P2
 62
    36
420
  8866048
370
    -3
100
AcDbLine
 10
-42.07678131872888
 20
-1236.421165410834
 30
0.0
 11
-40.87237647017105
 21
-1101.483665410849
 31
0.0
  0
LINE
  5
1AC
330
1F
100
AcDbEntity
  8
Graypants_Kerf_P2
 62
    36
420
  8866048
370
    -3
100
AcDbLine
 10
-40.87237647017105
 20
-1101.483665410849
 30
0.0
 11
-42.07678131872876
 21
-966.5461654108632
 31
0.0
  0
POLYLINE
  5
1AD
330
1F
100
AcDbEntity
  8
Graypants_Kerf_P2
 62
    36
420
  8866048
370
    -3
100
AcDb2dPolyline
 66
     1
 10
0.0
 20
0.0
 30
0.0
  0
VERTEX
  5
1AE
330
1AD
100
AcDbEntity
  8
Graypants_Kerf_P2
 62
    36
420
  8866048
370
    -3
100
AcDbVertex
100
AcDb2dVertex
 10
-66.43238615866699
 20
-966.5461654108642
 30
0.0
  0
VERTEX
  5
1AF
330
1AD
100
AcDbEntity
  8
Graypants_Kerf_P2
 62
    36
420
  8866048
370
    -3
100
AcDbVertex
100
AcDb2dVertex
 10
-67.42457204701543
 20
-1101.485724385597
 30
0.0
  0
VERTEX
  5
1B0
330
1AD
100
AcDbEntity
  8
Graypants_Kerf_P2
 62
    36
420
  8866048
370
    -3
100
AcDbVertex
100
AcDb2dVertex
 10
-67.42455742380328
 20
-1101.487783373363
 30
0.0
  0
VERTEX
  5
1B1
330
1AD
100
AcDbEntity
  8
Graypants_Kerf_P2
 62
    36
420
  8866048
370
    -3
100
AcDbVertex
100
AcDb2dVertex
 10
-67.42452749830827
 20
-1101.491901341284
 30
0.0
  0
VERTEX
  5
1B2
330
1AD
100
AcDbEntity
  8
Graypants_Kerf_P2
 62
    36
420
  8866048
370
    -3
100
AcDbVertex
100
AcDb2dVertex
 10
-67.4244673434132
 20
-1101.500137273272
 30
0.0
  0
VERTEX
  5
1B3
330
1AD
100
AcDbEntity
  8
Graypants_Kerf_P2
 62
    36
420
  8866048
370
    -3
100
AcDbVertex
100
AcDb2dVertex
 10
-67.4243469265444
 20
-1101.516609136251
 30
0.0
  0
VERTEX
  5
1B4
330
1AD
100
AcDbEntity
  8
Graypants_Kerf_P2
 62
    36
420
  8866048
370
    -3
100
AcDbVertex
100
AcDb2dVertex
 10
-67.42410607993955
 20
-1101.549552861953
 30
0.0
  0
VERTEX
  5
1B5
330
1AD
100
AcDbEntity
  8
Graypants_Kerf_P2
 62
    36
420
  8866048
370
    -3
100
AcDbVertex
100
AcDb2dVertex
 10
-67.4236243733648
 20
-1101.615440313178
 30
0.0
  0
VERTEX
  5
1B6
330
1AD
100
AcDbEntity
  8
Graypants_Kerf_P2
 62
    36
420
  8866048
370
    -3
100
AcDbVertex
100
AcDb2dVertex
 10
-67.42266094802099
 20
-1101.74721521553
 30
0.0
  0
VERTEX
  5
1B7
330
1AD
100
AcDbEntity
  8
Graypants_Kerf_P2
 62
    36
420
  8866048
370
    -3
100
AcDbVertex
100
AcDb2dVertex
 10
-66.43238615866699
 20
-1236.421165410833
 30
0.0
  0
SEQEND
  5
1B8
330
1AD
100
AcDbEntity
  8
Graypants_Kerf_P2
 62
    36
420
  8866048
370
    -3
  0
LINE
  5
1B9
330
1F
100
AcDbEntity
  8
Graypants_Kerf_P2
 62
    36
420
  8866048
370
    -3
100
AcDbLine
 10
-66.43238615866699
 20
-1236.421165410833
 30
0.0
 11
-65.42893824641806
 21
-1101.483665410849
 31
0.0
  0
LINE
  5
1BA
330
1F
100
AcDbEntity
  8
Graypants_Kerf_P2
 62
    36
420
  8866048
370
    -3
100
AcDbLine
 10
-65.42893824641806
 20
-1101.483665410849
 30
0.0
 11
-66.43238615866699
 21
-966.5461654108642
 31
0.0
  0
POLYLINE
  5
1BB
330
1F
100
AcDbEntity
  8
Graypants_Kerf_P2
 62
    36
420
  8866048
370
    -3
100
AcDb2dPolyline
 66
     1
 10
0.0
 20
0.0
 30
0.0
  0
VERTEX
  5
1BC
330
1BB
100
AcDbEntity
  8
Graypants_Kerf_P2
 62
    36
420
  8866048
370
    -3
100
AcDbVertex
100
AcDb2dVertex
 10
-85.39369722387141
 20
-966.5461654109365
 30
0.0
  0
VERTEX
  5
1BD
330
1BB
100
AcDbEntity
  8
Graypants_Kerf_P2
 62
    36
420
  8866048
370
    -3
100
AcDbVertex
100
AcDb2dVertex
 10
-86.10025034476655
 20
-1101.485724385707
 30
0.0
  0
VERTEX
  5
1BE
330
1BB
100
AcDbEntity
  8
Graypants_Kerf_P2
 62
    36
420
  8866048
370
    -3
100
AcDbVertex
100
AcDb2dVertex
 10
-86.10023997933706
 20
-1101.487783373462
 30
0.0
  0
VERTEX
  5
1BF
330
1BB
100
AcDbEntity
  8
Graypants_Kerf_P2
 62
    36
420
  8866048
370
    -3
100
AcDbVertex
100
AcDb2dVertex
 10
-86.10021876712435
 20
-1101.491901341371
 30
0.0
  0
VERTEX
  5
1C0
330
1BB
100
AcDbEntity
  8
Graypants_Kerf_P2
 62
    36
420
  8866048
370
    -3
100
AcDbVertex
100
AcDb2dVertex
 10
-86.10017612726251
 20
-1101.500137273356
 30
0.0
  0
VERTEX
  5
1C1
330
1BB
100
AcDbEntity
  8
Graypants_Kerf_P2
 62
    36
420
  8866048
370
    -3
100
AcDbVertex
100
AcDb2dVertex
 10
-86.10009077156535
 20
-1101.516609136331
 30
0.0
  0
VERTEX
  5
1C2
330
1BB
100
AcDbEntity
  8
Graypants_Kerf_P2
 62
    36
420
  8866048
370
    -3
100
AcDbVertex
100
AcDb2dVertex
 10
-86.09992005075878
 20
-1101.549552862053
 30
0.0
  0
VERTEX
  5
1C3
330
1BB
100
AcDbEntity
  8
Graypants_Kerf_P2
 62
    36
420
  8866048
370
    -3
100
AcDbVertex
100
AcDb2dVertex
 10
-86.0995785985073
 20
-1101.615440313268
 30
0.0
  0
VERTEX
  5
1C4
330
1BB
100
AcDbEntity
  8
Graypants_Kerf_P2
 62
    36
420
  8866048
370
    -3
100
AcDbVertex
100
AcDb2dVertex
 10
-86.0988956807007
 20
-1101.747215215615
 30
0.0
  0
VERTEX
  5
1C5
330
1BB
100
AcDbEntity
  8
Graypants_Kerf_P2
 62
    36
420
  8866048
370
    -3
100
AcDbVertex
100
AcDb2dVertex
 10
-85.39369722387164
 20
-1236.421165410761
 30
0.0
  0
SEQEND
  5
1C6
330
1BB
100
AcDbEntity
  8
Graypants_Kerf_P2
 62
    36
420
  8866048
370
    -3
  0
LINE
  5
1C7
330
1F
100
AcDbEntity
  8
Graypants_Kerf_P2
 62
    36
420
  8866048
370
    -3
100
AcDbLine
 10
-85.39369722387164
 20
-1236.421165410761
 30
0.0
 11
-84.67264153095493
 21
-1101.483665410803
 31
0.0
  0
LINE
  5
1C8
330
1F
100
AcDbEntity
  8
Graypants_Kerf_P2
 62
    36
420
  8866048
370
    -3
100
AcDbLine
 10
-84.67264153095493
 20
-1101.483665410803
 30
0.0
 11
-85.39369722387141
 21
-966.5461654109365
 31
0.0
  0
LINE
  5
1C9
330
1F
100
AcDbEntity
  8
Graypants_Kerf_P2
 62
    36
420
  8866048
370
    -3
100
AcDbLine
 10
-97.41786861970809
 20
-1236.421165409407
 30
0.0
 11
-97.03794889719074
 21
-1101.483665410849
 31
0.0
  0
LINE
  5
1CA
330
1F
100
AcDbEntity
  8
Graypants_Kerf_P2
 62
    36
420
  8866048
370
    -3
100
AcDbLine
 10
-97.03794889719074
 20
-1101.483665410849
 30
0.0
 11
-97.41786861970786
 21
-966.5461654122907
 31
0.0
  0
LINE
  5
1CB
330
1F
100
AcDbEntity
  8
Graypants_Kerf_P2
 62
    36
420
  8866048
370
    -3
100
AcDbLine
 10
-1.018273802495287
 20
-1248.168665410846
 30
0.0
 11
-1.018273802494491
 21
-954.7986654108518
 31
0.0
  0
LINE
  5
1CC
330
1F
100
AcDbEntity
  8
Graypants_Kerf_P2
 62
    36
420
  8866048
370
    -3
100
AcDbLine
 10
-100.3046504359315
 20
-1257.693665410845
 30
0.0
 11
-100.6795984095595
 21
-1257.693665410846
 31
0.0
  0
LINE
  5
1CD
330
1F
100
AcDbEntity
  8
Graypants_Kerf_P2
 62
    36
420
  8866048
370
    -3
100
AcDbLine
 10
-75.82421624485687
 20
-1257.693665410661
 30
0.0
 11
-77.55420031290055
 21
-1257.693665410542
 31
0.0
  0
LINE
  5
1CE
330
1F
100
AcDbEntity
  8
Graypants_Kerf_P2
 62
    36
420
  8866048
370
    -3
100
AcDbLine
 10
-27.21350381976993
 20
-1252.524335855866
 30
0.0
 11
-28.76940121374389
 21
-1257.693665410846
 31
0.0
  0
LINE
  5
1CF
330
1F
100
AcDbEntity
  8
Graypants_Kerf_P2
 62
    36
420
  8866048
370
    -3
100
AcDbLine
 10
-53.66193214393024
 20
-1256.855555209544
 30
0.0
 11
-54.12965835253067
 21
-1257.69366541076
 31
0.0
  0
LINE
  5
1D0
330
1F
100
AcDbEntity
  8
Graypants_Kerf_P2
 62
    36
420
  8866048
370
    -3
100
AcDbLine
 10
-28.818513910192
 20
-1257.693665410846
 30
0.0
 11
-27.21486859762501
 21
-1252.374296625846
 31
0.0
  0
LINE
  5
1D1
330
1F
100
AcDbEntity
  8
Graypants_Kerf_P2
 62
    36
420
  8866048
370
    -3
100
AcDbLine
 10
-1.127565636425857
 20
-1257.693665410846
 30
0.0
 11
-1.018273802495287
 21
-1248.168665410846
 31
0.0
  0
LINE
  5
1D2
330
1F
100
AcDbEntity
  8
Graypants_Kerf_P2
 62
    36
420
  8866048
370
    -3
100
AcDbLine
 10
-100.3042043179835
 20
-945.2736654108519
 30
0.0
 11
-100.6795984095595
 21
-945.2736654108519
 31
0.0
  0
LINE
  5
1D3
330
1F
100
AcDbEntity
  8
Graypants_Kerf_P2
 62
    36
420
  8866048
370
    -3
100
AcDbLine
 10
-91.79164622106282
 20
-945.2736654108517
 30
0.0
 11
-92.88867138647208
 21
-945.2736654108517
 31
0.0
  0
LINE
  5
1D4
330
1F
100
AcDbEntity
  8
Graypants_Kerf_P2
 62
    36
420
  8866048
370
    -3
100
AcDbLine
 10
-53.66256754308347
 20
-946.1871017481417
 30
0.0
 11
-54.17273803048215
 21
-945.2736654108518
 31
0.0
  0
LINE
  5
1D5
330
1F
100
AcDbEntity
  8
Graypants_Kerf_P2
 62
    36
420
  8866048
370
    -3
100
AcDbLine
 10
-54.129658352658
 20
-945.2736654109375
 30
0.0
 11
-53.66194935303997
 21
-946.1117450658783
 31
0.0
  0
LINE
  5
1D6
330
1F
100
AcDbEntity
  8
Graypants_Kerf_P2
 62
    36
420
  8866048
370
    -3
100
AcDbLine
 10
-28.76940121375048
 20
-945.2736654108515
 30
0.0
 11
-27.21350388179007
 21
-950.4430016281873
 31
0.0
  0
LINE
  5
1D7
330
1F
100
AcDbEntity
  8
Graypants_Kerf_P2
 62
    36
420
  8866048
370
    -3
100
AcDbLine
 10
-1.018273802494491
 20
-954.7986654108518
 30
0.0
 11
-1.127565636422787
 21
-945.2736654108518
 31
0.0
  0
LINE
  5
1D8
330
1F
100
AcDbEntity
  8
Graypants_Kerf_P2
 62
    36
420
  8866048
370
    -3
100
AcDbLine
 10
-27.21489958178552
 20
-950.5929312547715
 30
0.0
 11
-28.81851391018517
 21
-945.2736654108519
 31
0.0
  0
LINE
  5
1D9
330
1F
100
AcDbEntity
  8
Graypants_Kerf_P2
 62
    36
420
  8866048
370
    -3
100
AcDbLine
 10
-100.3044226836637
 20
-15.74169192553472
 30
0.0
 11
-100.5004993201011
 21
-14.43692307012361
 31
0.0
  0
LINE
  5
1DA
330
1F
100
AcDbEntity
  8
Graypants_Kerf_P2
 62
    36
420
  8866048
370
    -3
100
AcDbLine
 10
-100.3044226836637
 20
-15.74169192553472
 30
0.0
 11
-97.16784526912693
 21
-15.24953972776484
 31
0.0
  0
LINE
  5
1DB
330
1F
100
AcDbEntity
  8
Graypants_Kerf_P2
 62
    36
420
  8866048
370
    -3
100
AcDbLine
 10
-87.92951174697146
 20
-12.6314511703265
 30
0.0
 11
-88.07576321039642
 21
-11.56756466179309
 31
0.0
  0
LINE
  5
1DC
330
1F
100
AcDbEntity
  8
Graypants_Kerf_P2
 62
    36
420
  8866048
370
    -3
100
AcDbLine
 10
-100.5004993201011
 20
-14.43692307012361
 30
0.0
 11
-100.6795984095595
 21
-13.12980234062798
 31
0.0
  0
LINE
  5
1DD
330
1F
100
AcDbEntity
  8
Graypants_Kerf_P2
 62
    36
420
  8866048
370
    -3
100
AcDbLine
 10
-100.5004993201011
 20
-14.43692307012361
 30
0.0
 11
-87.92951174697146
 21
-12.6314511703265
 31
0.0
  0
LINE
  5
1DE
330
1F
100
AcDbEntity
  8
Graypants_Kerf_P2
 62
    36
420
  8866048
370
    -3
100
AcDbLine
 10
-87.9227260115805
 20
12.68109300235324
 30
0.0
 11
-100.4926749039594
 21
14.49394277112947
 31
0.0
  0
LINE
  5
1DF
330
1F
100
AcDbEntity
  8
Graypants_Kerf_P2
 62
    36
420
  8866048
370
    -3
100
AcDbLine
 10
-100.6725251329509
 20
13.1868501635015
 30
0.0
 11
-100.4926749039594
 21
14.49394277112947
 31
0.0
  0
LINE
  5
1E0
330
1F
100
AcDbEntity
  8
Graypants_Kerf_P2
 62
    36
420
  8866048
370
    -3
100
AcDbLine
 10
-100.6725251329509
 20
13.1868501635015
 30
0.0
 11
-97.52441612527014
 21
12.7744975510368
 31
0.0
  0
LINE
  5
1E1
330
1F
100
AcDbEntity
  8
Graypants_Kerf_P2
 62
    36
420
  8866048
370
    -3
100
AcDbLine
 10
-87.9227260115805
 20
12.68109300235324
 30
0.0
 11
-87.76300963488927
 21
13.74307248214154
 31
0.0
  0
LINE
  5
1E2
330
1F
100
AcDbEntity
  8
Graypants_Kerf_P2
 62
    36
420
  8866048
370
    -3
100
AcDbLine
 10
-100.4926749039594
 20
14.49394277112947
 30
0.0
 11
-100.295854598109
 21
15.79861737990745
 31
0.0
  0
LINE
  5
1E3
330
1F
100
AcDbEntity
  8
Graypants_Kerf_P2
 62
    36
420
  8866048
370
    -3
100
AcDbLine
 10
-100.295854598109
 20
15.79861737990745
 30
0.0
 11
-97.15951900625316
 21
15.30462298286193
 31
0.0
  0
LINE
  5
1E4
330
1F
100
AcDbEntity
  8
Graypants_Kerf_P2
 62
    36
420
  8866048
370
    -3
100
AcDbLine
 10
-92.86839454906158
 20
41.04110635639927
 30
0.0
 11
-92.32725378202224
 21
42.24441469355611
 31
0.0
  0
LINE
  5
1E5
330
1F
100
AcDbEntity
  8
Graypants_Kerf_P2
 62
    36
420
  8866048
370
    -3
100
AcDbLine
 10
-80.77863845465504
 20
36.96052553045956
 30
0.0
 11
-80.32607215692803
 21
37.93410514561015
 31
0.0
  0
LINE
  5
1E6
330
1F
100
AcDbEntity
  8
Graypants_Kerf_P2
 62
    36
420
  8866048
370
    -3
100
AcDbLine
 10
-92.32725378202224
 20
42.24441469355611
 30
0.0
 11
-91.77076225764552
 21
43.44014207701321
 31
0.0
  0
LINE
  5
1E7
330
1F
100
AcDbEntity
  8
Graypants_Kerf_P2
 62
    36
420
  8866048
370
    -3
100
AcDbLine
 10
-92.32725378202224
 20
42.24441469355611
 30
0.0
 11
-80.77863845465504
 21
36.96052553045956
 31
0.0
  0
LINE
  5
1E8
330
1F
100
AcDbEntity
  8
Graypants_Kerf_P2
 62
    36
420
  8866048
370
    -3
100
AcDbLine
 10
-67.07359294320486
 20
58.24485146424445
 30
0.0
 11
-76.66280387543759
 21
66.57173765883863
 31
0.0
  0
LINE
  5
1E9
330
1F
100
AcDbEntity
  8
Graypants_Kerf_P2
 62
    36
420
  8866048
370
    -3
100
AcDbLine
 10
-77.52143815235308
 20
65.56986109460718
 30
0.0
 11
-76.66280387543759
 21
66.57173765883863
 31
0.0
  0
LINE
  5
1EA
330
1F
100
AcDbEntity
  8
Graypants_Kerf_P2
 62
    36
420
  8866048
370
    -3
100
AcDbLine
 10
-67.07359294320486
 20
58.24485146424445
 30
0.0
 11
-66.36458293201292
 21
59.05144931801146
 31
0.0
  0
LINE
  5
1EB
330
1F
100
AcDbEntity
  8
Graypants_Kerf_P2
 62
    36
420
  8866048
370
    -3
100
AcDbLine
 10
-76.66280387543759
 20
66.57173765883863
 30
0.0
 11
-75.79121394604613
 21
67.56238117374801
 31
0.0
  0
LINE
  5
1EC
330
1F
100
AcDbEntity
  8
Graypants_Kerf_P2
 62
    36
420
  8866048
370
    -3
100
AcDbLine
 10
-75.79121394604613
 20
67.56238117374801
 30
0.0
 11
-73.42116404420904
 21
65.4496848161109
 31
0.0
  0
LINE
  5
1ED
330
1F
100
AcDbEntity
  8
Graypants_Kerf_P2
 62
    36
420
  8866048
370
    -3
100
AcDbLine
 10
-55.87693334314656
 20
84.7750466821808
 30
0.0
 11
-54.77060726267882
 21
85.49397292860249
 31
0.0
  0
LINE
  5
1EE
330
1F
100
AcDbEntity
  8
Graypants_Kerf_P2
 62
    36
420
  8866048
370
    -3
100
AcDbLine
 10
-47.9198610800612
 20
74.80017869576636
 30
0.0
 11
-47.01214596336752
 21
75.37399310622027
 31
0.0
  0
LINE
  5
1EF
330
1F
100
AcDbEntity
  8
Graypants_Kerf_P2
 62
    36
420
  8866048
370
    -3
100
AcDbLine
 10
-54.77060726267882
 20
85.49397292860249
 30
0.0
 11
-53.65507396431769
 21
86.19844317429374
 31
0.0
  0
LINE
  5
1F0
330
1F
100
AcDbEntity
  8
Graypants_Kerf_P2
 62
    36
420
  8866048
370
    -3
100
AcDbLine
 10
-53.65507396431769
 20
86.19844317429374
 30
0.0
 11
-51.97725132474829
 21
83.50297581790278
 31
0.0
  0
LINE
  5
1F1
330
1F
100
AcDbEntity
  8
Graypants_Kerf_P2
 62
    36
420
  8866048
370
    -3
100
AcDbLine
 10
-29.69810972721029
 20
97.0930659924818
 30
0.0
 11
-28.43416061915559
 21
97.47073034307823
 31
0.0
  0
LINE
  5
1F2
330
1F
100
AcDbEntity
  8
Graypants_Kerf_P2
 62
    36
420
  8866048
370
    -3
100
AcDbLine
 10
-29.69810972721029
 20
97.0930659924818
 30
0.0
 11
-28.76940121375048
 21
94.05690458433696
 31
0.0
  0
LINE
  5
1F3
330
1F
100
AcDbEntity
  8
Graypants_Kerf_P2
 62
    36
420
  8866048
370
    -3
100
AcDbLine
 10
-28.43416061915559
 20
97.47073034307823
 30
0.0
 11
-27.16537892421104
 21
97.83196876262696
 31
0.0
  0
LINE
  5
1F4
330
1F
100
AcDbEntity
  8
Graypants_Kerf_P2
 62
    36
420
  8866048
370
    -3
100
AcDbLine
 10
-28.43416061915559
 20
97.47073034307823
 30
0.0
 11
-24.87719787288825
 21
85.27899477840901
 31
0.0
  0
LINE
  5
1F5
330
1F
100
AcDbEntity
  8
Graypants_Kerf_P2
 62
    36
420
  8866048
370
    -3
100
AcDbLine
 10
-27.21733977896679
 20
-97.81622692316546
 30
0.0
 11
-28.48549459074513
 21
-97.4544753239852
 31
0.0
  0
LINE
  5
1F6
330
1F
100
AcDbEntity
  8
Graypants_Kerf_P2
 62
    36
420
  8866048
370
    -3
100
AcDbLine
 10
-27.21733977896679
 20
-97.81622692316546
 30
0.0
 11
-26.36624546230735
 21
-94.75742594254348
 31
0.0
  0
LINE
  5
1F7
330
1F
100
AcDbEntity
  8
Graypants_Kerf_P2
 62
    36
420
  8866048
370
    -3
100
AcDbLine
 10
-24.92239416799407
 20
-85.26454843916986
 30
0.0
 11
-25.95062429179541
 21
-84.95724517601002
 31
0.0
  0
LINE
  5
1F8
330
1F
100
AcDbEntity
  8
Graypants_Kerf_P2
 62
    36
420
  8866048
370
    -3
100
AcDbLine
 10
-28.48549459074513
 20
-97.4544753239852
 30
0.0
 11
-29.7488223581056
 21
-97.07627640106239
 31
0.0
  0
LINE
  5
1F9
330
1F
100
AcDbEntity
  8
Graypants_Kerf_P2
 62
    36
420
  8866048
370
    -3
100
AcDbLine
 10
-28.48549459074513
 20
-97.4544753239852
 30
0.0
 11
-24.92239416799407
 21
-85.26454843916986
 31
0.0
  0
LINE
  5
1FA
330
1F
100
AcDbEntity
  8
Graypants_Kerf_P2
 62
    36
420
  8866048
370
    -3
100
AcDbLine
 10
-53.70048138205573
 20
-86.16859357790622
 30
0.0
 11
-54.81559122474505
 21
-85.46356157307082
 31
0.0
  0
LINE
  5
1FB
330
1F
100
AcDbEntity
  8
Graypants_Kerf_P2
 62
    36
420
  8866048
370
    -3
100
AcDbLine
 10
-47.95909353515378
 20
-74.77345193124825
 30
0.0
 11
-48.85935848780764
 21
-74.18831920026355
 31
0.0
  0
LINE
  5
1FC
330
1F
100
AcDbEntity
  8
Graypants_Kerf_P2
 62
    36
420
  8866048
370
    -3
100
AcDbLine
 10
-54.81559122474505
 20
-85.46356157307082
 30
0.0
 11
-55.92145341759931
 21
-84.74408971742264
 31
0.0
  0
LINE
  5
1FD
330
1F
100
AcDbEntity
  8
Graypants_Kerf_P2
 62
    36
420
  8866048
370
    -3
100
AcDbLine
 10
-54.81559122474505
 20
-85.46356157307082
 30
0.0
 11
-47.95909353515378
 21
-74.77345193124825
 31
0.0
  0
LINE
  5
1FE
330
1F
100
AcDbEntity
  8
Graypants_Kerf_P2
 62
    36
420
  8866048
370
    -3
100
AcDbLine
 10
-75.82406150301506
 20
-67.52381277758855
 30
0.0
 11
-76.69560468878308
 21
-66.53224103062666
 31
0.0
  0
LINE
  5
1FF
330
1F
100
AcDbEntity
  8
Graypants_Kerf_P2
 62
    36
420
  8866048
370
    -3
100
AcDbLine
 10
-67.10235946725436
 20
-58.21000298344393
 30
0.0
 11
-67.8016060648697
 21
-57.39406581051207
 31
0.0
  0
LINE
  5
200
330
1F
100
AcDbEntity
  8
Graypants_Kerf_P2
 62
    36
420
  8866048
370
    -3
100
AcDbLine
 10
-76.69560468878308
 20
-66.53224103062666
 30
0.0
 11
-77.55420031290043
 21
-65.52942170320853
 31
0.0
  0
LINE
  5
201
330
1F
100
AcDbEntity
  8
Graypants_Kerf_P2
 62
    36
420
  8866048
370
    -3
100
AcDbLine
 10
-77.55420031290043
 20
-65.52942170320853
 30
0.0
 11
-75.12906390170428
 21
-63.48020204316549
 31
0.0
  0
LINE
  5
202
330
1F
100
AcDbEntity
  8
Graypants_Kerf_P2
 62
    36
420
  8866048
370
    -3
100
AcDbLine
 10
-91.79178576690708
 20
-43.39432650711137
 30
0.0
 11
-92.34801573594359
 21
-42.1977743053169
 31
0.0
  0
LINE
  5
203
330
1F
100
AcDbEntity
  8
Graypants_Kerf_P2
 62
    36
420
  8866048
370
    -3
100
AcDbLine
 10
-91.79178576690708
 20
-43.39432650711137
 30
0.0
 11
-88.92142130257139
 21
-42.03724956175029
 31
0.0
  0
LINE
  5
204
330
1F
100
AcDbEntity
  8
Graypants_Kerf_P2
 62
    36
420
  8866048
370
    -3
100
AcDbLine
 10
-80.79697856938651
 20
-36.91917456280339
 30
0.0
 11
-81.23741872105052
 21
-35.93975830726117
 31
0.0
  0
LINE
  5
205
330
1F
100
AcDbEntity
  8
Graypants_Kerf_P2
 62
    36
420
  8866048
370
    -3
100
AcDbLine
 10
-92.34801573594359
 20
-42.1977743053169
 30
0.0
 11
-92.88867138647208
 21
-40.99400688596961
 31
0.0
  0
LINE
  5
206
330
1F
100
AcDbEntity
  8
Graypants_Kerf_P2
 62
    36
420
  8866048
370
    -3
100
AcDbLine
 10
-92.34801573594359
 20
-42.1977743053169
 30
0.0
 11
-80.79697856938651
 21
-36.91917456280339
 31
0.0
  0
LINE
  5
207
330
1F
100
AcDbEntity
  8
Graypants_Kerf_P2
 62
    36
420
  8866048
370
    -3
100
AcDbLine
 10
-87.77042630546532
 20
-13.69349060973832
 30
0.0
 11
-87.92951174697146
 21
-12.6314511703265
 31
0.0
  0
LINE
  5
208
330
1F
100
AcDbEntity
  8
Graypants_Kerf_P2
 62
    36
420
  8866048
370
    -3
100
AcDbLine
 10
-97.53125047240178
 20
-12.71927799102741
 30
0.0
 11
-100.6795984095595
 21
-13.12980234062798
 31
0.0
  0
LINE
  5
209
330
1F
100
AcDbEntity
  8
Graypants_Kerf_P2
 62
    36
420
  8866048
370
    -3
100
AcDbLine
 10
-88.06960121936265
 20
11.61729198839748
 30
0.0
 11
-87.9227260115805
 21
12.68109300235324
 31
0.0
  0
LINE
  5
20A
330
1F
100
AcDbEntity
  8
Graypants_Kerf_P2
 62
    36
420
  8866048
370
    -3
100
AcDbLine
 10
-89.96433943711861
 20
39.75771732560929
 30
0.0
 11
-92.86839454906158
 21
41.04110635639927
 31
0.0
  0
LINE
  5
20B
330
1F
100
AcDbEntity
  8
Graypants_Kerf_P2
 62
    36
420
  8866048
370
    -3
100
AcDbLine
 10
-81.2195786636787
 20
35.98121013525406
 30
0.0
 11
-80.77863845465504
 21
36.96052553045956
 31
0.0
  0
LINE
  5
20C
330
1F
100
AcDbEntity
  8
Graypants_Kerf_P2
 62
    36
420
  8866048
370
    -3
100
AcDbLine
 10
-88.90098798656561
 20
42.08182575057981
 30
0.0
 11
-91.77076225764552
 21
43.44014207701321
 31
0.0
  0
LINE
  5
20D
330
1F
100
AcDbEntity
  8
Graypants_Kerf_P2
 62
    36
420
  8866048
370
    -3
100
AcDbLine
 10
-75.09728331084273
 20
63.51947106056809
 30
0.0
 11
-77.52143815235308
 21
65.56986109460718
 31
0.0
  0
LINE
  5
20E
330
1F
100
AcDbEntity
  8
Graypants_Kerf_P2
 62
    36
420
  8866048
370
    -3
100
AcDbLine
 10
-67.77278749304548
 20
57.42977515896018
 30
0.0
 11
-67.07359294320486
 21
58.24485146424445
 31
0.0
  0
LINE
  5
20F
330
1F
100
AcDbEntity
  8
Graypants_Kerf_P2
 62
    36
420
  8866048
370
    -3
100
AcDbLine
 10
-54.129658352658
 20
82.12408003438895
 30
0.0
 11
-55.87693334314656
 21
84.7750466821808
 31
0.0
  0
LINE
  5
210
330
1F
100
AcDbEntity
  8
Graypants_Kerf_P2
 62
    36
420
  8866048
370
    -3
100
AcDbLine
 10
-48.82056828722273
 20
74.21546760611068
 30
0.0
 11
-47.9198610800612
 21
74.80017869576636
 31
0.0
  0
LINE
  5
211
330
1F
100
AcDbEntity
  8
Graypants_Kerf_P2
 62
    36
420
  8866048
370
    -3
100
AcDbLine
 10
-25.90627190336204
 20
84.97202014394134
 30
0.0
 11
-24.87719787288825
 21
85.27899477840901
 31
0.0
  0
LINE
  5
212
330
1F
100
AcDbEntity
  8
Graypants_Kerf_P2
 62
    36
420
  8866048
370
    -3
100
AcDbLine
 10
-26.31576031420298
 20
94.77275755313735
 30
0.0
 11
-27.16537892421104
 21
97.83196876262696
 31
0.0
  0
LINE
  5
213
330
1F
100
AcDbEntity
  8
Graypants_Kerf_P2
 62
    36
420
  8866048
370
    -3
100
AcDbLine
 10
-1.072376227455834
 20
98.3532148257525
 30
0.0
 11
-1.106746789010799
 21
101.5280287827375
 31
0.0
  0
LINE
  5
214
330
1F
100
AcDbEntity
  8
Graypants_Kerf_P2
 62
    36
420
  8866048
370
    -3
100
AcDbLine
 10
-1.127565636422787
 20
-98.35095058235584
 30
0.0
 11
-1.163996247725777
 21
-101.5257415688459
 31
0.0
  0
LINE
  5
215
330
1F
100
AcDbEntity
  8
Graypants_Kerf_P2
 62
    36
420
  8866048
370
    -3
100
AcDbLine
 10
-23.89049853957397
 20
-85.55941154405014
 30
0.0
 11
-24.92239416799407
 21
-85.26454843916986
 31
0.0
  0
LINE
  5
216
330
1F
100
AcDbEntity
  8
Graypants_Kerf_P2
 62
    36
420
  8866048
370
    -3
100
AcDbLine
 10
-28.81851391018517
 20
-94.04063064651723
 30
0.0
 11
-29.7488223581056
 21
-97.07627640106239
 31
0.0
  0
LINE
  5
217
330
1F
100
AcDbEntity
  8
Graypants_Kerf_P2
 62
    36
420
  8866048
370
    -3
100
AcDbLine
 10
-52.02123221092154
 20
-83.4740165041701
 30
0.0
 11
-53.70048138205573
 21
-86.16859357790622
 31
0.0
  0
LINE
  5
218
330
1F
100
AcDbEntity
  8
Graypants_Kerf_P2
 62
    36
420
  8866048
370
    -3
100
AcDbLine
 10
-47.05180858778749
 20
-75.34766342325861
 30
0.0
 11
-47.95909353515378
 21
-74.77345193124825
 31
0.0
  0
LINE
  5
219
330
1F
100
AcDbEntity
  8
Graypants_Kerf_P2
 62
    36
420
  8866048
370
    -3
100
AcDbLine
 10
-54.17273803048226
 20
-82.09406746683203
 30
0.0
 11
-55.92145341759931
 21
-84.74408971742264
 31
0.0
  0
LINE
  5
21A
330
1F
100
AcDbEntity
  8
Graypants_Kerf_P2
 62
    36
420
  8866048
370
    -3
100
AcDbLine
 10
-73.4529700524613
 20
-65.41227960763422
 30
0.0
 11
-75.82406150301506
 21
-67.52381277758855
 31
0.0
  0
LINE
  5
21B
330
1F
100
AcDbEntity
  8
Graypants_Kerf_P2
 62
    36
420
  8866048
370
    -3
100
AcDbLine
 10
-66.39327956998022
 20
-59.01747890144475
 30
0.0
 11
-67.10235946725436
 21
-58.21000298344393
 31
0.0
  0
LINE
  5
21C
330
1F
100
AcDbEntity
  8
Graypants_Kerf_P2
 62
    36
420
  8866048
370
    -3
100
AcDbLine
 10
-80.34473282832823
 20
-37.89319736036146
 30
0.0
 11
-80.79697856938651
 21
-36.91917456280339
 31
0.0
  0
LINE
  5
21D
330
1F
100
AcDbEntity
  8
Graypants_Kerf_P2
 62
    36
420
  8866048
370
    -3
100
AcDbLine
 10
-89.98399818526252
 20
-39.71202859475716
 30
0.0
 11
-92.88867138647208
 21
-40.99400688596961
 31
0.0
  0
LINE
  5
21E
330
1F
100
AcDbEntity
  8
Graypants_Kerf_P2
 62
    36
420
  8866048
370
    -3
100
AcDbLine
 10
-87.76300963488927
 20
13.74307248214154
 30
0.0
 11
-97.15951900625316
 21
15.30462298286193
 31
0.0
  0
LINE
  5
21F
330
1F
100
AcDbEntity
  8
Graypants_Kerf_P2
 62
    36
420
  8866048
370
    -3
100
AcDbLine
 10
-89.96433943711861
 20
39.75771732560929
 30
0.0
 11
-81.2195786636787
 21
35.98121013525406
 31
0.0
  0
LINE
  5
220
330
1F
100
AcDbEntity
  8
Graypants_Kerf_P2
 62
    36
420
  8866048
370
    -3
100
AcDbLine
 10
-48.85935848780764
 20
-74.18831920026355
 30
0.0
 11
-54.17273803048226
 21
-82.09406746683203
 31
0.0
  0
LINE
  5
221
330
1F
100
AcDbEntity
  8
Graypants_Kerf_P2
 62
    36
420
  8866048
370
    -3
100
AcDbLine
 10
-88.07576321039642
 20
-11.56756466179309
 30
0.0
 11
-97.53125047240178
 21
-12.71927799102741
 31
0.0
  0
ARC
  5
222
330
1F
100
AcDbEntity
  8
Graypants_Kerf_P2
 62
    36
420
  8866048
370
    -3
100
AcDbCircle
 10
-0.0319063634238398
 20
0.001473164519924
 30
0.0
 40
98.32568134339192
100
AcDbArc
 50
172.5358816118998
 51
187.433398792539
  0
LINE
  5
223
330
1F
100
AcDbEntity
  8
Graypants_Kerf_P2
 62
    36
420
  8866048
370
    -3
100
AcDbLine
 10
-97.52441612527014
 20
12.7744975510368
 30
0.0
 11
-88.06960121936265
 21
11.61729198839748
 31
0.0
  0
ARC
  5
224
330
1F
100
AcDbEntity
  8
Graypants_Kerf_P2
 62
    36
420
  8866048
370
    -3
100
AcDbCircle
 10
-0.0036329419767749
 20
0.0021902844770014
 30
0.0
 40
98.35360005319203
100
AcDbArc
 50
156.158357157222
 51
171.0492223006395
  0
LINE
  5
225
330
1F
100
AcDbEntity
  8
Graypants_Kerf_P2
 62
    36
420
  8866048
370
    -3
100
AcDbLine
 10
-80.32607215692803
 20
37.93410514561015
 30
0.0
 11
-88.90098798656561
 21
42.08182575057981
 31
0.0
  0
ARC
  5
226
330
1F
100
AcDbEntity
  8
Graypants_Kerf_P2
 62
    36
420
  8866048
370
    -3
100
AcDbCircle
 10
0.0021557830827472
 20
-0.0000017397516659
 30
0.0
 40
98.35979451510045
100
AcDbArc
 50
139.7752952150895
 51
154.6697161671557
  0
LINE
  5
227
330
1F
100
AcDbEntity
  8
Graypants_Kerf_P2
 62
    36
420
  8866048
370
    -3
100
AcDbLine
 10
-75.09728331084273
 20
63.51947106056809
 30
0.0
 11
-67.77278749304548
 21
57.42977515896018
 31
0.0
  0
LINE
  5
228
330
1F
100
AcDbEntity
  8
Graypants_Kerf_P2
 62
    36
420
  8866048
370
    -3
100
AcDbLine
 10
-66.36458293201292
 20
59.05144931801146
 30
0.0
 11
-73.42116404420904
 21
65.4496848161109
 31
0.0
  0
ARC
  5
229
330
1F
100
AcDbEntity
  8
Graypants_Kerf_P2
 62
    36
420
  8866048
370
    -3
100
AcDbCircle
 10
0.0011722090664056
 20
0.0003189135017057
 30
0.0
 40
98.35882755473791
100
AcDbArc
 50
123.390364821975
 51
138.285886287415
  0
LINE
  5
22A
330
1F
100
AcDbEntity
  8
Graypants_Kerf_P2
 62
    36
420
  8866048
370
    -3
100
AcDbLine
 10
-28.76940121375048
 20
94.05690458433696
 30
0.0
 11
-25.90627190336204
 21
84.97202014394134
 31
0.0
  0
LINE
  5
22B
330
1F
100
AcDbEntity
  8
Graypants_Kerf_P2
 62
    36
420
  8866048
370
    -3
100
AcDbLine
 10
-1.072376227455834
 20
98.3532148257525
 30
0.0
 11
-0.9692645427689968
 21
88.82877295288768
 31
0.0
  0
LINE
  5
22C
330
1F
100
AcDbEntity
  8
Graypants_Kerf_P2
 62
    36
420
  8866048
370
    -3
100
AcDbLine
 10
-1.018273802494491
 20
-88.82657762120903
 30
0.0
 11
-1.127565636422787
 21
-98.35095058235584
 31
0.0
  0
LINE
  5
22D
330
1F
100
AcDbEntity
  8
Graypants_Kerf_P2
 62
    36
420
  8866048
370
    -3
100
AcDbLine
 10
-26.36624546230735
 20
-94.75742594254348
 30
0.0
 11
-23.89049853957397
 21
-85.55941154405014
 31
0.0
  0
LINE
  5
22E
330
1F
100
AcDbEntity
  8
Graypants_Kerf_P2
 62
    36
420
  8866048
370
    -3
100
AcDbLine
 10
-25.95062429179541
 20
-84.95724517601002
 30
0.0
 11
-28.81851391018517
 21
-94.04063064651723
 31
0.0
  0
LINE
  5
22F
330
1F
100
AcDbEntity
  8
Graypants_Kerf_P2
 62
    36
420
  8866048
370
    -3
100
AcDbLine
 10
-52.02123221092154
 20
-83.4740165041701
 30
0.0
 11
-47.05180858778749
 21
-75.34766342325861
 31
0.0
  0
ARC
  5
230
330
1F
100
AcDbEntity
  8
Graypants_Kerf_P2
 62
    36
420
  8866048
370
    -3
100
AcDbCircle
 10
0.0112886880914067
 20
0.0081289701262648
 30
0.0
 40
98.37093453948742
100
AcDbArc
 50
205.3037277127555
 51
220.1954667366974
  0
LINE
  5
231
330
1F
100
AcDbEntity
  8
Graypants_Kerf_P2
 62
    36
420
  8866048
370
    -3
100
AcDbLine
 10
-88.92142130257139
 20
-42.03724956175029
 30
0.0
 11
-80.34473282832823
 21
-37.89319736036146
 31
0.0
  0
LINE
  5
232
330
1F
100
AcDbEntity
  8
Graypants_Kerf_P2
 62
    36
420
  8866048
370
    -3
100
AcDbLine
 10
-97.16784526912693
 20
-15.24953972776484
 30
0.0
 11
-87.77042630546532
 21
-13.69349060973832
 31
0.0
  0
LINE
  5
233
330
1F
100
AcDbEntity
  8
Graypants_Kerf_P2
 62
    36
420
  8866048
370
    -3
100
AcDbLine
 10
-81.23741872105052
 20
-35.93975830726117
 30
0.0
 11
-89.98399818526252
 21
-39.71202859475716
 31
0.0
  0
ARC
  5
234
330
1F
100
AcDbEntity
  8
Graypants_Kerf_P2
 62
    36
420
  8866048
370
    -3
100
AcDbCircle
 10
0.0294339230935034
 20
0.0014725439279007
 30
0.0
 40
101.5031329134546
210
0.0
220
0.0
230
-1.0
100
AcDbArc
 50
352.5669169980771
 51
7.463882427281268
  0
ARC
  5
235
330
1F
100
AcDbEntity
  8
Graypants_Kerf_P2
 62
    36
420
  8866048
370
    -3
100
AcDbCircle
 10
0.0024808499823523
 20
0.0018462764122456
 30
0.0
 40
101.529792647664
210
0.0
220
0.0
230
-1.0
100
AcDbArc
 50
8.950873471211372
 51
23.84157105003901
  0
ARC
  5
236
330
1F
100
AcDbEntity
  8
Graypants_Kerf_P2
 62
    36
420
  8866048
370
    -3
100
AcDbCircle
 10
-0.0001926757556114
 20
0.0012611356740266
 30
0.0
 40
101.5324802554541
210
0.0
220
0.0
230
-1.0
100
AcDbArc
 50
25.33007490345368
 51
40.2248881358967
  0
ARC
  5
237
330
1F
100
AcDbEntity
  8
Graypants_Kerf_P2
 62
    36
420
  8866048
370
    -3
100
AcDbCircle
 10
-0.0002910711916634
 20
0.0013119865551068
 30
0.0
 40
101.5325085994365
210
0.0
220
0.0
230
-1.0
100
AcDbArc
 50
41.71403106920299
 51
56.60977768566345
  0
ARC
  5
238
330
1F
100
AcDbEntity
  8
Graypants_Kerf_P2
 62
    36
420
  8866048
370
    -3
100
AcDbCircle
 10
0.0200324919542968
 20
0.0441710008789786
 30
0.0
 40
101.4853501125802
210
0.0
220
0.0
230
-1.0
100
AcDbArc
 50
58.09581564224748
 51
72.99608439008964
  0
ARC
  5
239
330
1F
100
AcDbEntity
  8
Graypants_Kerf_P2
 62
    36
420
  8866048
370
    -3
100
AcDbCircle
 10
-0.0010047171931259
 20
0.0082831155287566
 30
0.0
 40
101.525789205178
210
0.0
220
0.0
230
-1.0
100
AcDbArc
 50
74.4796204761016
 51
89.37483130181114
  0
ARC
  5
23A
330
1F
100
AcDbEntity
  8
Graypants_Kerf_P2
 62
    36
420
  8866048
370
    -3
100
AcDbCircle
 10
-0.0011456497648348
 20
0.0035640475143826
 30
0.0
 40
101.535990932189
210
0.0
220
0.0
230
-1.0
100
AcDbArc
 50
270.657492755385
 51
285.5492960507539
  0
ARC
  5
23B
330
1F
100
AcDbEntity
  8
Graypants_Kerf_P2
 62
    36
420
  8866048
370
    -3
100
AcDbCircle
 10
-0.0017489178845619
 20
0.0025728305398745
 30
0.0
 40
101.5352129036027
210
0.0
220
0.0
230
-1.0
100
AcDbArc
 50
287.0380922413692
 51
301.9313326940681
  0
ARC
  5
23C
330
1F
100
AcDbEntity
  8
Graypants_Kerf_P2
 62
    36
420
  8866048
370
    -3
100
AcDbCircle
 10
0.0008383606719938
 20
-0.0014364073068432
 30
0.0
 40
101.5304509907423
210
0.0
220
0.0
230
-1.0
100
AcDbArc
 50
303.4203197834471
 51
318.3141787184303
  0
ARC
  5
23D
330
1F
100
AcDbEntity
  8
Graypants_Kerf_P2
 62
    36
420
  8866048
370
    -3
100
AcDbCircle
 10
-0.0059943262423307
 20
0.0047684867738405
 30
0.0
 40
101.5397157585075
210
0.0
220
0.0
230
-1.0
100
AcDbArc
 50
319.8039892082665
 51
334.6966926515409
  0
ARC
  5
23E
330
1F
100
AcDbEntity
  8
Graypants_Kerf_P2
 62
    36
420
  8866048
370
    -3
100
AcDbCircle
 10
-0.0396009015328797
 20
0.0109206412417845
 30
0.0
 40
101.5729682147049
210
0.0
220
0.0
230
-1.0
100
AcDbArc
 50
336.1903610914347
 51
351.0781776155414
  0
ARC
  5
23F
330
1F
100
AcDbEntity
  8
Graypants_Kerf_P2
 62
    36
420
  8866048
370
    -3
100
AcDbCircle
 10
-0.0205778784345484
 20
0.0451612437997942
 30
0.0
 40
98.30921995973846
100
AcDbArc
 50
107.0036500454803
 51
121.9043338975323
  0
ARC
  5
240
330
1F
100
AcDbEntity
  8
Graypants_Kerf_P2
 62
    36
420
  8866048
370
    -3
100
AcDbCircle
 10
0.0011391047446025
 20
0.0012272780821274
 30
0.0
 40
98.3587486795734
100
AcDbArc
 50
238.0685430994801
 51
252.9620239188062
  0
ARC
  5
241
330
1F
100
AcDbEntity
  8
Graypants_Kerf_P2
 62
    36
420
  8866048
370
    -3
100
AcDbCircle
 10
0.0015431985419584
 20
0.0012942401414349
 30
0.0
 40
98.35904208805721
100
AcDbArc
 50
221.6860778365739
 51
236.579397866537
  0
ARC
  5
242
330
1F
100
AcDbEntity
  8
Graypants_Kerf_P2
 62
    36
420
  8866048
370
    -3
100
AcDbCircle
 10
0.0424868516841096
 20
0.0119347980463783
 30
0.0
 40
98.40102273726818
100
AcDbArc
 50
188.9222870639342
 51
203.8093510909853
  0
LINE
  5
243
330
1F
100
AcDbEntity
  8
Graypants_Kerf_P2
 62
    36
420
  8866048
370
    -3
100
AcDbLine
 10
100.3061045356767
 20
15.74333849688082
 30
0.0
 11
100.5021811721141
 21
14.43856964146971
 31
0.0
  0
LINE
  5
244
330
1F
100
AcDbEntity
  8
Graypants_Kerf_P2
 62
    36
420
  8866048
370
    -3
100
AcDbLine
 10
100.3061045356767
 20
15.74333849688082
 30
0.0
 11
97.16952712113994
 21
15.25118629911094
 31
0.0
  0
LINE
  5
245
330
1F
100
AcDbEntity
  8
Graypants_Kerf_P2
 62
    36
420
  8866048
370
    -3
100
AcDbLine
 10
87.93119359898446
 20
12.6330977416726
 30
0.0
 11
88.07744506240942
 21
11.56921123313919
 31
0.0
  0
LINE
  5
246
330
1F
100
AcDbEntity
  8
Graypants_Kerf_P2
 62
    36
420
  8866048
370
    -3
100
AcDbLine
 10
100.5021811721141
 20
14.43856964146971
 30
0.0
 11
100.6812802615725
 21
13.13144891197408
 31
0.0
  0
LINE
  5
247
330
1F
100
AcDbEntity
  8
Graypants_Kerf_P2
 62
    36
420
  8866048
370
    -3
100
AcDbLine
 10
100.5021811721141
 20
14.43856964146971
 30
0.0
 11
87.93119359898446
 21
12.6330977416726
 31
0.0
  0
LINE
  5
248
330
1F
100
AcDbEntity
  8
Graypants_Kerf_P2
 62
    36
420
  8866048
370
    -3
100
AcDbLine
 10
87.9244078635935
 20
-12.67944643100714
 30
0.0
 11
100.4943567559724
 21
-14.49229619978337
 31
0.0
  0
LINE
  5
249
330
1F
100
AcDbEntity
  8
Graypants_Kerf_P2
 62
    36
420
  8866048
370
    -3
100
AcDbLine
 10
100.6742069849639
 20
-13.1852035921554
 30
0.0
 11
100.4943567559724
 21
-14.49229619978337
 31
0.0
  0
LINE
  5
24A
330
1F
100
AcDbEntity
  8
Graypants_Kerf_P2
 62
    36
420
  8866048
370
    -3
100
AcDbLine
 10
100.6742069849639
 20
-13.1852035921554
 30
0.0
 11
97.52609797728326
 21
-12.7728509796907
 31
0.0
  0
LINE
  5
24B
330
1F
100
AcDbEntity
  8
Graypants_Kerf_P2
 62
    36
420
  8866048
370
    -3
100
AcDbLine
 10
87.9244078635935
 20
-12.67944643100714
 30
0.0
 11
87.7646914869024
 21
-13.74142591079544
 31
0.0
  0
LINE
  5
24C
330
1F
100
AcDbEntity
  8
Graypants_Kerf_P2
 62
    36
420
  8866048
370
    -3
100
AcDbLine
 10
100.4943567559724
 20
-14.49229619978337
 30
0.0
 11
100.297536450122
 21
-15.79697080856135
 31
0.0
  0
LINE
  5
24D
330
1F
100
AcDbEntity
  8
Graypants_Kerf_P2
 62
    36
420
  8866048
370
    -3
100
AcDbLine
 10
100.297536450122
 20
-15.79697080856135
 30
0.0
 11
97.16120085826628
 21
-15.3029764115156
 31
0.0
  0
LINE
  5
24E
330
1F
100
AcDbEntity
  8
Graypants_Kerf_P2
 62
    36
420
  8866048
370
    -3
100
AcDbLine
 10
92.87007640107458
 20
-41.03945978505317
 30
0.0
 11
92.32893563403525
 21
-42.24276812221001
 31
0.0
  0
LINE
  5
24F
330
1F
100
AcDbEntity
  8
Graypants_Kerf_P2
 62
    36
420
  8866048
370
    -3
100
AcDbLine
 10
92.32893563403525
 20
-42.24276812221001
 30
0.0
 11
91.77244410965852
 21
-43.43849550566688
 31
0.0
  0
LINE
  5
250
330
1F
100
AcDbEntity
  8
Graypants_Kerf_P2
 62
    36
420
  8866048
370
    -3
100
AcDbLine
 10
67.07527479521787
 20
-58.24320489289835
 30
0.0
 11
76.66448572745071
 21
-66.57009108749253
 31
0.0
  0
LINE
  5
251
330
1F
100
AcDbEntity
  8
Graypants_Kerf_P2
 62
    36
420
  8866048
370
    -3
100
AcDbLine
 10
77.52312000436609
 20
-65.56821452326108
 30
0.0
 11
76.66448572745071
 21
-66.57009108749253
 31
0.0
  0
LINE
  5
252
330
1F
100
AcDbEntity
  8
Graypants_Kerf_P2
 62
    36
420
  8866048
370
    -3
100
AcDbLine
 10
67.07527479521787
 20
-58.24320489289835
 30
0.0
 11
66.36626478402593
 21
-59.04980274666536
 31
0.0
  0
LINE
  5
253
330
1F
100
AcDbEntity
  8
Graypants_Kerf_P2
 62
    36
420
  8866048
370
    -3
100
AcDbLine
 10
76.66448572745071
 20
-66.57009108749253
 30
0.0
 11
75.79289579805913
 21
-67.56073460240191
 31
0.0
  0
LINE
  5
254
330
1F
100
AcDbEntity
  8
Graypants_Kerf_P2
 62
    36
420
  8866048
370
    -3
100
AcDbLine
 10
75.79289579805913
 20
-67.56073460240191
 30
0.0
 11
73.42284589622204
 21
-65.4480382447648
 31
0.0
  0
LINE
  5
255
330
1F
100
AcDbEntity
  8
Graypants_Kerf_P2
 62
    36
420
  8866048
370
    -3
100
AcDbLine
 10
55.87861519515957
 20
-84.7734001108347
 30
0.0
 11
54.77228911469183
 21
-85.49232635725639
 31
0.0
  0
LINE
  5
256
330
1F
100
AcDbEntity
  8
Graypants_Kerf_P2
 62
    36
420
  8866048
370
    -3
100
AcDbLine
 10
54.77228911469183
 20
-85.49232635725639
 30
0.0
 11
53.6567558163307
 21
-86.19679660294764
 31
0.0
  0
LINE
  5
257
330
1F
100
AcDbEntity
  8
Graypants_Kerf_P2
 62
    36
420
  8866048
370
    -3
100
AcDbLine
 10
53.6567558163307
 20
-86.19679660294764
 30
0.0
 11
51.9789331767613
 21
-83.50132924655668
 31
0.0
  0
LINE
  5
258
330
1F
100
AcDbEntity
  8
Graypants_Kerf_P2
 62
    36
420
  8866048
370
    -3
100
AcDbLine
 10
29.69979157922342
 20
-97.0914194211357
 30
0.0
 11
28.4358424711686
 21
-97.46908377173213
 31
0.0
  0
LINE
  5
259
330
1F
100
AcDbEntity
  8
Graypants_Kerf_P2
 62
    36
420
  8866048
370
    -3
100
AcDbLine
 10
29.69979157922342
 20
-97.0914194211357
 30
0.0
 11
28.77108306576361
 21
-94.05525801299086
 31
0.0
  0
LINE
  5
25A
330
1F
100
AcDbEntity
  8
Graypants_Kerf_P2
 62
    36
420
  8866048
370
    -3
100
AcDbLine
 10
24.87887972490125
 20
-85.27734820706291
 30
0.0
 11
23.8461813368516
 21
-85.57190103708558
 31
0.0
  0
LINE
  5
25B
330
1F
100
AcDbEntity
  8
Graypants_Kerf_P2
 62
    36
420
  8866048
370
    -3
100
AcDbLine
 10
28.4358424711686
 20
-97.46908377173213
 30
0.0
 11
27.16706077622405
 21
-97.83032219128086
 31
0.0
  0
LINE
  5
25C
330
1F
100
AcDbEntity
  8
Graypants_Kerf_P2
 62
    36
420
  8866048
370
    -3
100
AcDbLine
 10
27.2190216309798
 20
97.81787349451156
 30
0.0
 11
28.48717644275814
 21
97.45612189533131
 31
0.0
  0
LINE
  5
25D
330
1F
100
AcDbEntity
  8
Graypants_Kerf_P2
 62
    36
420
  8866048
370
    -3
100
AcDbLine
 10
27.2190216309798
 20
97.81787349451156
 30
0.0
 11
26.36792731432035
 21
94.75907251388958
 31
0.0
  0
LINE
  5
25E
330
1F
100
AcDbEntity
  8
Graypants_Kerf_P2
 62
    36
420
  8866048
370
    -3
100
AcDbLine
 10
24.92407602000708
 20
85.26619501051596
 30
0.0
 11
25.95230614380841
 21
84.95889174735612
 31
0.0
  0
LINE
  5
25F
330
1F
100
AcDbEntity
  8
Graypants_Kerf_P2
 62
    36
420
  8866048
370
    -3
100
AcDbLine
 10
28.48717644275814
 20
97.45612189533131
 30
0.0
 11
29.75050421011861
 21
97.07792297240849
 31
0.0
  0
LINE
  5
260
330
1F
100
AcDbEntity
  8
Graypants_Kerf_P2
 62
    36
420
  8866048
370
    -3
100
AcDbLine
 10
53.70216323406873
 20
86.17024014925232
 30
0.0
 11
54.81727307675817
 21
85.46520814441692
 31
0.0
  0
LINE
  5
261
330
1F
100
AcDbEntity
  8
Graypants_Kerf_P2
 62
    36
420
  8866048
370
    -3
100
AcDbLine
 10
47.96077538716679
 20
74.77509850259435
 30
0.0
 11
48.86104033982065
 21
74.18996577160965
 31
0.0
  0
LINE
  5
262
330
1F
100
AcDbEntity
  8
Graypants_Kerf_P2
 62
    36
420
  8866048
370
    -3
100
AcDbLine
 10
54.81727307675817
 20
85.46520814441692
 30
0.0
 11
55.92313526961243
 21
84.74573628876874
 31
0.0
  0
LINE
  5
263
330
1F
100
AcDbEntity
  8
Graypants_Kerf_P2
 62
    36
420
  8866048
370
    -3
100
AcDbLine
 10
54.81727307675817
 20
85.46520814441692
 30
0.0
 11
47.96077538716679
 21
74.77509850259435
 31
0.0
  0
LINE
  5
264
330
1F
100
AcDbEntity
  8
Graypants_Kerf_P2
 62
    36
420
  8866048
370
    -3
100
AcDbLine
 10
75.82574335502807
 20
67.52545934893465
 30
0.0
 11
76.69728654079609
 21
66.53388760197276
 31
0.0
  0
LINE
  5
265
330
1F
100
AcDbEntity
  8
Graypants_Kerf_P2
 62
    36
420
  8866048
370
    -3
100
AcDbLine
 10
67.10404131926737
 20
58.21164955479003
 30
0.0
 11
67.80328791688271
 21
57.39571238185817
 31
0.0
  0
LINE
  5
266
330
1F
100
AcDbEntity
  8
Graypants_Kerf_P2
 62
    36
420
  8866048
370
    -3
100
AcDbLine
 10
76.69728654079609
 20
66.53388760197276
 30
0.0
 11
77.55588216491344
 21
65.53106827455463
 31
0.0
  0
LINE
  5
267
330
1F
100
AcDbEntity
  8
Graypants_Kerf_P2
 62
    36
420
  8866048
370
    -3
100
AcDbLine
 10
77.55588216491344
 20
65.53106827455463
 30
0.0
 11
75.13074575371729
 21
63.48184861451159
 31
0.0
  0
LINE
  5
268
330
1F
100
AcDbEntity
  8
Graypants_Kerf_P2
 62
    36
420
  8866048
370
    -3
100
AcDbLine
 10
91.79346761892009
 20
43.39597307845747
 30
0.0
 11
92.3496975879566
 21
42.199420876663
 31
0.0
  0
LINE
  5
269
330
1F
100
AcDbEntity
  8
Graypants_Kerf_P2
 62
    36
420
  8866048
370
    -3
100
AcDbLine
 10
91.79346761892009
 20
43.39597307845747
 30
0.0
 11
88.92310315458451
 21
42.03889613309661
 31
0.0
  0
LINE
  5
26A
330
1F
100
AcDbEntity
  8
Graypants_Kerf_P2
 62
    36
420
  8866048
370
    -3
100
AcDbLine
 10
92.3496975879566
 20
42.199420876663
 30
0.0
 11
92.8903532384852
 21
40.99565345731571
 31
0.0
  0
LINE
  5
26B
330
1F
100
AcDbEntity
  8
Graypants_Kerf_P2
 62
    36
420
  8866048
370
    -3
100
AcDbLine
 10
87.77210815747833
 20
13.69513718108442
 30
0.0
 11
87.93119359898446
 21
12.6330977416726
 31
0.0
  0
LINE
  5
26C
330
1F
100
AcDbEntity
  8
Graypants_Kerf_P2
 62
    36
420
  8866048
370
    -3
100
AcDbLine
 10
97.53293232441479
 20
12.72092456237351
 30
0.0
 11
100.6812802615725
 21
13.13144891197408
 31
0.0
  0
LINE
  5
26D
330
1F
100
AcDbEntity
  8
Graypants_Kerf_P2
 62
    36
420
  8866048
370
    -3
100
AcDbLine
 10
88.07128307137566
 20
-11.61564541705138
 30
0.0
 11
87.9244078635935
 21
-12.67944643100714
 31
0.0
  0
LINE
  5
26E
330
1F
100
AcDbEntity
  8
Graypants_Kerf_P2
 62
    36
420
  8866048
370
    -3
100
AcDbLine
 10
89.96602128913162
 20
-39.75607075426319
 30
0.0
 11
92.87007640107458
 21
-41.03945978505317
 31
0.0
  0
LINE
  5
26F
330
1F
100
AcDbEntity
  8
Graypants_Kerf_P2
 62
    36
420
  8866048
370
    -3
100
AcDbLine
 10
81.22126051569171
 20
-35.97956356390796
 30
0.0
 11
80.78032030666805
 21
-36.95887895911346
 31
0.0
  0
LINE
  5
270
330
1F
100
AcDbEntity
  8
Graypants_Kerf_P2
 62
    36
420
  8866048
370
    -3
100
AcDbLine
 10
88.90266983857862
 20
-42.08017917923371
 30
0.0
 11
91.77244410965852
 21
-43.43849550566688
 31
0.0
  0
LINE
  5
271
330
1F
100
AcDbEntity
  8
Graypants_Kerf_P2
 62
    36
420
  8866048
370
    -3
100
AcDbLine
 10
75.09896516285573
 20
-63.51782448922199
 30
0.0
 11
77.52312000436609
 21
-65.56821452326108
 31
0.0
  0
LINE
  5
272
330
1F
100
AcDbEntity
  8
Graypants_Kerf_P2
 62
    36
420
  8866048
370
    -3
100
AcDbLine
 10
67.77446934505849
 20
-57.42812858761408
 30
0.0
 11
67.07527479521787
 21
-58.24320489289835
 31
0.0
  0
LINE
  5
273
330
1F
100
AcDbEntity
  8
Graypants_Kerf_P2
 62
    36
420
  8866048
370
    -3
100
AcDbLine
 10
54.13134020467101
 20
-82.12243346304285
 30
0.0
 11
55.87861519515957
 21
-84.7734001108347
 31
0.0
  0
LINE
  5
274
330
1F
100
AcDbEntity
  8
Graypants_Kerf_P2
 62
    36
420
  8866048
370
    -3
100
AcDbLine
 10
25.90795375537505
 20
-84.97037357259524
 30
0.0
 11
24.87887972490125
 21
-85.27734820706291
 31
0.0
  0
LINE
  5
275
330
1F
100
AcDbEntity
  8
Graypants_Kerf_P2
 62
    36
420
  8866048
370
    -3
100
AcDbLine
 10
26.3174421662161
 20
-94.77111098179125
 30
0.0
 11
27.16706077622405
 21
-97.83032219128086
 31
0.0
  0
LINE
  5
276
330
1F
100
AcDbEntity
  8
Graypants_Kerf_P2
 62
    36
420
  8866048
370
    -3
100
AcDbLine
 10
1.074058079468841
 20
-98.3515682544064
 30
0.0
 11
1.108428641023806
 21
-101.5263822113914
 31
0.0
  0
LINE
  5
277
330
1F
100
AcDbEntity
  8
Graypants_Kerf_P2
 62
    36
420
  8866048
370
    -3
100
AcDbLine
 10
1.129247488435908
 20
98.35259715370194
 30
0.0
 11
1.165678099738784
 21
101.527388140192
 31
0.0
  0
LINE
  5
278
330
1F
100
AcDbEntity
  8
Graypants_Kerf_P2
 62
    36
420
  8866048
370
    -3
100
AcDbLine
 10
23.89218039158709
 20
85.56105811539624
 30
0.0
 11
24.92407602000708
 21
85.26619501051596
 31
0.0
  0
LINE
  5
279
330
1F
100
AcDbEntity
  8
Graypants_Kerf_P2
 62
    36
420
  8866048
370
    -3
100
AcDbLine
 10
28.82019576219818
 20
94.04227721786333
 30
0.0
 11
29.75050421011861
 21
97.07792297240849
 31
0.0
  0
LINE
  5
27A
330
1F
100
AcDbEntity
  8
Graypants_Kerf_P2
 62
    36
420
  8866048
370
    -3
100
AcDbLine
 10
52.02291406293466
 20
83.4756630755162
 30
0.0
 11
53.70216323406873
 21
86.17024014925232
 31
0.0
  0
LINE
  5
27B
330
1F
100
AcDbEntity
  8
Graypants_Kerf_P2
 62
    36
420
  8866048
370
    -3
100
AcDbLine
 10
47.0534904398005
 20
75.34930999460471
 30
0.0
 11
47.96077538716679
 21
74.77509850259435
 31
0.0
  0
LINE
  5
27C
330
1F
100
AcDbEntity
  8
Graypants_Kerf_P2
 62
    36
420
  8866048
370
    -3
100
AcDbLine
 10
54.17441988249527
 20
82.09571403817813
 30
0.0
 11
55.92313526961243
 21
84.74573628876874
 31
0.0
  0
LINE
  5
27D
330
1F
100
AcDbEntity
  8
Graypants_Kerf_P2
 62
    36
420
  8866048
370
    -3
100
AcDbLine
 10
73.4546519044743
 20
65.41392617898032
 30
0.0
 11
75.82574335502807
 21
67.52545934893465
 31
0.0
  0
LINE
  5
27E
330
1F
100
AcDbEntity
  8
Graypants_Kerf_P2
 62
    36
420
  8866048
370
    -3
100
AcDbLine
 10
66.39496142199323
 20
59.01912547279085
 30
0.0
 11
67.10404131926737
 21
58.21164955479003
 31
0.0
  0
LINE
  5
27F
330
1F
100
AcDbEntity
  8
Graypants_Kerf_P2
 62
    36
420
  8866048
370
    -3
100
AcDbLine
 10
80.34641468034135
 20
37.89484393170756
 30
0.0
 11
80.79866042139952
 21
36.92082113414949
 31
0.0
  0
LINE
  5
280
330
1F
100
AcDbEntity
  8
Graypants_Kerf_P2
 62
    36
420
  8866048
370
    -3
100
AcDbLine
 10
89.98568003727564
 20
39.71367516610326
 30
0.0
 11
92.8903532384852
 21
40.99565345731571
 31
0.0
  0
LINE
  5
281
330
1F
100
AcDbEntity
  8
Graypants_Kerf_P2
 62
    36
420
  8866048
370
    -3
100
AcDbLine
 10
87.7646914869024
 20
-13.74142591079544
 30
0.0
 11
97.16120085826628
 21
-15.3029764115156
 31
0.0
  0
LINE
  5
282
330
1F
100
AcDbEntity
  8
Graypants_Kerf_P2
 62
    36
420
  8866048
370
    -3
100
AcDbLine
 10
48.86104033982065
 20
74.18996577160965
 30
0.0
 11
54.17441988249527
 21
82.09571403817813
 31
0.0
  0
LINE
  5
283
330
1F
100
AcDbEntity
  8
Graypants_Kerf_P2
 62
    36
420
  8866048
370
    -3
100
AcDbLine
 10
88.07744506240942
 20
11.56921123313919
 30
0.0
 11
97.53293232441479
 21
12.72092456237351
 31
0.0
  0
ARC
  5
284
330
1F
100
AcDbEntity
  8
Graypants_Kerf_P2
 62
    36
420
  8866048
370
    -3
100
AcDbCircle
 10
0.0335882154284683
 20
0.0001734068257437
 30
0.0
 40
98.32568134340029
100
AcDbArc
 50
352.5358816119007
 51
7.433398792538584
  0
LINE
  5
285
330
1F
100
AcDbEntity
  8
Graypants_Kerf_P2
 62
    36
420
  8866048
370
    -3
100
AcDbLine
 10
97.52609797728326
 20
-12.7728509796907
 30
0.0
 11
88.07128307137566
 21
-11.61564541705138
 31
0.0
  0
ARC
  5
286
330
1F
100
AcDbEntity
  8
Graypants_Kerf_P2
 62
    36
420
  8866048
370
    -3
100
AcDbCircle
 10
0.0053147939866481
 20
-0.000543713129674
 30
0.0
 40
98.3536000531954
100
AcDbArc
 50
336.1583571572221
 51
351.0492223006391
  0
LINE
  5
287
330
1F
100
AcDbEntity
  8
Graypants_Kerf_P2
 62
    36
420
  8866048
370
    -3
100
AcDbLine
 10
80.32775400894116
 20
-37.93245857426405
 30
0.0
 11
88.90266983857862
 21
-42.08017917923371
 31
0.0
  0
ARC
  5
288
330
1F
100
AcDbEntity
  8
Graypants_Kerf_P2
 62
    36
420
  8866048
370
    -3
100
AcDbCircle
 10
-0.0004739310697185
 20
0.0016483110977548
 30
0.0
 40
98.3597945151004
100
AcDbArc
 50
319.7752952150895
 51
334.6697161671557
  0
LINE
  5
289
330
1F
100
AcDbEntity
  8
Graypants_Kerf_P2
 62
    36
420
  8866048
370
    -3
100
AcDbLine
 10
75.09896516285573
 20
-63.51782448922199
 30
0.0
 11
67.77446934505849
 21
-57.42812858761408
 31
0.0
  0
LINE
  5
28A
330
1F
100
AcDbEntity
  8
Graypants_Kerf_P2
 62
    36
420
  8866048
370
    -3
100
AcDbLine
 10
66.36626478402593
 20
-59.04980274666536
 30
0.0
 11
73.42284589622204
 21
-65.4480382447648
 31
0.0
  0
ARC
  5
28B
330
1F
100
AcDbEntity
  8
Graypants_Kerf_P2
 62
    36
420
  8866048
370
    -3
100
AcDbCircle
 10
0.0005096429457588
 20
0.0013276578453748
 30
0.0
 40
98.3588275547392
100
AcDbArc
 50
303.390364821975
 51
318.2858862874149
  0
LINE
  5
28C
330
1F
100
AcDbEntity
  8
Graypants_Kerf_P2
 62
    36
420
  8866048
370
    -3
100
AcDbLine
 10
1.074058079468841
 20
-98.3515682544064
 30
0.0
 11
0.9709463947821177
 21
-88.82712638154158
 31
0.0
  0
LINE
  5
28D
330
1F
100
AcDbEntity
  8
Graypants_Kerf_P2
 62
    36
420
  8866048
370
    -3
100
AcDbLine
 10
1.019955654507612
 20
88.82822419255513
 30
0.0
 11
1.129247488435908
 21
98.35259715370194
 31
0.0
  0
LINE
  5
28E
330
1F
100
AcDbEntity
  8
Graypants_Kerf_P2
 62
    36
420
  8866048
370
    -3
100
AcDbLine
 10
26.36792731432035
 20
94.75907251388958
 30
0.0
 11
23.89218039158709
 21
85.56105811539624
 31
0.0
  0
LINE
  5
28F
330
1F
100
AcDbEntity
  8
Graypants_Kerf_P2
 62
    36
420
  8866048
370
    -3
100
AcDbLine
 10
52.02291406293466
 20
83.4756630755162
 30
0.0
 11
47.0534904398005
 21
75.34930999460471
 31
0.0
  0
ARC
  5
290
330
1F
100
AcDbEntity
  8
Graypants_Kerf_P2
 62
    36
420
  8866048
370
    -3
100
AcDbCircle
 10
-0.009606836085573
 20
-0.0064823987856964
 30
0.0
 40
98.37093453949647
100
AcDbArc
 50
25.30372771275677
 51
40.1954667366972
  0
LINE
  5
291
330
1F
100
AcDbEntity
  8
Graypants_Kerf_P2
 62
    36
420
  8866048
370
    -3
100
AcDbLine
 10
97.16952712113994
 20
15.25118629911094
 30
0.0
 11
87.77210815747833
 21
13.69513718108442
 31
0.0
  0
ARC
  5
292
330
1F
100
AcDbEntity
  8
Graypants_Kerf_P2
 62
    36
420
  8866048
370
    -3
100
AcDbCircle
 10
-0.0311157751065086
 20
0.0001740274181992
 30
0.0
 40
101.5031329134546
210
0.0
220
0.0
230
-1.0
100
AcDbArc
 50
172.5669169980771
 51
187.4638824272812
  0
ARC
  5
293
330
1F
100
AcDbEntity
  8
Graypants_Kerf_P2
 62
    36
420
  8866048
370
    -3
100
AcDbCircle
 10
-0.0041627019939923
 20
-0.0001997050657423
 30
0.0
 40
101.5297926476654
210
0.0
220
0.0
230
-1.0
100
AcDbArc
 50
188.9508734712115
 51
203.8415710500389
  0
ARC
  5
294
330
1F
100
AcDbEntity
  8
Graypants_Kerf_P2
 62
    36
420
  8866048
370
    -3
100
AcDbCircle
 10
-0.0014891762639927
 20
0.0003854356673711
 30
0.0
 40
101.532480255446
210
0.0
220
0.0
230
-1.0
100
AcDbArc
 50
205.3300749034528
 51
220.2248881358971
  0
ARC
  5
295
330
1F
100
AcDbEntity
  8
Graypants_Kerf_P2
 62
    36
420
  8866048
370
    -3
100
AcDbCircle
 10
-0.0013907808221732
 20
0.0003345847900225
 30
0.0
 40
101.5325085994352
210
0.0
220
0.0
230
-1.0
100
AcDbArc
 50
221.7140310692029
 51
236.6097776856635
  0
ARC
  5
296
330
1F
100
AcDbEntity
  8
Graypants_Kerf_P2
 62
    36
420
  8866048
370
    -3
100
AcDbCircle
 10
-0.021714343966414
 20
-0.0425244295312091
 30
0.0
 40
101.485350112582
210
0.0
220
0.0
230
-1.0
100
AcDbArc
 50
238.0958156422476
 51
252.9960843900894
  0
ARC
  5
297
330
1F
100
AcDbEntity
  8
Graypants_Kerf_P2
 62
    36
420
  8866048
370
    -3
100
AcDbCircle
 10
-0.0006771348201813
 20
-0.0066365441847727
 30
0.0
 40
101.5257892051759
210
0.0
220
0.0
230
-1.0
100
AcDbArc
 50
254.4796204761014
 51
269.3748313018113
  0
ARC
  5
298
330
1F
100
AcDbEntity
  8
Graypants_Kerf_P2
 62
    36
420
  8866048
370
    -3
100
AcDbCircle
 10
-0.0005362022483912
 20
-0.001917476166748
 30
0.0
 40
101.5359909321875
210
0.0
220
0.0
230
-1.0
100
AcDbArc
 50
90.65749275538487
 51
105.5492960507541
  0
ARC
  5
299
330
1F
100
AcDbEntity
  8
Graypants_Kerf_P2
 62
    36
420
  8866048
370
    -3
100
AcDbCircle
 10
0.0000670658710852
 20
-0.0009262591927539
 30
0.0
 40
101.5352129036016
210
0.0
220
0.0
230
-1.0
100
AcDbArc
 50
107.038092241369
 51
121.9313326940682
  0
ARC
  5
29A
330
1F
100
AcDbEntity
  8
Graypants_Kerf_P2
 62
    36
420
  8866048
370
    -3
100
AcDbCircle
 10
-0.0025202126807533
 20
0.0030829786484011
 30
0.0
 40
101.5304509907485
210
0.0
220
0.0
230
-1.0
100
AcDbArc
 50
123.4203197834477
 51
138.31417871843
  0
ARC
  5
29B
330
1F
100
AcDbEntity
  8
Graypants_Kerf_P2
 62
    36
420
  8866048
370
    -3
100
AcDbCircle
 10
0.0043124742249311
 20
-0.0031219154249256
 30
0.0
 40
101.5397157585023
210
0.0
220
0.0
230
-1.0
100
AcDbArc
 50
139.8039892082661
 51
154.6966926515413
  0
ARC
  5
29C
330
1F
100
AcDbEntity
  8
Graypants_Kerf_P2
 62
    36
420
  8866048
370
    -3
100
AcDbCircle
 10
0.0379190495195513
 20
-0.0092740698951779
 30
0.0
 40
101.5729682147045
210
0.0
220
0.0
230
-1.0
100
AcDbArc
 50
156.190361091435
 51
171.0781776155417
  0
ARC
  5
29D
330
1F
100
AcDbEntity
  8
Graypants_Kerf_P2
 62
    36
420
  8866048
370
    -3
100
AcDbCircle
 10
0.0222597304466215
 20
-0.0435146724519479
 30
0.0
 40
98.30921995974045
100
AcDbArc
 50
287.0036500454806
 51
301.9043338975322
  0
ARC
  5
29E
330
1F
100
AcDbEntity
  8
Graypants_Kerf_P2
 62
    36
420
  8866048
370
    -3
100
AcDbCircle
 10
0.0005427472672757
 20
0.0004192932609337
 30
0.0
 40
98.35874867957662
100
AcDbArc
 50
58.06854309948038
 51
72.96202391880608
  0
ARC
  5
29F
330
1F
100
AcDbEntity
  8
Graypants_Kerf_P2
 62
    36
420
  8866048
370
    -3
100
AcDbCircle
 10
0.000138653471015
 20
0.0003523312046261
 30
0.0
 40
98.35904208805728
100
AcDbArc
 50
41.68607783657385
 51
56.57939786653701
  0
ARC
  5
2A0
330
1F
100
AcDbEntity
  8
Graypants_Kerf_P2
 62
    36
420
  8866048
370
    -3
100
AcDbCircle
 10
-0.0408049996770181
 20
-0.0102882267015976
 30
0.0
 40
98.40102273727423
100
AcDbArc
 50
8.922287063934375
 51
23.80935109098459
  0
ARC
  5
2A1
330
1F
100
AcDbEntity
  8
Graypants_Kerf_P2
 62
    36
420
  8866048
370
    -3
100
AcDbCircle
 10
6.349164134128919
 20
82.81970419631936
 30
0.0
 40
1.714494939872004
210
0.0
220
0.0
230
-1.0
100
AcDbArc
 50
269.9998308980669
 51
0.0001691019329228
  0
ARC
  5
2A2
330
1F
100
AcDbEntity
  8
Graypants_Kerf_P2
 62
    36
420
  8866048
370
    -3
100
AcDbCircle
 10
6.349154013857921
 20
82.81970419631939
 30
0.0
 40
1.714494939872027
210
0.0
220
0.0
230
-1.0
100
AcDbArc
 50
179.999830898068
 51
270.0001691019322
  0
LINE
  5
2A3
330
1F
100
AcDbEntity
  8
Graypants_Kerf_P2
 62
    36
420
  8866048
370
    -3
100
AcDbLine
 10
6.350840926006413
 20
98.17400925645484
 30
0.0
 11
6.032295449837356
 21
98.17400925645491
 31
0.0
  0
ARC
  5
2A4
330
1F
100
AcDbEntity
  8
Graypants_Kerf_P2
 62
    36
420
  8866048
370
    -3
100
AcDbCircle
 10
-6.35083586587165
 20
82.81970419631988
 30
0.0
 40
1.714494939872515
210
0.0
220
0.0
230
-1.0
100
AcDbArc
 50
269.9998308980844
 51
0.0001691019158262
  0
ARC
  5
2A5
330
1F
100
AcDbEntity
  8
Graypants_Kerf_P2
 62
    36
420
  8866048
370
    -3
100
AcDbCircle
 10
-6.350845986142273
 20
82.81970419631924
 30
0.0
 40
1.714494939871877
210
0.0
220
0.0
230
-1.0
100
AcDbArc
 50
179.9998308980628
 51
270.0001691019372
  0
ARC
  5
2A6
330
1F
100
AcDbEntity
  8
Graypants_Kerf_P2
 62
    36
420
  8866048
370
    -3
100
AcDbCircle
 10
0.0027008832566945
 20
0.0005174713060729
 30
0.0
 40
84.71866510740462
100
AcDbArc
 50
86.86457965316387
 51
93.13752771218802
  0
ARC
  5
2A7
330
1F
100
AcDbEntity
  8
Graypants_Kerf_P2
 62
    36
420
  8866048
370
    -3
100
AcDbCircle
 10
-6.349164134128937
 20
-82.81805762497325
 30
0.0
 40
1.714494939871989
100
AcDbArc
 50
89.99983089806625
 51
180.0001691019258
  0
ARC
  5
2A8
330
1F
100
AcDbEntity
  8
Graypants_Kerf_P2
 62
    36
420
  8866048
370
    -3
100
AcDbCircle
 10
-6.349154013857885
 20
-82.81805762497325
 30
0.0
 40
1.71449493987199
100
AcDbArc
 50
359.9998308980666
 51
90.00016910193338
  0
ARC
  5
2A9
330
1F
100
AcDbEntity
  8
Graypants_Kerf_P2
 62
    36
420
  8866048
370
    -3
100
AcDbCircle
 10
6.35083586587162
 20
-82.81805762497376
 30
0.0
 40
1.714494939872501
100
AcDbArc
 50
89.99983089808335
 51
180.0001691019087
  0
ARC
  5
2AA
330
1F
100
AcDbEntity
  8
Graypants_Kerf_P2
 62
    36
420
  8866048
370
    -3
100
AcDbCircle
 10
6.350845986142247
 20
-82.81805762497316
 30
0.0
 40
1.714494939871904
100
AcDbArc
 50
359.9998308980637
 51
90.00016910193625
  0
ARC
  5
2AB
330
1F
100
AcDbEntity
  8
Graypants_Kerf_P2
 62
    36
420
  8866048
370
    -3
100
AcDbCircle
 10
0.0356891944001326
 20
0.0050371495513544
 30
0.0
 40
88.83613247646377
210
0.0
220
0.0
230
-1.0
100
AcDbArc
 50
266.9852485065721
 51
270.6337344333207
  0
ARC
  5
2AC
330
1F
100
AcDbEntity
  8
Graypants_Kerf_P2
 62
    36
420
  8866048
370
    -3
100
AcDbCircle
 10
-0.027925633812928
 20
-0.2214281378555749
 30
0.0
 40
84.49494690977521
100
AcDbArc
 50
266.8746376838358
 51
273.164434202008
  0
ARC
  5
2AD
330
1F
100
AcDbEntity
  8
Graypants_Kerf_P2
 62
    36
420
  8866048
370
    -3
100
AcDbCircle
 10
0.0536053523212303
 20
0.4545133865928547
 30
0.0
 40
89.28577084782823
210
0.0
220
0.0
230
-1.0
100
AcDbArc
 50
255.4117476238288
 51
264.7824408300393
  0
LINE
  5
2AE
330
1F
100
AcDbEntity
  8
Graypants_Kerf_P2
 62
    36
420
  8866048
370
    -3
100
AcDbLine
 10
47.92189352652193
 20
-74.79907963153674
 30
0.0
 11
47.01406260624256
 21
-75.3727231129868
 31
0.0
  0
LINE
  5
2AF
330
1F
100
AcDbEntity
  8
Graypants_Kerf_P2
 62
    36
420
  8866048
370
    -3
100
AcDbLine
 10
48.82225013923573
 20
-74.21382103476458
 30
0.0
 11
47.9215429320742
 21
-74.79853212442026
 31
0.0
  0
ARC
  5
2B0
330
1F
100
AcDbEntity
  8
Graypants_Kerf_P2
 62
    36
420
  8866048
370
    -3
100
AcDbCircle
 10
0.0005976361848435
 20
-0.0060764143115094
 30
0.0
 40
98.35135018185296
100
AcDbArc
 50
270.625369900624
 51
285.5203074633542
  0
ARC
  5
2B1
330
1F
100
AcDbEntity
  8
Graypants_Kerf_P2
 62
    36
420
  8866048
370
    -3
100
AcDbCircle
 10
-0.081811728575491
 20
0.3224741001288328
 30
0.0
 40
89.16049202442612
210
0.0
220
0.0
230
-1.0
100
AcDbArc
 50
275.2414315002329
 51
293.5112026710677
  0
LINE
  5
2B2
330
1F
100
AcDbEntity
  8
Graypants_Kerf_P2
 62
    36
420
  8866048
370
    -3
100
AcDbLine
 10
-47.01256829818601
 20
75.37468315639603
 30
0.0
 11
-51.97725132474829
 21
83.50297581790278
 31
0.0
  0
LINE
  5
2B3
330
1F
100
AcDbEntity
  8
Graypants_Kerf_P2
 62
    36
420
  8866048
370
    -3
100
AcDbLine
 10
-0.9692630827637445
 20
88.82863974983377
 30
0.0
 11
1.019846496061176
 21
88.82817976654076
 31
0.0
  0
LINE
  5
2B4
330
1F
100
AcDbEntity
  8
Graypants_Kerf_P2
 62
    36
420
  8866048
370
    -3
100
AcDbLine
 10
-24.8773096395315
 20
85.27937794271877
 30
0.0
 11
-23.84458356245054
 21
85.57384938331977
 31
0.0
  0
ARC
  5
2B5
330
1F
100
AcDbEntity
  8
Graypants_Kerf_P2
 62
    36
420
  8866048
370
    -3
100
AcDbCircle
 10
-0.0871530120141457
 20
-0.1871427706699764
 30
0.0
 40
89.03909065565135
210
0.0
220
0.0
230
-1.0
100
AcDbArc
 50
63.00747041401786
 51
70.38606482041583
  0
LINE
  5
2B6
330
1F
100
AcDbEntity
  8
Graypants_Kerf_P2
 62
    36
420
  8866048
370
    -3
100
AcDbLine
 10
-80.77880288018801
 20
36.96060076278259
 30
0.0
 11
-80.32597434981338
 21
37.93448769610491
 31
0.0
  0
ARC
  5
2B7
330
1F
100
AcDbEntity
  8
Graypants_Kerf_P2
 62
    36
420
  8866048
370
    -3
100
AcDbCircle
 10
-0.288699130880486
 20
-0.0686342099258919
 30
0.0
 40
89.12493058595021
210
0.0
220
0.0
230
-1.0
100
AcDbArc
 50
3.662875832689014
 51
23.49853359523575
  0
LINE
  5
2B8
330
1F
100
AcDbEntity
  8
Graypants_Kerf_P2
 62
    36
420
  8866048
370
    -3
100
AcDbLine
 10
-47.9198610800612
 20
74.80017869576636
 30
0.0
 11
-54.77060726267882
 21
85.49397292860249
 31
0.0
  0
LINE
  5
2B9
330
1F
100
AcDbEntity
  8
Graypants_Kerf_P2
 62
    36
420
  8866048
370
    -3
100
AcDbLine
 10
-67.10235946725436
 20
-58.21000298344393
 30
0.0
 11
-76.69560468878308
 21
-66.53224103062666
 31
0.0
  0
ARC
  5
2BA
330
1F
100
AcDbEntity
  8
Graypants_Kerf_P2
 62
    36
420
  8866048
370
    -3
100
AcDbCircle
 10
0.0009377085531756
 20
0.0084896561337511
 30
0.0
 40
88.82558199822897
100
AcDbArc
 50
90.62582871272598
 51
105.5721940430272
  0
ARC
  5
2BB
330
1F
100
AcDbEntity
  8
Graypants_Kerf_P2
 62
    36
420
  8866048
370
    -3
100
AcDbCircle
 10
0.044294418216594
 20
0.0124457465475627
 30
0.0
 40
88.87788176582974
100
AcDbArc
 50
188.8710327571971
 51
203.8605743768615
  0
ARC
  5
2BC
330
1F
100
AcDbEntity
  8
Graypants_Kerf_P2
 62
    36
420
  8866048
370
    -3
100
AcDbCircle
 10
-0.0206389334993498
 20
0.0453026374434268
 30
0.0
 40
88.78408269886523
100
AcDbArc
 50
106.9512025658746
 51
121.9567196284104
  0
ARC
  5
2BD
330
1F
100
AcDbEntity
  8
Graypants_Kerf_P2
 62
    36
420
  8866048
370
    -3
100
AcDbCircle
 10
-0.0315818028802753
 20
0.0014644040560996
 30
0.0
 40
88.80101527148253
100
AcDbArc
 50
172.4837501707529
 51
187.4857940816316
  0
ARC
  5
2BE
330
1F
100
AcDbEntity
  8
Graypants_Kerf_P2
 62
    36
420
  8866048
370
    -3
100
AcDbCircle
 10
-0.0040508183783367
 20
0.0023057726822691
 30
0.0
 40
88.82816851833572
100
AcDbArc
 50
156.1064064516614
 51
171.1012232032921
  0
ARC
  5
2BF
330
1F
100
AcDbEntity
  8
Graypants_Kerf_P2
 62
    36
420
  8866048
370
    -3
100
AcDbCircle
 10
0.0029940546275766
 20
-0.0005019681821199
 30
0.0
 40
88.83576585642894
100
AcDbArc
 50
139.723495532722
 51
154.7214397204393
  0
LINE
  5
2C0
330
1F
100
AcDbEntity
  8
Graypants_Kerf_P2
 62
    36
420
  8866048
370
    -3
100
AcDbLine
 10
-54.129658352658
 20
82.12408003438895
 30
0.0
 11
-48.82056828722273
 21
74.21546760611068
 31
0.0
  0
ARC
  5
2C1
330
1F
100
AcDbEntity
  8
Graypants_Kerf_P2
 62
    36
420
  8866048
370
    -3
100
AcDbCircle
 10
0.0024893135110807
 20
-0.001165902116855
 30
0.0
 40
88.83580158235266
100
AcDbArc
 50
123.3387272251022
 51
138.3377004725679
  0
LINE
  5
2C2
330
1F
100
AcDbEntity
  8
Graypants_Kerf_P2
 62
    36
420
  8866048
370
    -3
100
AcDbLine
 10
-23.84449948483859
 20
85.57354760843168
 30
0.0
 11
-26.31576031420298
 21
94.77275755313735
 31
0.0
  0
ARC
  5
2C3
330
1F
100
AcDbEntity
  8
Graypants_Kerf_P2
 62
    36
420
  8866048
370
    -3
100
AcDbCircle
 10
0.0010842158280142
 20
0.0077229856595074
 30
0.0
 40
98.35135018185103
100
AcDbArc
 50
90.62536990062397
 51
105.5203074633544
  0
ARC
  5
2C4
330
1F
100
AcDbEntity
  8
Graypants_Kerf_P2
 62
    36
420
  8866048
370
    -3
100
AcDbCircle
 10
0.0013406042175399
 20
0.0049333847136899
 30
0.0
 40
98.36236241695195
100
AcDbArc
 50
254.4507965369498
 51
269.342401081619
  0
ARC
  5
2C5
330
1F
100
AcDbEntity
  8
Graypants_Kerf_P2
 62
    36
420
  8866048
370
    -3
100
AcDbCircle
 10
0.0012815101224586
 20
0.0045410570435467
 30
0.0
 40
88.8369694365205
100
AcDbArc
 50
254.3988226918926
 51
269.3424190489802
  0
ARC
  5
2C6
330
1F
100
AcDbEntity
  8
Graypants_Kerf_P2
 62
    36
420
  8866048
370
    -3
100
AcDbCircle
 10
0.0015965435392211
 20
0.0021875881725925
 30
0.0
 40
88.834807265495
100
AcDbArc
 50
238.016631819696
 51
253.0138681286979
  0
LINE
  5
2C7
330
1F
100
AcDbEntity
  8
Graypants_Kerf_P2
 62
    36
420
  8866048
370
    -3
100
AcDbLine
 10
-73.4529700524613
 20
-65.41227960763422
 30
0.0
 11
-66.39327956998022
 21
-59.01747890144475
 31
0.0
  0
ARC
  5
2C8
330
1F
100
AcDbEntity
  8
Graypants_Kerf_P2
 62
    36
420
  8866048
370
    -3
100
AcDbCircle
 10
0.0019617774319238
 20
0.0018313303675074
 30
0.0
 40
88.83471761546836
100
AcDbArc
 50
221.6341746506091
 51
236.6312682730463
  0
LINE
  5
2C9
330
1F
100
AcDbEntity
  8
Graypants_Kerf_P2
 62
    36
420
  8866048
370
    -3
100
AcDbLine
 10
-67.8016060648697
 20
-57.39406581051207
 30
0.0
 11
-75.12906390170428
 21
-63.48020204316549
 31
0.0
  0
ARC
  5
2CA
330
1F
100
AcDbEntity
  8
Graypants_Kerf_P2
 62
    36
420
  8866048
370
    -3
100
AcDbCircle
 10
0.0118525710726351
 20
0.0084934887208339
 30
0.0
 40
88.84660368450001
100
AcDbArc
 50
205.251787576235
 51
220.2471595030196
  0
LINE
  5
2CB
330
1F
100
AcDbEntity
  8
Graypants_Kerf_P2
 62
    36
420
  8866048
370
    -3
100
AcDbLine
 10
92.32893563403525
 20
-42.24276812221001
 30
0.0
 11
80.78032030666805
 21
-36.95887895911346
 31
0.0
  0
LINE
  5
2CC
330
1F
100
AcDbEntity
  8
Graypants_Kerf_P2
 62
    36
420
  8866048
370
    -3
100
AcDbLine
 10
47.9215429320742
 20
-74.79853212442026
 30
0.0
 11
54.77228911469183
 21
-85.49232635725639
 31
0.0
  0
LINE
  5
2CD
330
1F
100
AcDbEntity
  8
Graypants_Kerf_P2
 62
    36
420
  8866048
370
    -3
100
AcDbLine
 10
28.4358424711686
 20
-97.46908377173213
 30
0.0
 11
24.87887972490125
 21
-85.27734820706291
 31
0.0
  0
LINE
  5
2CE
330
1F
100
AcDbEntity
  8
Graypants_Kerf_P2
 62
    36
420
  8866048
370
    -3
100
AcDbLine
 10
28.48717644275814
 20
97.45612189533131
 30
0.0
 11
24.92407602000708
 21
85.26619501051596
 31
0.0
  0
LINE
  5
2CF
330
1F
100
AcDbEntity
  8
Graypants_Kerf_P2
 62
    36
420
  8866048
370
    -3
100
AcDbLine
 10
67.10404131926737
 20
58.21164955479003
 30
0.0
 11
76.69728654079609
 21
66.53388760197276
 31
0.0
  0
LINE
  5
2D0
330
1F
100
AcDbEntity
  8
Graypants_Kerf_P2
 62
    36
420
  8866048
370
    -3
100
AcDbLine
 10
92.3496975879566
 20
42.199420876663
 30
0.0
 11
80.79866042139952
 21
36.92082113414949
 31
0.0
  0
LINE
  5
2D1
330
1F
100
AcDbEntity
  8
Graypants_Kerf_P2
 62
    36
420
  8866048
370
    -3
100
AcDbLine
 10
89.96602128913162
 20
-39.75607075426319
 30
0.0
 11
81.22126051569171
 21
-35.97956356390796
 31
0.0
  0
ARC
  5
2D2
330
1F
100
AcDbEntity
  8
Graypants_Kerf_P2
 62
    36
420
  8866048
370
    -3
100
AcDbCircle
 10
0.0007441434599251
 20
-0.0068430847883367
 30
0.0
 40
88.82558199822827
100
AcDbArc
 50
270.625828712726
 51
285.5721940430273
  0
ARC
  5
2D3
330
1F
100
AcDbEntity
  8
Graypants_Kerf_P2
 62
    36
420
  8866048
370
    -3
100
AcDbCircle
 10
-0.0426125662020392
 20
-0.0107991752010088
 30
0.0
 40
88.87788176582814
100
AcDbArc
 50
8.87103275719695
 51
23.8605743768616
  0
ARC
  5
2D4
330
1F
100
AcDbEntity
  8
Graypants_Kerf_P2
 62
    36
420
  8866048
370
    -3
100
AcDbCircle
 10
0.0223207855105002
 20
-0.0436560660927036
 30
0.0
 40
88.7840826988702
100
AcDbArc
 50
286.9512025658748
 51
301.9567196284099
  0
ARC
  5
2D5
330
1F
100
AcDbEntity
  8
Graypants_Kerf_P2
 62
    36
420
  8866048
370
    -3
100
AcDbCircle
 10
0.0332636548949423
 20
0.0001821672900002
 30
0.0
 40
88.80101527148089
100
AcDbArc
 50
352.4837501707528
 51
7.485794081631772
  0
ARC
  5
2D6
330
1F
100
AcDbEntity
  8
Graypants_Kerf_P2
 62
    36
420
  8866048
370
    -3
100
AcDbCircle
 10
0.005732670388269
 20
-0.0006592013348168
 30
0.0
 40
88.82816851833907
100
AcDbArc
 50
336.1064064516614
 51
351.1012232032915
  0
ARC
  5
2D7
330
1F
100
AcDbEntity
  8
Graypants_Kerf_P2
 62
    36
420
  8866048
370
    -3
100
AcDbCircle
 10
-0.001312202620537
 20
0.0021485395325241
 30
0.0
 40
88.83576585643627
100
AcDbArc
 50
319.7234955327223
 51
334.7214397204385
  0
LINE
  5
2D8
330
1F
100
AcDbEntity
  8
Graypants_Kerf_P2
 62
    36
420
  8866048
370
    -3
100
AcDbLine
 10
54.13134020467101
 20
-82.12243346304285
 30
0.0
 11
48.82225013923573
 21
-74.21382103476458
 31
0.0
  0
ARC
  5
2D9
330
1F
100
AcDbEntity
  8
Graypants_Kerf_P2
 62
    36
420
  8866048
370
    -3
100
AcDbCircle
 10
-0.0008074614956385
 20
0.0028124734601308
 30
0.0
 40
88.83580158234896
100
AcDbArc
 50
303.3387272251019
 51
318.3377004725683
  0
LINE
  5
2DA
330
1F
100
AcDbEntity
  8
Graypants_Kerf_P2
 62
    36
420
  8866048
370
    -3
100
AcDbLine
 10
47.01382781538064
 20
-75.37234653487417
 30
0.0
 11
51.9789331767613
 21
-83.50132924655668
 31
0.0
  0
LINE
  5
2DB
330
1F
100
AcDbEntity
  8
Graypants_Kerf_P2
 62
    36
420
  8866048
370
    -3
100
AcDbLine
 10
28.77108306576361
 20
-94.05525801299086
 30
0.0
 11
25.90795375537505
 21
-84.97037357259524
 31
0.0
  0
LINE
  5
2DC
330
1F
100
AcDbEntity
  8
Graypants_Kerf_P2
 62
    36
420
  8866048
370
    -3
100
AcDbLine
 10
23.8461813368516
 20
-85.57190103708558
 30
0.0
 11
26.3174421662161
 21
-94.77111098179125
 31
0.0
  0
ARC
  5
2DD
330
1F
100
AcDbEntity
  8
Graypants_Kerf_P2
 62
    36
420
  8866048
370
    -3
100
AcDbCircle
 10
0.000341247795722
 20
-0.0032868133657559
 30
0.0
 40
98.36236241695012
100
AcDbArc
 50
74.45079653694971
 51
89.3424010816191
  0
ARC
  5
2DE
330
1F
100
AcDbEntity
  8
Graypants_Kerf_P2
 62
    36
420
  8866048
370
    -3
100
AcDbCircle
 10
0.0004003418903768
 20
-0.0028944856994624
 30
0.0
 40
88.83696943652252
100
AcDbArc
 50
74.3988226918928
 51
89.34241904898002
  0
LINE
  5
2DF
330
1F
100
AcDbEntity
  8
Graypants_Kerf_P2
 62
    36
420
  8866048
370
    -3
100
AcDbLine
 10
25.95230614380841
 20
84.95889174735612
 30
0.0
 11
28.82019576219818
 21
94.04227721786333
 31
0.0
  0
ARC
  5
2E0
330
1F
100
AcDbEntity
  8
Graypants_Kerf_P2
 62
    36
420
  8866048
370
    -3
100
AcDbCircle
 10
0.0000853084731646
 20
-0.0005410168278636
 30
0.0
 40
88.8348072654965
100
AcDbArc
 50
58.01663181969613
 51
73.01386812869772
  0
LINE
  5
2E1
330
1F
100
AcDbEntity
  8
Graypants_Kerf_P2
 62
    36
420
  8866048
370
    -3
100
AcDbLine
 10
73.4546519044743
 20
65.41392617898032
 30
0.0
 11
66.39496142199323
 21
59.01912547279085
 31
0.0
  0
ARC
  5
2E2
330
1F
100
AcDbEntity
  8
Graypants_Kerf_P2
 62
    36
420
  8866048
370
    -3
100
AcDbCircle
 10
-0.0002799254177557
 20
-0.0001847590200635
 30
0.0
 40
88.83471761546662
100
AcDbArc
 50
41.63417465060893
 51
56.63126827304644
  0
LINE
  5
2E3
330
1F
100
AcDbEntity
  8
Graypants_Kerf_P2
 62
    36
420
  8866048
370
    -3
100
AcDbLine
 10
67.80328791688271
 20
57.39571238185817
 30
0.0
 11
75.13074575371729
 21
63.48184861451159
 31
0.0
  0
LINE
  5
2E4
330
1F
100
AcDbEntity
  8
Graypants_Kerf_P2
 62
    36
420
  8866048
370
    -3
100
AcDbLine
 10
88.92310315458451
 20
42.03889613309661
 30
0.0
 11
80.34641468034135
 21
37.89484393170756
 31
0.0
  0
ARC
  5
2E5
330
1F
100
AcDbEntity
  8
Graypants_Kerf_P2
 62
    36
420
  8866048
370
    -3
100
AcDbCircle
 10
-0.010170719064747
 20
-0.0068469173784991
 30
0.0
 40
88.84660368450636
100
AcDbArc
 50
25.25178757623577
 51
40.24715950301936
  0
LINE
  5
2E6
330
1F
100
AcDbEntity
  8
Graypants_Kerf_P2
 62
    36
420
  8866048
370
    -3
100
AcDbLine
 10
81.23910057306352
 20
35.94140487860727
 30
0.0
 11
89.98568003727564
 21
39.71367516610326
 31
0.0
  0
ARC
  5
2E7
330
1F
100
AcDbEntity
  8
Graypants_Kerf_P2
 62
    36
420
  8866048
370
    -3
100
AcDbCircle
 10
0.0019023317276165
 20
0.0010484094216922
 30
0.0
 40
84.71823801028411
100
AcDbArc
 50
95.46305315351873
 51
264.5369071918296
  0
ARC
  5
2E8
330
1F
100
AcDbEntity
  8
Graypants_Kerf_P2
 62
    36
420
  8866048
370
    -3
100
AcDbCircle
 10
0.0019283624450811
 20
0.0027237076807495
 30
0.0
 40
84.71612689227327
100
AcDbArc
 50
275.4620573736401
 51
84.53816093165293
  0
ARC
  5
2E9
330
1F
100
AcDbEntity
  8
Graypants_Kerf_P2
 62
    36
420
  8866048
370
    -3
100
AcDbCircle
 10
0.1095824718184881
 20
-0.0194616679952399
 30
0.0
 40
88.9423587912149
210
0.0
220
0.0
230
-1.0
100
AcDbArc
 50
154.7680156108434
 51
183.196282768396
  0
ARC
  5
2EA
330
1F
100
AcDbEntity
  8
Graypants_Kerf_P2
 62
    36
420
  8866048
370
    -3
100
AcDbCircle
 10
0.2867307665467215
 20
0.0703021069511179
 30
0.0
 40
89.12464984951444
210
0.0
220
0.0
230
-1.0
100
AcDbArc
 50
183.6671648242211
 51
203.5270956170838
  0
LINE
  5
2EB
330
1F
100
AcDbEntity
  8
Graypants_Kerf_P2
 62
    36
420
  8866048
370
    -3
100
AcDbLine
 10
80.78059108432453
 20
-36.95870958387552
 30
0.0
 11
80.3278203740492
 21
-37.93248992695265
 31
0.0
  0
ARC
  5
2EC
330
1F
100
AcDbEntity
  8
Graypants_Kerf_P2
 62
    36
420
  8866048
370
    -3
100
AcDbCircle
 10
0.0871758380089773
 20
0.0754977063502882
 30
0.0
 40
88.94486892176619
210
0.0
220
0.0
230
-1.0
100
AcDbArc
 50
205.5618280208925
 51
236.6405252055679
  0
ARC
  5
2ED
330
1F
100
AcDbEntity
  8
Graypants_Kerf_P2
 62
    36
420
  8866048
370
    -3
100
AcDbCircle
 10
-0.1156091245878026
 20
-0.3003354222095516
 30
0.0
 40
88.5128876544652
210
0.0
220
0.0
230
-1.0
100
AcDbArc
 50
243.0084407763395
 51
254.448429677503
  0
ARC
  5
2EE
330
1F
100
AcDbEntity
  8
Graypants_Kerf_P2
 62
    36
420
  8866048
370
    -3
100
AcDbCircle
 10
-0.0221705634804977
 20
0.0233917325761498
 30
0.0
 40
88.862806168228
210
0.0
220
0.0
230
-1.0
100
AcDbArc
 50
295.581062155576
 51
330.8977717411817
  0
ARC
  5
2EF
330
1F
100
AcDbEntity
  8
Graypants_Kerf_P2
 62
    36
420
  8866048
370
    -3
100
AcDbCircle
 10
-0.2681061223898419
 20
0.1476565886572699
 30
0.0
 40
89.13812823588684
210
0.0
220
0.0
230
-1.0
100
AcDbArc
 50
332.9152415857642
 51
332.9999998339243
  0
ARC
  5
2F0
330
1F
100
AcDbEntity
  8
Graypants_Kerf_P2
 62
    36
420
  8866048
370
    -3
100
AcDbCircle
 10
-0.1263264008508904
 20
0.0229100944891036
 30
0.0
 40
88.95729832477066
210
0.0
220
0.0
230
-1.0
100
AcDbArc
 50
335.4629528842233
 51
3.192109921159578
  0
ARC
  5
2F1
330
1F
100
AcDbEntity
  8
Graypants_Kerf_P2
 62
    36
420
  8866048
370
    -3
100
AcDbCircle
 10
-0.0677346844119658
 20
-0.0571822210731103
 30
0.0
 40
88.91862134104377
210
0.0
220
0.0
230
-1.0
100
AcDbArc
 50
25.55824383345982
 51
58.03006729575579
  0
ARC
  5
2F2
330
1F
100
AcDbEntity
  8
Graypants_Kerf_P2
 62
    36
420
  8866048
370
    -3
100
AcDbCircle
 10
0.0426733008628745
 20
-0.0511869010916125
 30
0.0
 40
88.89623751265032
210
0.0
220
0.0
230
-1.0
100
AcDbArc
 50
106.3112591920459
 51
151.6215726367722
  0
LINE
  5
2F3
330
1F
100
AcDbEntity
  8
Graypants_Kerf_P2
 62
    36
420
  8866048
370
    -3
100
AcDbLine
 10
78.29493909808251
 20
41.96962054728299
 30
0.0
 11
79.1566049647772
 21
40.32125804767809
 31
0.0
  0
LINE
  5
2F4
330
1F
100
AcDbEntity
  8
Graypants_Kerf_P2
 62
    36
420
  8866048
370
    -3
100
AcDbLine
 10
-8.063659073993561
 20
82.8197092564544
 30
0.0
 11
-8.063659073993561
 21
88.46720823984718
 31
0.0
  0
LINE
  5
2F5
330
1F
100
AcDbEntity
  8
Graypants_Kerf_P2
 62
    36
420
  8866048
370
    -3
100
AcDbLine
 10
-4.634659073993475
 20
88.71312143288856
 30
0.0
 11
-4.634659073993475
 21
82.81970925645463
 31
0.0
  0
LINE
  5
2F6
330
1F
100
AcDbEntity
  8
Graypants_Kerf_P2
 62
    36
420
  8866048
370
    -3
100
AcDbLine
 10
4.636340926006482
 20
82.8197092564544
 30
0.0
 11
4.636340926006483
 21
88.71309571070219
 31
0.0
  0
LINE
  5
2F7
330
1F
100
AcDbEntity
  8
Graypants_Kerf_P2
 62
    36
420
  8866048
370
    -3
100
AcDbLine
 10
8.065340926006229
 20
88.4672244360479
 30
0.0
 11
8.065340926006341
 21
82.81970925645463
 31
0.0
  0
LINE
  5
2F8
330
1F
100
AcDbEntity
  8
Graypants_Kerf_P2
 62
    36
420
  8866048
370
    -3
100
AcDbLine
 10
-4.634659073993475
 20
-82.81806268510853
 30
0.0
 11
-4.634659073993475
 21
-88.7114423069372
 31
0.0
  0
LINE
  5
2F9
330
1F
100
AcDbEntity
  8
Graypants_Kerf_P2
 62
    36
420
  8866048
370
    -3
100
AcDbLine
 10
-8.063659073993563
 20
-88.4655778647018
 30
0.0
 11
-8.063659073993561
 21
-82.81806268510853
 31
0.0
  0
LINE
  5
2FA
330
1F
100
AcDbEntity
  8
Graypants_Kerf_P2
 62
    36
420
  8866048
370
    -3
100
AcDbLine
 10
8.065340926006341
 20
-82.81806268510853
 30
0.0
 11
8.065340926006229
 21
-88.46538990056001
 31
0.0
  0
LINE
  5
2FB
330
1F
100
AcDbEntity
  8
Graypants_Kerf_P2
 62
    36
420
  8866048
370
    -3
100
AcDbLine
 10
4.636340926006482
 20
-88.71140923586334
 30
0.0
 11
4.636340926006482
 21
-82.8180626851083
 31
0.0
  0
LINE
  5
2FC
330
1F
100
AcDbEntity
  8
Graypants_Kerf_P2
 62
    36
420
  8866048
370
    -3
100
AcDbLine
 10
0.9711969256554155
 20
-1012.133644858573
 30
0.0
 11
-1.017845122424606
 21
-1012.133644848665
 31
0.0
  0
LINE
  5
2FD
330
1F
100
AcDbEntity
  8
Graypants_Kerf_P2
 62
    36
420
  8866048
370
    -3
100
AcDbLine
 10
0.9710383343205111
 20
-1062.933644858572
 30
0.0
 11
-1.018003716263126
 21
-1062.933644848664
 31
0.0
  0
CIRCLE
  5
2FE
330
1F
100
AcDbEntity
  8
Graypants_Kerf_P2
 62
    36
420
  8866048
370
    -3
100
AcDbCircle
 10
0.000840926006447
 20
0.0008232856733336
 30
0.0
 40
23.99999999999994
  0
ENDSEC
  0
SECTION
  2
OBJECTS
  0
DICTIONARY
  5
C
330
0
100
AcDbDictionary
281
     1
  3
ACAD_DETAILVIEWSTYLE
350
33A
  3
ACAD_GROUP
350
D
  3
ACAD_LAYOUT
350
1A
  3
ACAD_MATERIAL
350
43
  3
ACAD_MLEADERSTYLE
350
6B
  3
ACAD_MLINESTYLE
350
17
  3
ACAD_PLOTSETTINGS
350
19
  3
ACAD_PLOTSTYLENAME
350
E
  3
ACAD_SCALELIST
350
47
  3
ACAD_SECTIONVIEWSTYLE
350
33B
  3
ACAD_TABLESTYLE
350
69
  3
ACAD_VISUALSTYLE
350
2A
  3
AcDbVariableDictionary
350
2FF
  3
ACDB_RECOMPOSE_DATA
350
337
  0
SUN
  5
6D
330
29
100
AcDbSun
 90
        1
290
     0
 63
     7
421
 16777215
 40
1.0
291
     1
 91
  2455826
 92
 54000000
292
     0
 70
     2
 71
   256
280
     1
  0
DICTIONARY
  5
33A
102
{ACAD_REACTORS
330
C
102
}
330
C
100
AcDbDictionary
281
     1
  0
DICTIONARY
  5
D
102
{ACAD_REACTORS
330
C
102
}
330
C
100
AcDbDictionary
281
     1
  0
DICTIONARY
  5
1A
102
{ACAD_REACTORS
330
C
102
}
330
C
100
AcDbDictionary
281
     1
  3
Layout1
350
1E
  3
Layout2
350
26
  3
Model
350
22
  0
DICTIONARY
  5
43
102
{ACAD_REACTORS
330
C
102
}
330
C
100
AcDbDictionary
281
     1
  3
ByBlock
350
45
  3
ByLayer
350
44
  3
Global
350
46
  0
DICTIONARY
  5
6B
102
{ACAD_REACTORS
330
C
102
}
330
C
100
AcDbDictionary
281
     1
  3
Standard
350
6C
  0
DICTIONARY
  5
17
102
{ACAD_REACTORS
330
C
102
}
330
C
100
AcDbDictionary
281
     1
  3
Standard
350
18
  0
DICTIONARY
  5
19
102
{ACAD_REACTORS
330
C
102
}
330
C
100
AcDbDictionary
281
     1
  0
ACDBDICTIONARYWDFLT
  5
E
102
{ACAD_REACTORS
330
C
102
}
330
C
100
AcDbDictionary
281
     1
  3
Normal
350
F
100
AcDbDictionaryWithDefault
340
F
  0
DICTIONARY
  5
47
102
{ACAD_REACTORS
330
C
102
}
330
C
100
AcDbDictionary
281
     1
  3
A0
350
48
  3
A1
350
49
  3
A2
350
4A
  3
A3
350
4B
  3
A4
350
4C
  3
A5
350
4D
  3
A6
350
4E
  3
A7
350
4F
  3
A8
350
50
  3
A9
350
51
  3
B0
350
52
  3
B1
350
53
  3
B2
350
54
  3
B3
350
55
  3
B4
350
56
  3
B5
350
57
  3
B6
350
58
  3
B7
350
59
  3
B8
350
5A
  3
B9
350
5B
  3
C0
350
5C
  3
C1
350
5D
  3
C2
350
5E
  3
C3
350
5F
  3
C4
350
60
  3
C5
350
61
  3
C6
350
62
  3
C7
350
63
  3
C8
350
64
  3
C9
350
65
  3
D0
350
66
  3
D1
350
67
  3
D2
350
68
  0
DICTIONARY
  5
33B
102
{ACAD_REACTORS
330
C
102
}
330
C
100
AcDbDictionary
281
     1
  0
DICTIONARY
  5
69
102
{ACAD_REACTORS
330
C
102
}
330
C
100
AcDbDictionary
281
     1
  3
Standard
350
6A
  0
DICTIONARY
  5
2A
102
{ACAD_REACTORS
330
C
102
}
330
C
100
AcDbDictionary
281
     1
  3
2dWireframe
350
2F
  3
Basic
350
32
  3
Brighten
350
36
  3
ColorChange
350
3A
  3
Conceptual
350
34
  3
Dim
350
35
  3
EdgeColorOff
350
3D
  3
Facepattern
350
39
  3
Flat
350
2B
  3
FlatWithEdges
350
2C
  3
Gouraud
350
2D
  3
GouraudWithEdges
350
2E
  3
Hidden
350
31
  3
JitterOff
350
3B
  3
Linepattern
350
38
  3
OverhangOff
350
3C
  3
Realistic
350
33
  3
Shaded
350
42
  3
Shaded with edges
350
41
  3
Shades of Gray
350
3E
  3
Sketchy
350
3F
  3
Thicken
350
37
  3
Wireframe
350
30
  3
X-Ray
350
40
  0
DICTIONARY
  5
2FF
102
{ACAD_REACTORS
330
C
102
}
330
C
100
AcDbDictionary
281
     1
  3
CANNOSCALE
350
300
  3
CMLEADERSTYLE
350
339
  3
CTABLESTYLE
350
338
  3
XCLIPFRAME
350
301
  0
XRECORD
  5
337
102
{ACAD_REACTORS
330
C
102
}
330
C
100
AcDbXrecord
280
     1
 90
        1
330
6A
  0
LAYOUT
  5
1E
102
{ACAD_REACTORS
330
1A
102
}
330
1A
100
AcDbPlotSettings
  1

  2
none_device
  4

  6

 40
0.0
 41
0.0
 42
0.0
 43
0.0
 44
0.0
 45
0.0
 46
0.0
 47
0.0
 48
0.0
 49
0.0
140
0.0
141
0.0
142
1.0
143
1.0
 70
   688
 72
     0
 73
     0
 74
     5
  7

 75
    16
 76
     0
 77
     2
 78
   300
147
1.0
148
0.0
149
0.0
100
AcDbLayout
  1
Layout1
 70
     1
 71
     1
 10
0.0
 20
0.0
 11
12.0
 21
9.0
 12
0.0
 22
0.0
 32
0.0
 14
1.000000000000000E+20
 24
1.000000000000000E+20
 34
1.000000000000000E+20
 15
-1.000000000000000E+20
 25
-1.000000000000000E+20
 35
-1.000000000000000E+20
146
0.0
 13
0.0
 23
0.0
 33
0.0
 16
1.0
 26
0.0
 36
0.0
 17
0.0
 27
1.0
 37
0.0
 76
     0
330
1B
  0
LAYOUT
  5
26
102
{ACAD_REACTORS
330
1A
102
}
330
1A
100
AcDbPlotSettings
  1

  2
none_device
  4

  6

 40
0.0
 41
0.0
 42
0.0
 43
0.0
 44
0.0
 45
0.0
 46
0.0
 47
0.0
 48
0.0
 49
0.0
140
0.0
141
0.0
142
1.0
143
1.0
 70
   688
 72
     0
 73
     0
 74
     5
  7

 75
    16
 76
     0
 77
     2
 78
   300
147
1.0
148
0.0
149
0.0
100
AcDbLayout
  1
Layout2
 70
     1
 71
     2
 10
0.0
 20
0.0
 11
0.0
 21
0.0
 12
0.0
 22
0.0
 32
0.0
 14
0.0
 24
0.0
 34
0.0
 15
0.0
 25
0.0
 35
0.0
146
0.0
 13
0.0
 23
0.0
 33
0.0
 16
1.0
 26
0.0
 36
0.0
 17
0.0
 27
1.0
 37
0.0
 76
     0
330
23
  0
LAYOUT
  5
22
102
{ACAD_REACTORS
330
1A
102
}
330
1A
100
AcDbPlotSettings
  1

  2
none_device
  4
Letter_(8.50_x_11.00_Inches)
  6

 40
6.35
 41
6.35
 42
6.35000508
 43
6.35000508
 44
215.9
 45
279.4
 46
0.0
 47
0.0
 48
0.0
 49
0.0
140
0.0
141
0.0
142
1.0
143
1.0
 70
  1712
 72
     0
 73
     0
 74
     0
  7

 75
     0
 76
     0
 77
     2
 78
   300
147
1.0
148
0.0
149
0.0
100
AcDbLayout
  1
Model
 70
     1
 71
     0
 10
0.0
 20
0.0
 11
12.0
 21
9.0
 12
0.0
 22
0.0
 32
0.0
 14
1.000000000000000E+20
 24
1.000000000000000E+20
 34
1.000000000000000E+20
 15
-1.000000000000000E+20
 25
-1.000000000000000E+20
 35
-1.000000000000000E+20
146
0.0
 13
0.0
 23
0.0
 33
0.0
 16
1.0
 26
0.0
 36
0.0
 17
0.0
 27
1.0
 37
0.0
 76
     0
330
1F
331
29
  0
MATERIAL
  5
45
102
{ACAD_REACTORS
330
43
102
}
330
43
100
AcDbMaterial
  1
ByBlock
 72
     1
 94
      127
  0
MATERIAL
  5
44
102
{ACAD_REACTORS
330
43
102
}
330
43
100
AcDbMaterial
  1
ByLayer
 72
     1
 94
      127
  0
MATERIAL
  5
46
102
{ACAD_REACTORS
330
43
102
}
330
43
100
AcDbMaterial
  1
Global
 72
     1
 94
      127
  0
MLEADERSTYLE
  5
6C
102
{ACAD_REACTORS
330
6B
102
}
102
{ACAD_XDICTIONARY
360
335
102
}
330
6B
100
AcDbMLeaderStyle
170
     2
171
     1
172
     0
 90
        2
 40
0.0
 41
0.0
173
     1
 91
-1056964608
340
14
 92
       -2
290
     1
 42
0.09
291
     1
 43
0.36
  3
Standard
341
0
 44
0.18
300

342
11
174
     1
178
     6
175
     1
176
     0
 93
-1056964608
 45
0.18
292
     0
297
     0
 46
0.18
343
0
 94
-1056964608
 47
1.0
 49
1.0
140
1.0
293
     1
141
0.0
294
     1
177
     0
142
1.0
295
     0
296
     0
143
0.125
1001
ACAD_MLEADERVER
1070
     2
  0
MLINESTYLE
  5
18
102
{ACAD_REACTORS
330
17
102
}
330
17
100
AcDbMlineStyle
  2
Standard
 70
     0
  3

 62
   256
 51
90.0
 52
90.0
 71
     2
 49
0.5
 62
   256
  6
BYLAYER
 49
-0.5
 62
   256
  6
BYLAYER
  0
ACDBPLACEHOLDER
  5
F
102
{ACAD_REACTORS
330
E
102
}
330
E
  0
SCALE
  5
48
102
{ACAD_REACTORS
330
47
102
}
330
47
100
AcDbScale
 70
     0
300
1:1
140
1.0
141
1.0
290
     1
  0
SCALE
  5
49
102
{ACAD_REACTORS
330
47
102
}
330
47
100
AcDbScale
 70
     0
300
1:2
140
1.0
141
2.0
290
     0
  0
SCALE
  5
4A
102
{ACAD_REACTORS
330
47
102
}
330
47
100
AcDbScale
 70
     0
300
1:4
140
1.0
141
4.0
290
     0
  0
SCALE
  5
4B
102
{ACAD_REACTORS
330
47
102
}
330
47
100
AcDbScale
 70
     0
300
1:5
140
1.0
141
5.0
290
     0
  0
SCALE
  5
4C
102
{ACAD_REACTORS
330
47
102
}
330
47
100
AcDbScale
 70
     0
300
1:8
140
1.0
141
8.0
290
     0
  0
SCALE
  5
4D
102
{ACAD_REACTORS
330
47
102
}
330
47
100
AcDbScale
 70
     0
300
1:10
140
1.0
141
10.0
290
     0
  0
SCALE
  5
4E
102
{ACAD_REACTORS
330
47
102
}
330
47
100
AcDbScale
 70
     0
300
1:16
140
1.0
141
16.0
290
     0
  0
SCALE
  5
4F
102
{ACAD_REACTORS
330
47
102
}
330
47
100
AcDbScale
 70
     0
300
1:20
140
1.0
141
20.0
290
     0
  0
SCALE
  5
50
102
{ACAD_REACTORS
330
47
102
}
330
47
100
AcDbScale
 70
     0
300
1:30
140
1.0
141
30.0
290
     0
  0
SCALE
  5
51
102
{ACAD_REACTORS
330
47
102
}
330
47
100
AcDbScale
 70
     0
300
1:40
140
1.0
141
40.0
290
     0
  0
SCALE
  5
52
102
{ACAD_REACTORS
330
47
102
}
330
47
100
AcDbScale
 70
     0
300
1:50
140
1.0
141
50.0
290
     0
  0
SCALE
  5
53
102
{ACAD_REACTORS
330
47
102
}
330
47
100
AcDbScale
 70
     0
300
1:100
140
1.0
141
100.0
290
     0
  0
SCALE
  5
54
102
{ACAD_REACTORS
330
47
102
}
330
47
100
AcDbScale
 70
     0
300
2:1
140
2.0
141
1.0
290
     0
  0
SCALE
  5
55
102
{ACAD_REACTORS
330
47
102
}
330
47
100
AcDbScale
 70
     0
300
4:1
140
4.0
141
1.0
290
     0
  0
SCALE
  5
56
102
{ACAD_REACTORS
330
47
102
}
330
47
100
AcDbScale
 70
     0
300
8:1
140
8.0
141
1.0
290
     0
  0
SCALE
  5
57
102
{ACAD_REACTORS
330
47
102
}
330
47
100
AcDbScale
 70
     0
300
10:1
140
10.0
141
1.0
290
     0
  0
SCALE
  5
58
102
{ACAD_REACTORS
330
47
102
}
330
47
100
AcDbScale
 70
     0
300
100:1
140
100.0
141
1.0
290
     0
  0
SCALE
  5
59
102
{ACAD_REACTORS
330
47
102
}
330
47
100
AcDbScale
 70
     0
300
1/128" = 1'-0"
140
0.0078125
141
12.0
290
     0
  0
SCALE
  5
5A
102
{ACAD_REACTORS
330
47
102
}
330
47
100
AcDbScale
 70
     0
300
1/64" = 1'-0"
140
0.015625
141
12.0
290
     0
  0
SCALE
  5
5B
102
{ACAD_REACTORS
330
47
102
}
330
47
100
AcDbScale
 70
     0
300
1/32" = 1'-0"
140
0.03125
141
12.0
290
     0
  0
SCALE
  5
5C
102
{ACAD_REACTORS
330
47
102
}
330
47
100
AcDbScale
 70
     0
300
1/16" = 1'-0"
140
0.0625
141
12.0
290
     0
  0
SCALE
  5
5D
102
{ACAD_REACTORS
330
47
102
}
330
47
100
AcDbScale
 70
     0
300
3/32" = 1'-0"
140
0.09375
141
12.0
290
     0
  0
SCALE
  5
5E
102
{ACAD_REACTORS
330
47
102
}
330
47
100
AcDbScale
 70
     0
300
1/8" = 1'-0"
140
0.125
141
12.0
290
     0
  0
SCALE
  5
5F
102
{ACAD_REACTORS
330
47
102
}
330
47
100
AcDbScale
 70
     0
300
3/16" = 1'-0"
140
0.1875
141
12.0
290
     0
  0
SCALE
  5
60
102
{ACAD_REACTORS
330
47
102
}
330
47
100
AcDbScale
 70
     0
300
1/4" = 1'-0"
140
0.25
141
12.0
290
     0
  0
SCALE
  5
61
102
{ACAD_REACTORS
330
47
102
}
330
47
100
AcDbScale
 70
     0
300
3/8" = 1'-0"
140
0.375
141
12.0
290
     0
  0
SCALE
  5
62
102
{ACAD_REACTORS
330
47
102
}
330
47
100
AcDbScale
 70
     0
300
1/2" = 1'-0"
140
0.5
141
12.0
290
     0
  0
SCALE
  5
63
102
{ACAD_REACTORS
330
47
102
}
330
47
100
AcDbScale
 70
     0
300
3/4" = 1'-0"
140
0.75
141
12.0
290
     0
  0
SCALE
  5
64
102
{ACAD_REACTORS
330
47
102
}
330
47
100
AcDbScale
 70
     0
300
1" = 1'-0"
140
1.0
141
12.0
290
     0
  0
SCALE
  5
65
102
{ACAD_REACTORS
330
47
102
}
330
47
100
AcDbScale
 70
     0
300
1-1/2" = 1'-0"
140
1.5
141
12.0
290
     0
  0
SCALE
  5
66
102
{ACAD_REACTORS
330
47
102
}
330
47
100
AcDbScale
 70
     0
300
3" = 1'-0"
140
3.0
141
12.0
290
     0
  0
SCALE
  5
67
102
{ACAD_REACTORS
330
47
102
}
330
47
100
AcDbScale
 70
     0
300
6" = 1'-0"
140
6.0
141
12.0
290
     0
  0
SCALE
  5
68
102
{ACAD_REACTORS
330
47
102
}
330
47
100
AcDbScale
 70
     0
300
1'-0" = 1'-0"
140
12.0
141
12.0
290
     0
  0
TABLESTYLE
  5
6A
102
{ACAD_REACTORS
330
69
102
}
102
{ACAD_XDICTIONARY
360
332
102
}
330
69
100
AcDbTableStyle
  3
Standard
 70
     0
 71
     0
 40
0.06
 41
0.06
280
     0
281
     0
  7
Standard
140
0.18
170
     2
 62
     0
 63
   257
283
     0
 90
        4
 91
        0
  1

274
    -2
284
     1
 64
     0
275
    -2
285
     1
 65
     0
276
    -2
286
     1
 66
     0
277
    -2
287
     1
 67
     0
278
    -2
288
     1
 68
     0
279
    -2
289
     1
 69
     0
  7
Standard
140
0.25
170
     5
 62
     0
 63
   257
283
     0
 90
        4
 91
        0
  1

274
    -2
284
     1
 64
     0
275
    -2
285
     1
 65
     0
276
    -2
286
     1
 66
     0
277
    -2
287
     1
 67
     0
278
    -2
288
     1
 68
     0
279
    -2
289
     1
 69
     0
  7
Standard
140
0.18
170
     5
 62
     0
 63
   257
283
     0
 90
        4
 91
        0
  1

274
    -2
284
     1
 64
     0
275
    -2
285
     1
 65
     0
276
    -2
286
     1
 66
     0
277
    -2
287
     1
 67
     0
278
    -2
288
     1
 68
     0
279
    -2
289
     1
 69
     0
  0
VISUALSTYLE
  5
2F
102
{ACAD_REACTORS
330
2A
102
}
102
{ACAD_XDICTIONARY
360
30A
102
}
330
2A
100
AcDbVisualStyle
  2
2dWireframe
 70
     4
 71
     0
 72
     2
 73
     0
 90
        0
 40
0.6
 41
30.0
 62
     5
 63
     7
421
 16777215
 74
     1
 91
        4
 64
     7
 65
   257
 75
     1
175
     1
 42
1.0
 92
        0
 66
   257
 43
1.0
 76
     1
 77
     6
 78
     2
 67
     7
 79
     5
170
     0
171
     0
290
     0
174
     0
 93
        1
 44
0.0
173
     0
291
     0
 45
0.0
  0
VISUALSTYLE
  5
32
102
{ACAD_REACTORS
330
2A
102
}
102
{ACAD_XDICTIONARY
360
310
102
}
330
2A
100
AcDbVisualStyle
  2
Basic
 70
     7
 71
     1
 72
     0
 73
     1
 90
        0
 40
0.6
 41
30.0
 62
     5
 63
     7
421
 16777215
 74
     0
 91
        4
 64
     7
 65
   257
 75
     1
175
     1
 42
1.0
 92
        8
 66
     7
 43
1.0
 76
     1
 77
     6
 78
     2
 67
     7
 79
     5
170
     0
171
     0
290
     0
174
     0
 93
        1
 44
0.0
173
     0
291
     1
 45
0.0
  0
VISUALSTYLE
  5
36
102
{ACAD_REACTORS
330
2A
102
}
102
{ACAD_XDICTIONARY
360
318
102
}
330
2A
100
AcDbVisualStyle
  2
Brighten
 70
    12
 71
     2
 72
     2
 73
     0
 90
        0
 40
0.6
 41
30.0
 62
     5
 63
     7
421
 16777215
 74
     1
 91
        4
 64
     7
 65
   257
 75
     1
175
     1
 42
1.0
 92
        8
 66
     7
 43
1.0
 76
     1
 77
     6
 78
     2
 67
     7
 79
     5
170
     0
171
     0
290
     0
174
     0
 93
        1
 44
50.0
173
     0
291
     1
 45
0.0
  0
VISUALSTYLE
  5
3A
102
{ACAD_REACTORS
330
2A
102
}
102
{ACAD_XDICTIONARY
360
320
102
}
330
2A
100
AcDbVisualStyle
  2
ColorChange
 70
    16
 71
     2
 72
     2
 73
     3
 90
        0
 40
0.6
 41
30.0
 62
     5
 63
     8
421
  8421504
 74
     1
 91
        4
 64
     7
 65
   257
 75
     1
175
     1
 42
1.0
 92
        8
 66
     8
424
  8421504
 43
1.0
 76
     1
 77
     6
 78
     2
 67
     7
 79
     5
170
     0
171
     0
290
     0
174
     0
 93
        1
 44
0.0
173
     0
291
     1
 45
0.0
  0
VISUALSTYLE
  5
34
102
{ACAD_REACTORS
330
2A
102
}
102
{ACAD_XDICTIONARY
360
314
102
}
330
2A
100
AcDbVisualStyle
  2
Conceptual
 70
     9
 71
     3
 72
     2
 73
     0
 90
        0
 40
0.6
 41
30.0
 62
     5
 63
     7
421
 16777215
 74
     2
 91
        2
 64
     7
 65
   257
 75
     1
175
     1
 42
179.0
 92
        8
 66
     7
 43
1.0
 76
     1
 77
     6
 78
     2
 67
     7
 79
     3
170
     0
171
     0
290
     0
174
     0
 93
        1
 44
0.0
173
     0
291
     0
 45
0.0
  0
VISUALSTYLE
  5
35
102
{ACAD_REACTORS
330
2A
102
}
102
{ACAD_XDICTIONARY
360
316
102
}
330
2A
100
AcDbVisualStyle
  2
Dim
 70
    11
 71
     2
 72
     2
 73
     0
 90
        0
 40
0.6
 41
30.0
 62
     5
 63
     7
421
 16777215
 74
     1
 91
        4
 64
     7
 65
   257
 75
     1
175
     1
 42
1.0
 92
        8
 66
     7
 43
1.0
 76
     1
 77
     6
 78
     2
 67
     7
 79
     5
170
     0
171
     0
290
     0
174
     0
 93
        1
 44
-50.0
173
     0
291
     1
 45
0.0
  0
VISUALSTYLE
  5
3D
102
{ACAD_REACTORS
330
2A
102
}
102
{ACAD_XDICTIONARY
360
326
102
}
330
2A
100
AcDbVisualStyle
  2
EdgeColorOff
 70
    22
 71
     2
 72
     2
 73
     0
 90
        0
 40
0.6
 41
30.0
 62
     5
 63
     7
421
 16777215
 74
     1
 91
        4
 64
     7
 65
   257
 75
     1
175
     1
 42
1.0
 92
        8
 66
     7
 43
1.0
 76
     1
 77
     6
 78
     2
 67
     7
 79
     5
170
     0
171
     0
290
     0
174
     0
 93
        1
 44
0.0
173
     0
291
     1
 45
0.0
  0
VISUALSTYLE
  5
39
102
{ACAD_REACTORS
330
2A
102
}
102
{ACAD_XDICTIONARY
360
31E
102
}
330
2A
100
AcDbVisualStyle
  2
Facepattern
 70
    15
 71
     2
 72
     2
 73
     0
 90
        0
 40
0.6
 41
30.0
 62
     5
 63
     7
421
 16777215
 74
     1
 91
        4
 64
     7
 65
   257
 75
     1
175
     1
 42
1.0
 92
        8
 66
     7
 43
1.0
 76
     1
 77
     6
 78
     2
 67
     7
 79
     5
170
     0
171
     0
290
     0
174
     0
 93
        1
 44
0.0
173
     0
291
     1
 45
0.0
  0
VISUALSTYLE
  5
2B
102
{ACAD_REACTORS
330
2A
102
}
102
{ACAD_XDICTIONARY
360
302
102
}
330
2A
100
AcDbVisualStyle
  2
Flat
 70
     0
 71
     2
 72
     1
 73
     1
 90
        2
 40
0.6
 41
30.0
 62
     5
 63
     7
421
 16777215
 74
     0
 91
        0
 64
     7
 65
   257
 75
     1
175
     1
 42
1.0
 92
        8
 66
     7
 43
1.0
 76
     1
 77
     6
 78
     2
 67
     7
 79
     5
170
     0
171
     0
290
     0
174
     0
 93
       13
 44
0.0
173
     0
291
     1
 45
0.0
  0
VISUALSTYLE
  5
2C
102
{ACAD_REACTORS
330
2A
102
}
102
{ACAD_XDICTIONARY
360
304
102
}
330
2A
100
AcDbVisualStyle
  2
FlatWithEdges
 70
     1
 71
     2
 72
     1
 73
     1
 90
        2
 40
0.6
 41
30.0
 62
     5
 63
     7
421
 16777215
 74
     1
 91
        0
 64
     7
 65
   257
 75
     1
175
     1
 42
1.0
 92
        0
 66
   257
 43
1.0
 76
     1
 77
     6
 78
     2
 67
     7
 79
     5
170
     0
171
     0
290
     0
174
     0
 93
       13
 44
0.0
173
     0
291
     1
 45
0.0
  0
VISUALSTYLE
  5
2D
102
{ACAD_REACTORS
330
2A
102
}
102
{ACAD_XDICTIONARY
360
306
102
}
330
2A
100
AcDbVisualStyle
  2
Gouraud
 70
     2
 71
     2
 72
     2
 73
     1
 90
        2
 40
0.6
 41
30.0
 62
     5
 63
     7
421
 16777215
 74
     0
 91
        0
 64
     7
 65
   257
 75
     1
175
     1
 42
1.0
 92
        0
 66
     7
 43
1.0
 76
     1
 77
     6
 78
     2
 67
     7
 79
     5
170
     0
171
     0
290
     0
174
     0
 93
       13
 44
0.0
173
     0
291
     1
 45
0.0
  0
VISUALSTYLE
  5
2E
102
{ACAD_REACTORS
330
2A
102
}
102
{ACAD_XDICTIONARY
360
308
102
}
330
2A
100
AcDbVisualStyle
  2
GouraudWithEdges
 70
     3
 71
     2
 72
     2
 73
     1
 90
        2
 40
0.6
 41
30.0
 62
     5
 63
     7
421
 16777215
 74
     1
 91
        0
 64
     7
 65
   257
 75
     1
175
     1
 42
1.0
 92
        0
 66
   257
 43
1.0
 76
     1
 77
     6
 78
     2
 67
     7
 79
     5
170
     0
171
     0
290
     0
174
     0
 93
       13
 44
0.0
173
     0
291
     1
 45
0.0
  0
VISUALSTYLE
  5
31
102
{ACAD_REACTORS
330
2A
102
}
102
{ACAD_XDICTIONARY
360
30E
102
}
330
2A
100
AcDbVisualStyle
  2
Hidden
 70
     6
 71
     1
 72
     2
 73
     2
 90
        0
 40
0.6
 41
30.0
 62
     5
 63
     7
421
 16777215
 74
     2
 91
        2
 64
     7
 65
   257
 75
     2
175
     1
 42
40.0
 92
        0
 66
   257
 43
1.0
 76
     1
 77
     6
 78
     2
 67
     7
 79
     3
170
     0
171
     0
290
     0
174
     0
 93
        1
 44
0.0
173
     0
291
     0
 45
0.0
  0
VISUALSTYLE
  5
3B
102
{ACAD_REACTORS
330
2A
102
}
102
{ACAD_XDICTIONARY
360
322
102
}
330
2A
100
AcDbVisualStyle
  2
JitterOff
 70
    20
 71
     2
 72
     2
 73
     0
 90
        0
 40
0.6
 41
30.0
 62
     5
 63
     7
421
 16777215
 74
     1
 91
        4
 64
     7
 65
   257
 75
     1
175
     1
 42
1.0
 92
       10
 66
     7
 43
1.0
 76
     1
 77
     6
 78
     2
 67
     7
 79
     5
170
     0
171
     0
290
     0
174
     0
 93
        1
 44
0.0
173
     0
291
     1
 45
0.0
  0
VISUALSTYLE
  5
38
102
{ACAD_REACTORS
330
2A
102
}
102
{ACAD_XDICTIONARY
360
31C
102
}
330
2A
100
AcDbVisualStyle
  2
Linepattern
 70
    14
 71
     2
 72
     2
 73
     0
 90
        0
 40
0.6
 41
30.0
 62
     5
 63
     7
421
 16777215
 74
     1
 91
        4
 64
     7
 65
   257
 75
     7
175
     7
 42
1.0
 92
        8
 66
     7
 43
1.0
 76
     1
 77
     6
 78
     2
 67
     7
 79
     5
170
     0
171
     0
290
     0
174
     0
 93
        1
 44
0.0
173
     0
291
     1
 45
0.0
  0
VISUALSTYLE
  5
3C
102
{ACAD_REACTORS
330
2A
102
}
102
{ACAD_XDICTIONARY
360
324
102
}
330
2A
100
AcDbVisualStyle
  2
OverhangOff
 70
    21
 71
     2
 72
     2
 73
     0
 90
        0
 40
0.6
 41
30.0
 62
     5
 63
     7
421
 16777215
 74
     1
 91
        4
 64
     7
 65
   257
 75
     1
175
     1
 42
1.0
 92
        9
 66
     7
 43
1.0
 76
     1
 77
     6
 78
     2
 67
     7
 79
     5
170
     0
171
     0
290
     0
174
     0
 93
        1
 44
0.0
173
     0
291
     1
 45
0.0
  0
VISUALSTYLE
  5
33
102
{ACAD_REACTORS
330
2A
102
}
102
{ACAD_XDICTIONARY
360
312
102
}
330
2A
100
AcDbVisualStyle
  2
Realistic
 70
     8
 71
     2
 72
     3
 73
     0
 90
        2
 40
0.6
 41
30.0
 62
     5
 63
     7
421
 16777215
 74
     0
 91
        0
 64
     7
 65
   257
 75
     1
175
     1
 42
1.0
 92
        8
 66
   257
 43
1.0
 76
     1
 77
     6
 78
     2
 67
     7
 79
     3
170
     0
171
     0
290
     0
174
     0
 93
       13
 44
0.0
173
     0
291
     0
 45
0.0
  0
VISUALSTYLE
  5
42
102
{ACAD_REACTORS
330
2A
102
}
102
{ACAD_XDICTIONARY
360
330
102
}
330
2A
100
AcDbVisualStyle
  2
Shaded
 70
    27
 71
     2
 72
     2
 73
     1
 90
        2
 40
0.6
 41
30.0
 62
     5
 63
     7
421
 16777215
 74
     0
 91
        4
 64
     7
 65
   257
 75
     1
175
     1
 42
1.0
 92
        8
 66
   257
 43
1.0
 76
     1
 77
     6
 78
     2
 67
     8
425
  7895160
 79
     3
170
     0
171
     0
290
     0
174
     0
 93
        5
 44
0.0
173
     0
291
     0
 45
0.0
  0
VISUALSTYLE
  5
41
102
{ACAD_REACTORS
330
2A
102
}
102
{ACAD_XDICTIONARY
360
32E
102
}
330
2A
100
AcDbVisualStyle
  2
Shaded with edges
 70
    26
 71
     2
 72
     2
 73
     1
 90
        2
 40
0.6
 41
30.0
 62
     5
 63
     7
421
 16777215
 74
     1
 91
       10
 64
     7
 65
   257
 75
     2
175
     1
 42
1.0
 92
        8
 66
   257
 43
1.0
 76
     1
 77
     6
 78
     2
 67
     7
 79
     3
170
     0
171
     0
290
     0
174
     0
 93
        5
 44
0.0
173
     0
291
     0
 45
0.0
  0
VISUALSTYLE
  5
3E
102
{ACAD_REACTORS
330
2A
102
}
102
{ACAD_XDICTIONARY
360
328
102
}
330
2A
100
AcDbVisualStyle
  2
Shades of Gray
 70
    23
 71
     2
 72
     2
 73
     3
 90
        0
 40
0.6
 41
30.0
 62
     5
 63
     7
421
 16777215
 74
     2
 91
        2
 64
     7
 65
     7
 75
     1
175
     1
 42
40.0
 92
        8
 66
     7
 43
1.0
 76
     1
 77
     6
 78
     2
 67
     7
 79
     3
170
     0
171
     0
290
     0
174
     0
 93
        1
 44
0.0
173
     0
291
     0
 45
0.0
  0
VISUALSTYLE
  5
3F
102
{ACAD_REACTORS
330
2A
102
}
102
{ACAD_XDICTIONARY
360
32A
102
}
330
2A
100
AcDbVisualStyle
  2
Sketchy
 70
    24
 71
     1
 72
     2
 73
     2
 90
        0
 40
0.6
 41
30.0
 62
     5
 63
     7
421
 16777215
 74
     2
 91
        2
 64
     7
 65
     7
 75
     1
175
     1
 42
40.0
 92
       11
 66
     7
 43
1.0
 76
     1
 77
     6
 78
     2
 67
     7
 79
     6
170
     0
171
     0
290
     0
174
     0
 93
        1
 44
0.0
173
     0
291
     0
 45
0.0
  0
VISUALSTYLE
  5
37
102
{ACAD_REACTORS
330
2A
102
}
102
{ACAD_XDICTIONARY
360
31A
102
}
330
2A
100
AcDbVisualStyle
  2
Thicken
 70
    13
 71
     2
 72
     2
 73
     0
 90
        0
 40
0.6
 41
30.0
 62
     5
 63
     7
421
 16777215
 74
     1
 91
        4
 64
     7
 65
   257
 75
     1
175
     1
 42
1.0
 92
       12
 66
     7
 43
1.0
 76
     1
 77
     6
 78
     2
 67
     7
 79
     5
170
     0
171
     0
290
     0
174
     0
 93
        1
 44
0.0
173
     0
291
     1
 45
0.0
  0
VISUALSTYLE
  5
30
102
{ACAD_REACTORS
330
2A
102
}
102
{ACAD_XDICTIONARY
360
30C
102
}
330
2A
100
AcDbVisualStyle
  2
Wireframe
 70
     5
 71
     0
 72
     2
 73
     0
 90
        0
 40
0.6
 41
30.0
 62
     5
 63
     7
421
 16777215
 74
     1
 91
        4
 64
     7
 65
   257
 75
     1
175
     1
 42
1.0
 92
        0
 66
   257
 43
1.0
 76
     1
 77
     6
 78
     2
 67
     7
 79
     3
170
     0
171
     0
290
     0
174
     0
 93
        1
 44
0.0
173
     0
291
     0
 45
0.0
  0
VISUALSTYLE
  5
40
102
{ACAD_REACTORS
330
2A
102
}
102
{ACAD_XDICTIONARY
360
32C
102
}
330
2A
100
AcDbVisualStyle
  2
X-Ray
 70
    25
 71
     2
 72
     2
 73
     1
 90
        1
 40
0.5
 41
30.0
 62
     5
 63
     7
421
 16777215
 74
     1
 91
        0
 64
     7
 65
   257
 75
     1
175
     1
 42
1.0
 92
        8
 66
     7
 43
1.0
 76
     1
 77
     6
 78
     2
 67
     7
 79
     3
170
     0
171
     0
290
     0
174
     0
 93
       13
 44
0.0
173
     0
291
     0
 45
0.0
  0
DICTIONARYVAR
  5
300
102
{ACAD_REACTORS
330
2FF
102
}
330
2FF
100
DictionaryVariables
280
     0
  1
1:1
  0
DICTIONARYVAR
  5
339
102
{ACAD_REACTORS
330
2FF
102
}
330
2FF
100
DictionaryVariables
280
     0
  1
Standard
  0
DICTIONARYVAR
  5
338
102
{ACAD_REACTORS
330
2FF
102
}
330
2FF
100
DictionaryVariables
280
     0
  1
Standard
  0
DICTIONARYVAR
  5
301
102
{ACAD_REACTORS
330
2FF
102
}
330
2FF
100
DictionaryVariables
280
     0
  1
2
  0
DICTIONARY
  5
335
330
6C
100
AcDbDictionary
280
     1
281
     1
  3
ACAD_XREC_ROUNDTRIP
360
336
  0
DICTIONARY
  5
332
330
6A
100
AcDbDictionary
280
     1
281
     1
  3
ACAD_ROUNDTRIP_2008_TABLESTYLE_CELLSTYLEMAP
360
333
  0
DICTIONARY
  5
30A
330
2F
100
AcDbDictionary
280
     1
281
     1
  3
ACAD_XREC_ROUNDTRIP
360
30B
  0
DICTIONARY
  5
310
330
32
100
AcDbDictionary
280
     1
281
     1
  3
ACAD_XREC_ROUNDTRIP
360
311
  0
DICTIONARY
  5
318
330
36
100
AcDbDictionary
280
     1
281
     1
  3
ACAD_XREC_ROUNDTRIP
360
319
  0
DICTIONARY
  5
320
330
3A
100
AcDbDictionary
280
     1
281
     1
  3
ACAD_XREC_ROUNDTRIP
360
321
  0
DICTIONARY
  5
314
330
34
100
AcDbDictionary
280
     1
281
     1
  3
ACAD_XREC_ROUNDTRIP
360
315
  0
DICTIONARY
  5
316
330
35
100
AcDbDictionary
280
     1
281
     1
  3
ACAD_XREC_ROUNDTRIP
360
317
  0
DICTIONARY
  5
326
330
3D
100
AcDbDictionary
280
     1
281
     1
  3
ACAD_XREC_ROUNDTRIP
360
327
  0
DICTIONARY
  5
31E
330
39
100
AcDbDictionary
280
     1
281
     1
  3
ACAD_XREC_ROUNDTRIP
360
31F
  0
DICTIONARY
  5
302
330
2B
100
AcDbDictionary
280
     1
281
     1
  3
ACAD_XREC_ROUNDTRIP
360
303
  0
DICTIONARY
  5
304
330
2C
100
AcDbDictionary
280
     1
281
     1
  3
ACAD_XREC_ROUNDTRIP
360
305
  0
DICTIONARY
  5
306
330
2D
100
AcDbDictionary
280
     1
281
     1
  3
ACAD_XREC_ROUNDTRIP
360
307
  0
DICTIONARY
  5
308
330
2E
100
AcDbDictionary
280
     1
281
     1
  3
ACAD_XREC_ROUNDTRIP
360
309
  0
DICTIONARY
  5
30E
330
31
100
AcDbDictionary
280
     1
281
     1
  3
ACAD_XREC_ROUNDTRIP
360
30F
  0
DICTIONARY
  5
322
330
3B
100
AcDbDictionary
280
     1
281
     1
  3
ACAD_XREC_ROUNDTRIP
360
323
  0
DICTIONARY
  5
31C
330
38
100
AcDbDictionary
280
     1
281
     1
  3
ACAD_XREC_ROUNDTRIP
360
31D
  0
DICTIONARY
  5
324
330
3C
100
AcDbDictionary
280
     1
281
     1
  3
ACAD_XREC_ROUNDTRIP
360
325
  0
DICTIONARY
  5
312
330
33
100
AcDbDictionary
280
     1
281
     1
  3
ACAD_XREC_ROUNDTRIP
360
313
  0
DICTIONARY
  5
330
330
42
100
AcDbDictionary
280
     1
281
     1
  3
ACAD_XREC_ROUNDTRIP
360
331
  0
DICTIONARY
  5
32E
330
41
100
AcDbDictionary
280
     1
281
     1
  3
ACAD_XREC_ROUNDTRIP
360
32F
  0
DICTIONARY
  5
328
330
3E
100
AcDbDictionary
280
     1
281
     1
  3
ACAD_XREC_ROUNDTRIP
360
329
  0
DICTIONARY
  5
32A
330
3F
100
AcDbDictionary
280
     1
281
     1
  3
ACAD_XREC_ROUNDTRIP
360
32B
  0
DICTIONARY
  5
31A
330
37
100
AcDbDictionary
280
     1
281
     1
  3
ACAD_XREC_ROUNDTRIP
360
31B
  0
DICTIONARY
  5
30C
330
30
100
AcDbDictionary
280
     1
281
     1
  3
ACAD_XREC_ROUNDTRIP
360
30D
  0
DICTIONARY
  5
32C
330
40
100
AcDbDictionary
280
     1
281
     1
  3
ACAD_XREC_ROUNDTRIP
360
32D
  0
XRECORD
  5
336
102
{ACAD_REACTORS
330
335
102
}
330
335
100
AcDbXrecord
280
     1
102
ACAD_ROUNDTRIP_2010_MLEADER_STYLE
  0
CELLSTYLEMAP
  5
333
102
{ACAD_REACTORS
330
332
102
}
330
332
100
AcDbCellStyleMap
 90
        3
300
CELLSTYLE
  1
TABLEFORMAT_BEGIN
 90
        5
170
     1
 91
        0
 92
    32768
 62
   257
 93
        1
300
CONTENTFORMAT
  1
CONTENTFORMAT_BEGIN
 90
        0
 91
        0
 92
        4
 93
        0
300

 40
0.0
140
1.0
 94
        5
 62
     0
340
11
144
0.25
309
CONTENTFORMAT_END
171
     1
301
MARGIN
  1
CELLMARGIN_BEGIN
 40
0.06
 40
0.06
 40
0.06
 40
0.06
 40
0.06
 40
0.06
309
CELLMARGIN_END
 94
        6
 95
        1
302
GRIDFORMAT
  1
GRIDFORMAT_BEGIN
 90
        0
 91
        1
 62
     0
 92
       -2
340
14
 93
        0
 40
0.045
309
GRIDFORMAT_END
 95
        2
302
GRIDFORMAT
  1
GRIDFORMAT_BEGIN
 90
        0
 91
        1
 62
     0
 92
       -2
340
14
 93
        0
 40
0.045
309
GRIDFORMAT_END
 95
        4
302
GRIDFORMAT
  1
GRIDFORMAT_BEGIN
 90
        0
 91
        1
 62
     0
 92
       -2
340
14
 93
        0
 40
0.045
309
GRIDFORMAT_END
 95
        8
302
GRIDFORMAT
  1
GRIDFORMAT_BEGIN
 90
        0
 91
        1
 62
     0
 92
       -2
340
14
 93
        0
 40
0.045
309
GRIDFORMAT_END
 95
       16
302
GRIDFORMAT
  1
GRIDFORMAT_BEGIN
 90
        0
 91
        1
 62
     0
 92
       -2
340
14
 93
        0
 40
0.045
309
GRIDFORMAT_END
 95
       32
302
GRIDFORMAT
  1
GRIDFORMAT_BEGIN
 90
        0
 91
        1
 62
     0
 92
       -2
340
14
 93
        0
 40
0.045
309
GRIDFORMAT_END
309
TABLEFORMAT_END
  1
CELLSTYLE_BEGIN
 90
        1
 91
        1
300
_TITLE
309
CELLSTYLE_END
300
CELLSTYLE
  1
TABLEFORMAT_BEGIN
 90
        5
170
     1
 91
        0
 92
        0
 62
   257
 93
        1
300
CONTENTFORMAT
  1
CONTENTFORMAT_BEGIN
 90
        0
 91
        0
 92
        4
 93
        0
300

 40
0.0
140
1.0
 94
        5
 62
     0
340
11
144
0.18
309
CONTENTFORMAT_END
171
     1
301
MARGIN
  1
CELLMARGIN_BEGIN
 40
0.06
 40
0.06
 40
0.06
 40
0.06
 40
0.06
 40
0.06
309
CELLMARGIN_END
 94
        6
 95
        1
302
GRIDFORMAT
  1
GRIDFORMAT_BEGIN
 90
        0
 91
        1
 62
     0
 92
       -2
340
14
 93
        0
 40
0.045
309
GRIDFORMAT_END
 95
        2
302
GRIDFORMAT
  1
GRIDFORMAT_BEGIN
 90
        0
 91
        1
 62
     0
 92
       -2
340
14
 93
        0
 40
0.045
309
GRIDFORMAT_END
 95
        4
302
GRIDFORMAT
  1
GRIDFORMAT_BEGIN
 90
        0
 91
        1
 62
     0
 92
       -2
340
14
 93
        0
 40
0.045
309
GRIDFORMAT_END
 95
        8
302
GRIDFORMAT
  1
GRIDFORMAT_BEGIN
 90
        0
 91
        1
 62
     0
 92
       -2
340
14
 93
        0
 40
0.045
309
GRIDFORMAT_END
 95
       16
302
GRIDFORMAT
  1
GRIDFORMAT_BEGIN
 90
        0
 91
        1
 62
     0
 92
       -2
340
14
 93
        0
 40
0.045
309
GRIDFORMAT_END
 95
       32
302
GRIDFORMAT
  1
GRIDFORMAT_BEGIN
 90
        0
 91
        1
 62
     0
 92
       -2
340
14
 93
        0
 40
0.045
309
GRIDFORMAT_END
309
TABLEFORMAT_END
  1
CELLSTYLE_BEGIN
 90
        2
 91
        1
300
_HEADER
309
CELLSTYLE_END
300
CELLSTYLE
  1
TABLEFORMAT_BEGIN
 90
        5
170
     1
 91
        0
 92
        0
 62
   257
 93
        1
300
CONTENTFORMAT
  1
CONTENTFORMAT_BEGIN
 90
        0
 91
        0
 92
        4
 93
        0
300

 40
0.0
140
1.0
 94
        2
 62
     0
340
11
144
0.18
309
CONTENTFORMAT_END
171
     1
301
MARGIN
  1
CELLMARGIN_BEGIN
 40
0.06
 40
0.06
 40
0.06
 40
0.06
 40
0.06
 40
0.06
309
CELLMARGIN_END
 94
        6
 95
        1
302
GRIDFORMAT
  1
GRIDFORMAT_BEGIN
 90
        0
 91
        1
 62
     0
 92
       -2
340
14
 93
        0
 40
0.045
309
GRIDFORMAT_END
 95
        2
302
GRIDFORMAT
  1
GRIDFORMAT_BEGIN
 90
        0
 91
        1
 62
     0
 92
       -2
340
14
 93
        0
 40
0.045
309
GRIDFORMAT_END
 95
        4
302
GRIDFORMAT
  1
GRIDFORMAT_BEGIN
 90
        0
 91
        1
 62
     0
 92
       -2
340
14
 93
        0
 40
0.045
309
GRIDFORMAT_END
 95
        8
302
GRIDFORMAT
  1
GRIDFORMAT_BEGIN
 90
        0
 91
        1
 62
     0
 92
       -2
340
14
 93
        0
 40
0.045
309
GRIDFORMAT_END
 95
       16
302
GRIDFORMAT
  1
GRIDFORMAT_BEGIN
 90
        0
 91
        1
 62
     0
 92
       -2
340
14
 93
        0
 40
0.045
309
GRIDFORMAT_END
 95
       32
302
GRIDFORMAT
  1
GRIDFORMAT_BEGIN
 90
        0
 91
        1
 62
     0
 92
       -2
340
14
 93
        0
 40
0.045
309
GRIDFORMAT_END
309
TABLEFORMAT_END
  1
CELLSTYLE_BEGIN
 90
        3
 91
        2
300
_DATA
309
CELLSTYLE_END
  0
XRECORD
  5
30B
102
{ACAD_REACTORS
330
30A
102
}
330
30A
100
AcDbXrecord
280
     1
102
RTVSPropertyOp0
 70
     1
102
RTVSPropertyOp1
 70
     1
102
RTVSPropertyOp2
 70
     1
102
RTVSPropertyOp3
 70
     1
102
RTVSPropertyOp4
 70
     1
102
RTVSPropertyOp5
 70
     1
102
RTVSPropertyOp6
 70
     1
102
RTVSPropertyOp7
 70
     1
102
RTVSPropertyOp8
 70
     1
102
RTVSPropertyOp9
 70
     1
102
RTVSPropertyOp10
 70
     1
102
RTVSPropertyOp11
 70
     1
102
RTVSPropertyOp12
 70
     1
102
RTVSPropertyOp13
 70
     1
102
RTVSPropertyOp14
 70
     1
102
RTVSPropertyOp15
 70
     1
102
RTVSPropertyOp16
 70
     1
102
RTVSPropertyOp17
 70
     1
102
RTVSPropertyOp18
 70
     1
102
RTVSPropertyOp19
 70
     1
102
RTVSPropertyOp20
 70
     1
102
RTVSPropertyOp21
 70
     1
102
RTVSPropertyOp22
 70
     1
102
RTVSPropertyOp23
 70
     1
102
RTVSPropertyOp24
 70
     1
102
RTVSPropertyOp25
 70
     1
102
RTVSPropertyOp26
 70
     1
102
RTVSPropertyOp27
 70
     1
102
RTVSPropertyOp28
 70
     1
102
RTVSPropertyOp29
 70
     1
102
RTVSPropertyOp30
 70
     1
102
RTVSPropertyOp31
 70
     1
102
RTVSPropertyOp32
 70
     1
102
RTVSPropertyOp33
 70
     1
102
RTVSPropertyOp34
 70
     1
102
RTVSPropertyOp35
 70
     1
102
RTVSPropertyOp36
 70
     1
102
RTVSPropertyOp37
 70
     1
102
RTVSPropertyOp38
 70
     1
102
RTVSPropertyOp39
 70
     1
102
RTVSPropertyOp40
 70
     1
102
RTVSPropertyOp41
 70
     1
102
RTVSPropertyOp42
 70
     1
102
RTVSPropertyOp43
 70
     1
102
RTVSPropertyOp44
 70
     1
102
RTVSPropertyOp45
 70
     1
102
RTVSPropertyOp46
 70
     1
102
RTVSPropertyOp47
 70
     1
102
RTVSPropertyOp48
 70
     1
102
RTVSPropertyOp49
 70
     1
102
RTVSPropertyOp50
 70
     1
102
RTVSPropertyOp51
 70
     0
102
RTVSPropertyOp52
 70
     0
102
RTVSPropertyOp53
 70
     1
102
RTVSPropertyOp54
 70
     1
102
RTVSPropertyOp55
 70
     1
102
RTVSPropertyOp56
 70
     1
102
RTVSPropertyOp57
 70
     1
102
RTVSPost2010Prop28
280
     1
102
RTVSPost2010PropOp28
 70
     1
102
RTVSPost2010Prop29
280
     1
102
RTVSPost2010PropOp29
 70
     1
102
RTVSPost2010Prop30
280
     0
102
RTVSPost2010PropOp30
 70
     1
102
RTVSPost2010Prop31
280
     0
102
RTVSPost2010PropOp31
 70
     1
102
RTVSPost2010Prop32
280
     0
102
RTVSPost2010PropOp32
 70
     1
102
RTVSPost2010Prop33
280
     0
102
RTVSPost2010PropOp33
 70
     1
102
RTVSPost2010Prop34
280
     0
102
RTVSPost2010PropOp34
 70
     1
102
RTVSPost2010Prop35
280
     0
102
RTVSPost2010PropOp35
 70
     1
102
RTVSPost2010Prop36
280
     0
102
RTVSPost2010PropOp36
 70
     1
102
RTVSPost2010Prop37
 90
       50
102
RTVSPost2010PropOp37
 70
     1
102
RTVSPost2010Prop38
140
0.0
102
RTVSPost2010PropOp38
 70
     1
102
RTVSPost2010Prop39
140
1.0
102
RTVSPost2010PropOp39
 70
     1
102
RTVSPost2010Prop40
 90
        0
102
RTVSPost2010PropOp40
 70
     1
102
RTVSPost2010Prop41ColorIndex
 90
      178
102
RTVSPost2010Prop41ColorRGB
 90
        0
102
RTVSPost2010PropOp41
 70
     1
102
RTVSPost2010Prop42
 90
       50
102
RTVSPost2010PropOp42
 70
     1
102
RTVSPost2010Prop43
 90
        3
102
RTVSPost2010PropOp43
 70
     1
102
RTVSPost2010Prop44ColorIndex
 90
        5
102
RTVSPost2010Prop44ColorRGB
 90
      255
102
RTVSPost2010PropOp44
 70
     1
102
RTVSPost2010Prop45
280
     0
102
RTVSPost2010PropOp45
 70
     1
102
RTVSPost2010Prop46
 90
       50
102
RTVSPost2010PropOp46
 70
     1
102
RTVSPost2010Prop47
 90
       50
102
RTVSPost2010PropOp47
 70
     1
102
RTVSPost2010Prop48
 90
       50
102
RTVSPost2010PropOp48
 70
     1
102
RTVSPost2010Prop49
280
     0
102
RTVSPost2010PropOp49
 70
     1
102
RTVSPost2010Prop50
 90
       50
102
RTVSPost2010PropOp50
 70
     1
102
RTVSPost2010Prop51ColorIndex
 90
      256
102
RTVSPost2010Prop51ColorRGB
 90
-16777216
102
RTVSPost2010PropOp51
 70
     0
102
RTVSPost2010Prop52
140
1.0
102
RTVSPost2010PropOp52
 70
     0
102
RTVSPost2010Prop53
 90
        2
102
RTVSPost2010PropOp53
 70
     1
102
RTVSPost2010Prop54
  1
strokes_ogs.tif
102
RTVSPost2010PropOp54
 70
     1
102
RTVSPost2010Prop55
280
     0
102
RTVSPost2010PropOp55
 70
     1
102
RTVSPost2010Prop56
140
1.0
102
RTVSPost2010PropOp56
 70
     1
102
RTVSPost2010Prop57
140
1.0
102
RTVSPost2010PropOp57
 70
     1
  0
XRECORD
  5
311
102
{ACAD_REACTORS
330
310
102
}
330
310
100
AcDbXrecord
280
     1
102
RTVSPropertyOp0
 70
     1
102
RTVSPropertyOp1
 70
     1
102
RTVSPropertyOp2
 70
     1
102
RTVSPropertyOp3
 70
     1
102
RTVSPropertyOp4
 70
     1
102
RTVSPropertyOp5
 70
     1
102
RTVSPropertyOp6
 70
     1
102
RTVSPropertyOp7
 70
     1
102
RTVSPropertyOp8
 70
     1
102
RTVSPropertyOp9
 70
     1
102
RTVSPropertyOp10
 70
     1
102
RTVSPropertyOp11
 70
     1
102
RTVSPropertyOp12
 70
     1
102
RTVSPropertyOp13
 70
     1
102
RTVSPropertyOp14
 70
     1
102
RTVSPropertyOp15
 70
     1
102
RTVSPropertyOp16
 70
     1
102
RTVSPropertyOp17
 70
     1
102
RTVSPropertyOp18
 70
     1
102
RTVSPropertyOp19
 70
     1
102
RTVSPropertyOp20
 70
     1
102
RTVSPropertyOp21
 70
     1
102
RTVSPropertyOp22
 70
     1
102
RTVSPropertyOp23
 70
     1
102
RTVSPropertyOp24
 70
     1
102
RTVSPropertyOp25
 70
     1
102
RTVSPropertyOp26
 70
     1
102
RTVSPropertyOp27
 70
     1
102
RTVSPropertyOp28
 70
     1
102
RTVSPropertyOp29
 70
     1
102
RTVSPropertyOp30
 70
     1
102
RTVSPropertyOp31
 70
     1
102
RTVSPropertyOp32
 70
     1
102
RTVSPropertyOp33
 70
     1
102
RTVSPropertyOp34
 70
     1
102
RTVSPropertyOp35
 70
     1
102
RTVSPropertyOp36
 70
     1
102
RTVSPropertyOp37
 70
     1
102
RTVSPropertyOp38
 70
     1
102
RTVSPropertyOp39
 70
     1
102
RTVSPropertyOp40
 70
     1
102
RTVSPropertyOp41
 70
     1
102
RTVSPropertyOp42
 70
     1
102
RTVSPropertyOp43
 70
     1
102
RTVSPropertyOp44
 70
     1
102
RTVSPropertyOp45
 70
     1
102
RTVSPropertyOp46
 70
     1
102
RTVSPropertyOp47
 70
     1
102
RTVSPropertyOp48
 70
     1
102
RTVSPropertyOp49
 70
     1
102
RTVSPropertyOp50
 70
     1
102
RTVSPropertyOp51
 70
     0
102
RTVSPropertyOp52
 70
     0
102
RTVSPropertyOp53
 70
     1
102
RTVSPropertyOp54
 70
     1
102
RTVSPropertyOp55
 70
     1
102
RTVSPropertyOp56
 70
     1
102
RTVSPropertyOp57
 70
     1
102
RTVSPost2010Prop28
280
     0
102
RTVSPost2010PropOp28
 70
     1
102
RTVSPost2010Prop29
280
     1
102
RTVSPost2010PropOp29
 70
     1
102
RTVSPost2010Prop30
280
     1
102
RTVSPost2010PropOp30
 70
     1
102
RTVSPost2010Prop31
280
     0
102
RTVSPost2010PropOp31
 70
     1
102
RTVSPost2010Prop32
280
     0
102
RTVSPost2010PropOp32
 70
     1
102
RTVSPost2010Prop33
280
     0
102
RTVSPost2010PropOp33
 70
     1
102
RTVSPost2010Prop34
280
     0
102
RTVSPost2010PropOp34
 70
     1
102
RTVSPost2010Prop35
280
     0
102
RTVSPost2010PropOp35
 70
     1
102
RTVSPost2010Prop36
280
     0
102
RTVSPost2010PropOp36
 70
     1
102
RTVSPost2010Prop37
 90
       50
102
RTVSPost2010PropOp37
 70
     1
102
RTVSPost2010Prop38
140
0.0
102
RTVSPost2010PropOp38
 70
     1
102
RTVSPost2010Prop39
140
1.0
102
RTVSPost2010PropOp39
 70
     1
102
RTVSPost2010Prop40
 90
        0
102
RTVSPost2010PropOp40
 70
     1
102
RTVSPost2010Prop41ColorIndex
 90
      178
102
RTVSPost2010Prop41ColorRGB
 90
        0
102
RTVSPost2010PropOp41
 70
     1
102
RTVSPost2010Prop42
 90
       50
102
RTVSPost2010PropOp42
 70
     1
102
RTVSPost2010Prop43
 90
        3
102
RTVSPost2010PropOp43
 70
     1
102
RTVSPost2010Prop44ColorIndex
 90
        5
102
RTVSPost2010Prop44ColorRGB
 90
      255
102
RTVSPost2010PropOp44
 70
     1
102
RTVSPost2010Prop45
280
     0
102
RTVSPost2010PropOp45
 70
     1
102
RTVSPost2010Prop46
 90
       50
102
RTVSPost2010PropOp46
 70
     1
102
RTVSPost2010Prop47
 90
       50
102
RTVSPost2010PropOp47
 70
     1
102
RTVSPost2010Prop48
 90
       50
102
RTVSPost2010PropOp48
 70
     1
102
RTVSPost2010Prop49
280
     0
102
RTVSPost2010PropOp49
 70
     1
102
RTVSPost2010Prop50
 90
       50
102
RTVSPost2010PropOp50
 70
     1
102
RTVSPost2010Prop51ColorIndex
 90
      256
102
RTVSPost2010Prop51ColorRGB
 90
-16777216
102
RTVSPost2010PropOp51
 70
     0
102
RTVSPost2010Prop52
140
1.0
102
RTVSPost2010PropOp52
 70
     0
102
RTVSPost2010Prop53
 90
        2
102
RTVSPost2010PropOp53
 70
     1
102
RTVSPost2010Prop54
  1
strokes_ogs.tif
102
RTVSPost2010PropOp54
 70
     1
102
RTVSPost2010Prop55
280
     0
102
RTVSPost2010PropOp55
 70
     1
102
RTVSPost2010Prop56
140
1.0
102
RTVSPost2010PropOp56
 70
     1
102
RTVSPost2010Prop57
140
1.0
102
RTVSPost2010PropOp57
 70
     1
  0
XRECORD
  5
319
102
{ACAD_REACTORS
330
318
102
}
330
318
100
AcDbXrecord
280
     1
102
RTVSPropertyOp0
 70
     1
102
RTVSPropertyOp1
 70
     1
102
RTVSPropertyOp2
 70
     1
102
RTVSPropertyOp3
 70
     1
102
RTVSPropertyOp4
 70
     1
102
RTVSPropertyOp5
 70
     1
102
RTVSPropertyOp6
 70
     1
102
RTVSPropertyOp7
 70
     1
102
RTVSPropertyOp8
 70
     1
102
RTVSPropertyOp9
 70
     1
102
RTVSPropertyOp10
 70
     1
102
RTVSPropertyOp11
 70
     1
102
RTVSPropertyOp12
 70
     1
102
RTVSPropertyOp13
 70
     1
102
RTVSPropertyOp14
 70
     1
102
RTVSPropertyOp15
 70
     1
102
RTVSPropertyOp16
 70
     1
102
RTVSPropertyOp17
 70
     1
102
RTVSPropertyOp18
 70
     1
102
RTVSPropertyOp19
 70
     1
102
RTVSPropertyOp20
 70
     1
102
RTVSPropertyOp21
 70
     1
102
RTVSPropertyOp22
 70
     1
102
RTVSPropertyOp23
 70
     1
102
RTVSPropertyOp24
 70
     1
102
RTVSPropertyOp25
 70
     1
102
RTVSPropertyOp26
 70
     1
102
RTVSPropertyOp27
 70
     1
102
RTVSPropertyOp28
 70
     1
102
RTVSPropertyOp29
 70
     1
102
RTVSPropertyOp30
 70
     1
102
RTVSPropertyOp31
 70
     1
102
RTVSPropertyOp32
 70
     1
102
RTVSPropertyOp33
 70
     1
102
RTVSPropertyOp34
 70
     1
102
RTVSPropertyOp35
 70
     1
102
RTVSPropertyOp36
 70
     1
102
RTVSPropertyOp37
 70
     1
102
RTVSPropertyOp38
 70
     1
102
RTVSPropertyOp39
 70
     1
102
RTVSPropertyOp40
 70
     1
102
RTVSPropertyOp41
 70
     1
102
RTVSPropertyOp42
 70
     1
102
RTVSPropertyOp43
 70
     1
102
RTVSPropertyOp44
 70
     1
102
RTVSPropertyOp45
 70
     1
102
RTVSPropertyOp46
 70
     1
102
RTVSPropertyOp47
 70
     1
102
RTVSPropertyOp48
 70
     1
102
RTVSPropertyOp49
 70
     1
102
RTVSPropertyOp50
 70
     1
102
RTVSPropertyOp51
 70
     0
102
RTVSPropertyOp52
 70
     0
102
RTVSPropertyOp53
 70
     1
102
RTVSPropertyOp54
 70
     1
102
RTVSPropertyOp55
 70
     1
102
RTVSPropertyOp56
 70
     1
102
RTVSPropertyOp57
 70
     1
102
RTVSPost2010Prop28
280
     0
102
RTVSPost2010PropOp28
 70
     1
102
RTVSPost2010Prop29
280
     1
102
RTVSPost2010PropOp29
 70
     1
102
RTVSPost2010Prop30
280
     1
102
RTVSPost2010PropOp30
 70
     1
102
RTVSPost2010Prop31
280
     0
102
RTVSPost2010PropOp31
 70
     1
102
RTVSPost2010Prop32
280
     0
102
RTVSPost2010PropOp32
 70
     1
102
RTVSPost2010Prop33
280
     0
102
RTVSPost2010PropOp33
 70
     1
102
RTVSPost2010Prop34
280
     0
102
RTVSPost2010PropOp34
 70
     1
102
RTVSPost2010Prop35
280
     0
102
RTVSPost2010PropOp35
 70
     1
102
RTVSPost2010Prop36
280
     0
102
RTVSPost2010PropOp36
 70
     1
102
RTVSPost2010Prop37
 90
       50
102
RTVSPost2010PropOp37
 70
     1
102
RTVSPost2010Prop38
140
0.0
102
RTVSPost2010PropOp38
 70
     1
102
RTVSPost2010Prop39
140
1.0
102
RTVSPost2010PropOp39
 70
     1
102
RTVSPost2010Prop40
 90
        0
102
RTVSPost2010PropOp40
 70
     1
102
RTVSPost2010Prop41ColorIndex
 90
      178
102
RTVSPost2010Prop41ColorRGB
 90
        0
102
RTVSPost2010PropOp41
 70
     1
102
RTVSPost2010Prop42
 90
       50
102
RTVSPost2010PropOp42
 70
     1
102
RTVSPost2010Prop43
 90
        3
102
RTVSPost2010PropOp43
 70
     1
102
RTVSPost2010Prop44ColorIndex
 90
        5
102
RTVSPost2010Prop44ColorRGB
 90
      255
102
RTVSPost2010PropOp44
 70
     1
102
RTVSPost2010Prop45
280
     0
102
RTVSPost2010PropOp45
 70
     1
102
RTVSPost2010Prop46
 90
       50
102
RTVSPost2010PropOp46
 70
     1
102
RTVSPost2010Prop47
 90
       50
102
RTVSPost2010PropOp47
 70
     1
102
RTVSPost2010Prop48
 90
       50
102
RTVSPost2010PropOp48
 70
     1
102
RTVSPost2010Prop49
280
     0
102
RTVSPost2010PropOp49
 70
     1
102
RTVSPost2010Prop50
 90
       50
102
RTVSPost2010PropOp50
 70
     1
102
RTVSPost2010Prop51ColorIndex
 90
      256
102
RTVSPost2010Prop51ColorRGB
 90
-16777216
102
RTVSPost2010PropOp51
 70
     0
102
RTVSPost2010Prop52
140
1.0
102
RTVSPost2010PropOp52
 70
     0
102
RTVSPost2010Prop53
 90
        2
102
RTVSPost2010PropOp53
 70
     1
102
RTVSPost2010Prop54
  1
strokes_ogs.tif
102
RTVSPost2010PropOp54
 70
     1
102
RTVSPost2010Prop55
280
     0
102
RTVSPost2010PropOp55
 70
     1
102
RTVSPost2010Prop56
140
1.0
102
RTVSPost2010PropOp56
 70
     1
102
RTVSPost2010Prop57
140
1.0
102
RTVSPost2010PropOp57
 70
     1
  0
XRECORD
  5
321
102
{ACAD_REACTORS
330
320
102
}
330
320
100
AcDbXrecord
280
     1
102
RTVSPropertyOp0
 70
     1
102
RTVSPropertyOp1
 70
     1
102
RTVSPropertyOp2
 70
     1
102
RTVSPropertyOp3
 70
     1
102
RTVSPropertyOp4
 70
     1
102
RTVSPropertyOp5
 70
     1
102
RTVSPropertyOp6
 70
     1
102
RTVSPropertyOp7
 70
     1
102
RTVSPropertyOp8
 70
     1
102
RTVSPropertyOp9
 70
     1
102
RTVSPropertyOp10
 70
     1
102
RTVSPropertyOp11
 70
     1
102
RTVSPropertyOp12
 70
     1
102
RTVSPropertyOp13
 70
     1
102
RTVSPropertyOp14
 70
     1
102
RTVSPropertyOp15
 70
     1
102
RTVSPropertyOp16
 70
     1
102
RTVSPropertyOp17
 70
     1
102
RTVSPropertyOp18
 70
     1
102
RTVSPropertyOp19
 70
     1
102
RTVSPropertyOp20
 70
     1
102
RTVSPropertyOp21
 70
     1
102
RTVSPropertyOp22
 70
     1
102
RTVSPropertyOp23
 70
     1
102
RTVSPropertyOp24
 70
     1
102
RTVSPropertyOp25
 70
     1
102
RTVSPropertyOp26
 70
     1
102
RTVSPropertyOp27
 70
     1
102
RTVSPropertyOp28
 70
     1
102
RTVSPropertyOp29
 70
     1
102
RTVSPropertyOp30
 70
     1
102
RTVSPropertyOp31
 70
     1
102
RTVSPropertyOp32
 70
     1
102
RTVSPropertyOp33
 70
     1
102
RTVSPropertyOp34
 70
     1
102
RTVSPropertyOp35
 70
     1
102
RTVSPropertyOp36
 70
     1
102
RTVSPropertyOp37
 70
     1
102
RTVSPropertyOp38
 70
     1
102
RTVSPropertyOp39
 70
     1
102
RTVSPropertyOp40
 70
     1
102
RTVSPropertyOp41
 70
     1
102
RTVSPropertyOp42
 70
     1
102
RTVSPropertyOp43
 70
     1
102
RTVSPropertyOp44
 70
     1
102
RTVSPropertyOp45
 70
     1
102
RTVSPropertyOp46
 70
     1
102
RTVSPropertyOp47
 70
     1
102
RTVSPropertyOp48
 70
     1
102
RTVSPropertyOp49
 70
     1
102
RTVSPropertyOp50
 70
     1
102
RTVSPropertyOp51
 70
     0
102
RTVSPropertyOp52
 70
     0
102
RTVSPropertyOp53
 70
     1
102
RTVSPropertyOp54
 70
     1
102
RTVSPropertyOp55
 70
     1
102
RTVSPropertyOp56
 70
     1
102
RTVSPropertyOp57
 70
     1
102
RTVSPost2010Prop28
280
     0
102
RTVSPost2010PropOp28
 70
     1
102
RTVSPost2010Prop29
280
     1
102
RTVSPost2010PropOp29
 70
     1
102
RTVSPost2010Prop30
280
     1
102
RTVSPost2010PropOp30
 70
     1
102
RTVSPost2010Prop31
280
     0
102
RTVSPost2010PropOp31
 70
     1
102
RTVSPost2010Prop32
280
     0
102
RTVSPost2010PropOp32
 70
     1
102
RTVSPost2010Prop33
280
     0
102
RTVSPost2010PropOp33
 70
     1
102
RTVSPost2010Prop34
280
     0
102
RTVSPost2010PropOp34
 70
     1
102
RTVSPost2010Prop35
280
     0
102
RTVSPost2010PropOp35
 70
     1
102
RTVSPost2010Prop36
280
     0
102
RTVSPost2010PropOp36
 70
     1
102
RTVSPost2010Prop37
 90
       50
102
RTVSPost2010PropOp37
 70
     1
102
RTVSPost2010Prop38
140
0.0
102
RTVSPost2010PropOp38
 70
     1
102
RTVSPost2010Prop39
140
1.0
102
RTVSPost2010PropOp39
 70
     1
102
RTVSPost2010Prop40
 90
        0
102
RTVSPost2010PropOp40
 70
     1
102
RTVSPost2010Prop41ColorIndex
 90
      178
102
RTVSPost2010Prop41ColorRGB
 90
        0
102
RTVSPost2010PropOp41
 70
     1
102
RTVSPost2010Prop42
 90
       50
102
RTVSPost2010PropOp42
 70
     1
102
RTVSPost2010Prop43
 90
        3
102
RTVSPost2010PropOp43
 70
     1
102
RTVSPost2010Prop44ColorIndex
 90
        5
102
RTVSPost2010Prop44ColorRGB
 90
      255
102
RTVSPost2010PropOp44
 70
     1
102
RTVSPost2010Prop45
280
     0
102
RTVSPost2010PropOp45
 70
     1
102
RTVSPost2010Prop46
 90
       50
102
RTVSPost2010PropOp46
 70
     1
102
RTVSPost2010Prop47
 90
       50
102
RTVSPost2010PropOp47
 70
     1
102
RTVSPost2010Prop48
 90
       50
102
RTVSPost2010PropOp48
 70
     1
102
RTVSPost2010Prop49
280
     0
102
RTVSPost2010PropOp49
 70
     1
102
RTVSPost2010Prop50
 90
       50
102
RTVSPost2010PropOp50
 70
     1
102
RTVSPost2010Prop51ColorIndex
 90
      256
102
RTVSPost2010Prop51ColorRGB
 90
-16777216
102
RTVSPost2010PropOp51
 70
     0
102
RTVSPost2010Prop52
140
1.0
102
RTVSPost2010PropOp52
 70
     0
102
RTVSPost2010Prop53
 90
        2
102
RTVSPost2010PropOp53
 70
     1
102
RTVSPost2010Prop54
  1
strokes_ogs.tif
102
RTVSPost2010PropOp54
 70
     1
102
RTVSPost2010Prop55
280
     0
102
RTVSPost2010PropOp55
 70
     1
102
RTVSPost2010Prop56
140
1.0
102
RTVSPost2010PropOp56
 70
     1
102
RTVSPost2010Prop57
140
1.0
102
RTVSPost2010PropOp57
 70
     1
  0
XRECORD
  5
315
102
{ACAD_REACTORS
330
314
102
}
330
314
100
AcDbXrecord
280
     1
102
RTVSPropertyOp0
 70
     1
102
RTVSPropertyOp1
 70
     1
102
RTVSPropertyOp2
 70
     1
102
RTVSPropertyOp3
 70
     1
102
RTVSPropertyOp4
 70
     1
102
RTVSPropertyOp5
 70
     1
102
RTVSPropertyOp6
 70
     1
102
RTVSPropertyOp7
 70
     1
102
RTVSPropertyOp8
 70
     1
102
RTVSPropertyOp9
 70
     1
102
RTVSPropertyOp10
 70
     1
102
RTVSPropertyOp11
 70
     1
102
RTVSPropertyOp12
 70
     1
102
RTVSPropertyOp13
 70
     1
102
RTVSPropertyOp14
 70
     1
102
RTVSPropertyOp15
 70
     1
102
RTVSPropertyOp16
 70
     1
102
RTVSPropertyOp17
 70
     1
102
RTVSPropertyOp18
 70
     1
102
RTVSPropertyOp19
 70
     1
102
RTVSPropertyOp20
 70
     1
102
RTVSPropertyOp21
 70
     1
102
RTVSPropertyOp22
 70
     1
102
RTVSPropertyOp23
 70
     1
102
RTVSPropertyOp24
 70
     1
102
RTVSPropertyOp25
 70
     1
102
RTVSPropertyOp26
 70
     1
102
RTVSPropertyOp27
 70
     1
102
RTVSPropertyOp28
 70
     1
102
RTVSPropertyOp29
 70
     1
102
RTVSPropertyOp30
 70
     1
102
RTVSPropertyOp31
 70
     1
102
RTVSPropertyOp32
 70
     1
102
RTVSPropertyOp33
 70
     1
102
RTVSPropertyOp34
 70
     1
102
RTVSPropertyOp35
 70
     1
102
RTVSPropertyOp36
 70
     1
102
RTVSPropertyOp37
 70
     1
102
RTVSPropertyOp38
 70
     1
102
RTVSPropertyOp39
 70
     1
102
RTVSPropertyOp40
 70
     1
102
RTVSPropertyOp41
 70
     1
102
RTVSPropertyOp42
 70
     1
102
RTVSPropertyOp43
 70
     1
102
RTVSPropertyOp44
 70
     1
102
RTVSPropertyOp45
 70
     1
102
RTVSPropertyOp46
 70
     1
102
RTVSPropertyOp47
 70
     1
102
RTVSPropertyOp48
 70
     1
102
RTVSPropertyOp49
 70
     1
102
RTVSPropertyOp50
 70
     1
102
RTVSPropertyOp51
 70
     0
102
RTVSPropertyOp52
 70
     0
102
RTVSPropertyOp53
 70
     1
102
RTVSPropertyOp54
 70
     1
102
RTVSPropertyOp55
 70
     1
102
RTVSPropertyOp56
 70
     1
102
RTVSPropertyOp57
 70
     1
102
RTVSPost2010Prop28
280
     0
102
RTVSPost2010PropOp28
 70
     1
102
RTVSPost2010Prop29
280
     1
102
RTVSPost2010PropOp29
 70
     1
102
RTVSPost2010Prop30
280
     1
102
RTVSPost2010PropOp30
 70
     1
102
RTVSPost2010Prop31
280
     0
102
RTVSPost2010PropOp31
 70
     1
102
RTVSPost2010Prop32
280
     0
102
RTVSPost2010PropOp32
 70
     1
102
RTVSPost2010Prop33
280
     0
102
RTVSPost2010PropOp33
 70
     1
102
RTVSPost2010Prop34
280
     0
102
RTVSPost2010PropOp34
 70
     1
102
RTVSPost2010Prop35
280
     0
102
RTVSPost2010PropOp35
 70
     1
102
RTVSPost2010Prop36
280
     0
102
RTVSPost2010PropOp36
 70
     1
102
RTVSPost2010Prop37
 90
       50
102
RTVSPost2010PropOp37
 70
     1
102
RTVSPost2010Prop38
140
0.0
102
RTVSPost2010PropOp38
 70
     1
102
RTVSPost2010Prop39
140
1.0
102
RTVSPost2010PropOp39
 70
     1
102
RTVSPost2010Prop40
 90
        0
102
RTVSPost2010PropOp40
 70
     1
102
RTVSPost2010Prop41ColorIndex
 90
      178
102
RTVSPost2010Prop41ColorRGB
 90
        0
102
RTVSPost2010PropOp41
 70
     1
102
RTVSPost2010Prop42
 90
       50
102
RTVSPost2010PropOp42
 70
     1
102
RTVSPost2010Prop43
 90
        3
102
RTVSPost2010PropOp43
 70
     1
102
RTVSPost2010Prop44ColorIndex
 90
        5
102
RTVSPost2010Prop44ColorRGB
 90
      255
102
RTVSPost2010PropOp44
 70
     1
102
RTVSPost2010Prop45
280
     0
102
RTVSPost2010PropOp45
 70
     1
102
RTVSPost2010Prop46
 90
       50
102
RTVSPost2010PropOp46
 70
     1
102
RTVSPost2010Prop47
 90
       50
102
RTVSPost2010PropOp47
 70
     1
102
RTVSPost2010Prop48
 90
       50
102
RTVSPost2010PropOp48
 70
     1
102
RTVSPost2010Prop49
280
     0
102
RTVSPost2010PropOp49
 70
     1
102
RTVSPost2010Prop50
 90
       50
102
RTVSPost2010PropOp50
 70
     1
102
RTVSPost2010Prop51ColorIndex
 90
      256
102
RTVSPost2010Prop51ColorRGB
 90
-16777216
102
RTVSPost2010PropOp51
 70
     0
102
RTVSPost2010Prop52
140
1.0
102
RTVSPost2010PropOp52
 70
     0
102
RTVSPost2010Prop53
 90
        2
102
RTVSPost2010PropOp53
 70
     1
102
RTVSPost2010Prop54
  1
strokes_ogs.tif
102
RTVSPost2010PropOp54
 70
     1
102
RTVSPost2010Prop55
280
     0
102
RTVSPost2010PropOp55
 70
     1
102
RTVSPost2010Prop56
140
1.0
102
RTVSPost2010PropOp56
 70
     1
102
RTVSPost2010Prop57
140
1.0
102
RTVSPost2010PropOp57
 70
     1
  0
XRECORD
  5
317
102
{ACAD_REACTORS
330
316
102
}
330
316
100
AcDbXrecord
280
     1
102
RTVSPropertyOp0
 70
     1
102
RTVSPropertyOp1
 70
     1
102
RTVSPropertyOp2
 70
     1
102
RTVSPropertyOp3
 70
     1
102
RTVSPropertyOp4
 70
     1
102
RTVSPropertyOp5
 70
     1
102
RTVSPropertyOp6
 70
     1
102
RTVSPropertyOp7
 70
     1
102
RTVSPropertyOp8
 70
     1
102
RTVSPropertyOp9
 70
     1
102
RTVSPropertyOp10
 70
     1
102
RTVSPropertyOp11
 70
     1
102
RTVSPropertyOp12
 70
     1
102
RTVSPropertyOp13
 70
     1
102
RTVSPropertyOp14
 70
     1
102
RTVSPropertyOp15
 70
     1
102
RTVSPropertyOp16
 70
     1
102
RTVSPropertyOp17
 70
     1
102
RTVSPropertyOp18
 70
     1
102
RTVSPropertyOp19
 70
     1
102
RTVSPropertyOp20
 70
     1
102
RTVSPropertyOp21
 70
     1
102
RTVSPropertyOp22
 70
     1
102
RTVSPropertyOp23
 70
     1
102
RTVSPropertyOp24
 70
     1
102
RTVSPropertyOp25
 70
     1
102
RTVSPropertyOp26
 70
     1
102
RTVSPropertyOp27
 70
     1
102
RTVSPropertyOp28
 70
     1
102
RTVSPropertyOp29
 70
     1
102
RTVSPropertyOp30
 70
     1
102
RTVSPropertyOp31
 70
     1
102
RTVSPropertyOp32
 70
     1
102
RTVSPropertyOp33
 70
     1
102
RTVSPropertyOp34
 70
     1
102
RTVSPropertyOp35
 70
     1
102
RTVSPropertyOp36
 70
     1
102
RTVSPropertyOp37
 70
     1
102
RTVSPropertyOp38
 70
     1
102
RTVSPropertyOp39
 70
     1
102
RTVSPropertyOp40
 70
     1
102
RTVSPropertyOp41
 70
     1
102
RTVSPropertyOp42
 70
     1
102
RTVSPropertyOp43
 70
     1
102
RTVSPropertyOp44
 70
     1
102
RTVSPropertyOp45
 70
     1
102
RTVSPropertyOp46
 70
     1
102
RTVSPropertyOp47
 70
     1
102
RTVSPropertyOp48
 70
     1
102
RTVSPropertyOp49
 70
     1
102
RTVSPropertyOp50
 70
     1
102
RTVSPropertyOp51
 70
     0
102
RTVSPropertyOp52
 70
     0
102
RTVSPropertyOp53
 70
     1
102
RTVSPropertyOp54
 70
     1
102
RTVSPropertyOp55
 70
     1
102
RTVSPropertyOp56
 70
     1
102
RTVSPropertyOp57
 70
     1
102
RTVSPost2010Prop28
280
     0
102
RTVSPost2010PropOp28
 70
     1
102
RTVSPost2010Prop29
280
     1
102
RTVSPost2010PropOp29
 70
     1
102
RTVSPost2010Prop30
280
     1
102
RTVSPost2010PropOp30
 70
     1
102
RTVSPost2010Prop31
280
     0
102
RTVSPost2010PropOp31
 70
     1
102
RTVSPost2010Prop32
280
     0
102
RTVSPost2010PropOp32
 70
     1
102
RTVSPost2010Prop33
280
     0
102
RTVSPost2010PropOp33
 70
     1
102
RTVSPost2010Prop34
280
     0
102
RTVSPost2010PropOp34
 70
     1
102
RTVSPost2010Prop35
280
     0
102
RTVSPost2010PropOp35
 70
     1
102
RTVSPost2010Prop36
280
     0
102
RTVSPost2010PropOp36
 70
     1
102
RTVSPost2010Prop37
 90
       50
102
RTVSPost2010PropOp37
 70
     1
102
RTVSPost2010Prop38
140
0.0
102
RTVSPost2010PropOp38
 70
     1
102
RTVSPost2010Prop39
140
1.0
102
RTVSPost2010PropOp39
 70
     1
102
RTVSPost2010Prop40
 90
        0
102
RTVSPost2010PropOp40
 70
     1
102
RTVSPost2010Prop41ColorIndex
 90
      178
102
RTVSPost2010Prop41ColorRGB
 90
        0
102
RTVSPost2010PropOp41
 70
     1
102
RTVSPost2010Prop42
 90
       50
102
RTVSPost2010PropOp42
 70
     1
102
RTVSPost2010Prop43
 90
        3
102
RTVSPost2010PropOp43
 70
     1
102
RTVSPost2010Prop44ColorIndex
 90
        5
102
RTVSPost2010Prop44ColorRGB
 90
      255
102
RTVSPost2010PropOp44
 70
     1
102
RTVSPost2010Prop45
280
     0
102
RTVSPost2010PropOp45
 70
     1
102
RTVSPost2010Prop46
 90
       50
102
RTVSPost2010PropOp46
 70
     1
102
RTVSPost2010Prop47
 90
       50
102
RTVSPost2010PropOp47
 70
     1
102
RTVSPost2010Prop48
 90
       50
102
RTVSPost2010PropOp48
 70
     1
102
RTVSPost2010Prop49
280
     0
102
RTVSPost2010PropOp49
 70
     1
102
RTVSPost2010Prop50
 90
       50
102
RTVSPost2010PropOp50
 70
     1
102
RTVSPost2010Prop51ColorIndex
 90
      256
102
RTVSPost2010Prop51ColorRGB
 90
-16777216
102
RTVSPost2010PropOp51
 70
     0
102
RTVSPost2010Prop52
140
1.0
102
RTVSPost2010PropOp52
 70
     0
102
RTVSPost2010Prop53
 90
        2
102
RTVSPost2010PropOp53
 70
     1
102
RTVSPost2010Prop54
  1
strokes_ogs.tif
102
RTVSPost2010PropOp54
 70
     1
102
RTVSPost2010Prop55
280
     0
102
RTVSPost2010PropOp55
 70
     1
102
RTVSPost2010Prop56
140
1.0
102
RTVSPost2010PropOp56
 70
     1
102
RTVSPost2010Prop57
140
1.0
102
RTVSPost2010PropOp57
 70
     1
  0
XRECORD
  5
327
102
{ACAD_REACTORS
330
326
102
}
330
326
100
AcDbXrecord
280
     1
102
RTVSPropertyOp0
 70
     0
102
RTVSPropertyOp1
 70
     0
102
RTVSPropertyOp2
 70
     0
102
RTVSPropertyOp3
 70
     0
102
RTVSPropertyOp4
 70
     0
102
RTVSPropertyOp5
 70
     0
102
RTVSPropertyOp6
 70
     0
102
RTVSPropertyOp7
 70
     0
102
RTVSPropertyOp8
 70
     0
102
RTVSPropertyOp9
 70
     0
102
RTVSPropertyOp10
 70
     0
102
RTVSPropertyOp11
 70
     0
102
RTVSPropertyOp12
 70
     0
102
RTVSPropertyOp13
 70
     0
102
RTVSPropertyOp14
 70
     2
102
RTVSPropertyOp15
 70
     0
102
RTVSPropertyOp16
 70
     0
102
RTVSPropertyOp17
 70
     0
102
RTVSPropertyOp18
 70
     0
102
RTVSPropertyOp19
 70
     0
102
RTVSPropertyOp20
 70
     0
102
RTVSPropertyOp21
 70
     0
102
RTVSPropertyOp22
 70
     0
102
RTVSPropertyOp23
 70
     0
102
RTVSPropertyOp24
 70
     0
102
RTVSPropertyOp25
 70
     0
102
RTVSPropertyOp26
 70
     0
102
RTVSPropertyOp27
 70
     0
102
RTVSPropertyOp28
 70
     0
102
RTVSPropertyOp29
 70
     0
102
RTVSPropertyOp30
 70
     0
102
RTVSPropertyOp31
 70
     0
102
RTVSPropertyOp32
 70
     0
102
RTVSPropertyOp33
 70
     0
102
RTVSPropertyOp34
 70
     0
102
RTVSPropertyOp35
 70
     0
102
RTVSPropertyOp36
 70
     0
102
RTVSPropertyOp37
 70
     0
102
RTVSPropertyOp38
 70
     0
102
RTVSPropertyOp39
 70
     0
102
RTVSPropertyOp40
 70
     0
102
RTVSPropertyOp41
 70
     0
102
RTVSPropertyOp42
 70
     0
102
RTVSPropertyOp43
 70
     0
102
RTVSPropertyOp44
 70
     0
102
RTVSPropertyOp45
 70
     0
102
RTVSPropertyOp46
 70
     0
102
RTVSPropertyOp47
 70
     0
102
RTVSPropertyOp48
 70
     0
102
RTVSPropertyOp49
 70
     0
102
RTVSPropertyOp50
 70
     0
102
RTVSPropertyOp51
 70
     0
102
RTVSPropertyOp52
 70
     0
102
RTVSPropertyOp53
 70
     0
102
RTVSPropertyOp54
 70
     0
102
RTVSPropertyOp55
 70
     0
102
RTVSPropertyOp56
 70
     0
102
RTVSPropertyOp57
 70
     0
102
RTVSPost2010Prop28
280
     0
102
RTVSPost2010PropOp28
 70
     0
102
RTVSPost2010Prop29
280
     1
102
RTVSPost2010PropOp29
 70
     0
102
RTVSPost2010Prop30
280
     1
102
RTVSPost2010PropOp30
 70
     0
102
RTVSPost2010Prop31
280
     0
102
RTVSPost2010PropOp31
 70
     0
102
RTVSPost2010Prop32
280
     0
102
RTVSPost2010PropOp32
 70
     0
102
RTVSPost2010Prop33
280
     0
102
RTVSPost2010PropOp33
 70
     0
102
RTVSPost2010Prop34
280
     0
102
RTVSPost2010PropOp34
 70
     0
102
RTVSPost2010Prop35
280
     0
102
RTVSPost2010PropOp35
 70
     0
102
RTVSPost2010Prop36
280
     0
102
RTVSPost2010PropOp36
 70
     0
102
RTVSPost2010Prop37
 90
       50
102
RTVSPost2010PropOp37
 70
     0
102
RTVSPost2010Prop38
140
0.0
102
RTVSPost2010PropOp38
 70
     0
102
RTVSPost2010Prop39
140
1.0
102
RTVSPost2010PropOp39
 70
     0
102
RTVSPost2010Prop40
 90
        0
102
RTVSPost2010PropOp40
 70
     0
102
RTVSPost2010Prop41ColorIndex
 90
      178
102
RTVSPost2010Prop41ColorRGB
 90
        0
102
RTVSPost2010PropOp41
 70
     0
102
RTVSPost2010Prop42
 90
       50
102
RTVSPost2010PropOp42
 70
     0
102
RTVSPost2010Prop43
 90
        3
102
RTVSPost2010PropOp43
 70
     0
102
RTVSPost2010Prop44ColorIndex
 90
        5
102
RTVSPost2010Prop44ColorRGB
 90
      255
102
RTVSPost2010PropOp44
 70
     0
102
RTVSPost2010Prop45
280
     0
102
RTVSPost2010PropOp45
 70
     0
102
RTVSPost2010Prop46
 90
       50
102
RTVSPost2010PropOp46
 70
     0
102
RTVSPost2010Prop47
 90
       50
102
RTVSPost2010PropOp47
 70
     0
102
RTVSPost2010Prop48
 90
       50
102
RTVSPost2010PropOp48
 70
     0
102
RTVSPost2010Prop49
280
     0
102
RTVSPost2010PropOp49
 70
     0
102
RTVSPost2010Prop50
 90
       50
102
RTVSPost2010PropOp50
 70
     0
102
RTVSPost2010Prop51ColorIndex
 90
      256
102
RTVSPost2010Prop51ColorRGB
 90
-16777216
102
RTVSPost2010PropOp51
 70
     0
102
RTVSPost2010Prop52
140
1.0
102
RTVSPost2010PropOp52
 70
     0
102
RTVSPost2010Prop53
 90
        2
102
RTVSPost2010PropOp53
 70
     0
102
RTVSPost2010Prop54
  1
strokes_ogs.tif
102
RTVSPost2010PropOp54
 70
     0
102
RTVSPost2010Prop55
280
     0
102
RTVSPost2010PropOp55
 70
     0
102
RTVSPost2010Prop56
140
1.0
102
RTVSPost2010PropOp56
 70
     0
102
RTVSPost2010Prop57
140
1.0
102
RTVSPost2010PropOp57
 70
     0
  0
XRECORD
  5
31F
102
{ACAD_REACTORS
330
31E
102
}
330
31E
100
AcDbXrecord
280
     1
102
RTVSPropertyOp0
 70
     1
102
RTVSPropertyOp1
 70
     1
102
RTVSPropertyOp2
 70
     1
102
RTVSPropertyOp3
 70
     1
102
RTVSPropertyOp4
 70
     1
102
RTVSPropertyOp5
 70
     1
102
RTVSPropertyOp6
 70
     1
102
RTVSPropertyOp7
 70
     1
102
RTVSPropertyOp8
 70
     1
102
RTVSPropertyOp9
 70
     1
102
RTVSPropertyOp10
 70
     1
102
RTVSPropertyOp11
 70
     1
102
RTVSPropertyOp12
 70
     1
102
RTVSPropertyOp13
 70
     1
102
RTVSPropertyOp14
 70
     1
102
RTVSPropertyOp15
 70
     1
102
RTVSPropertyOp16
 70
     1
102
RTVSPropertyOp17
 70
     1
102
RTVSPropertyOp18
 70
     1
102
RTVSPropertyOp19
 70
     1
102
RTVSPropertyOp20
 70
     1
102
RTVSPropertyOp21
 70
     1
102
RTVSPropertyOp22
 70
     1
102
RTVSPropertyOp23
 70
     1
102
RTVSPropertyOp24
 70
     1
102
RTVSPropertyOp25
 70
     1
102
RTVSPropertyOp26
 70
     1
102
RTVSPropertyOp27
 70
     1
102
RTVSPropertyOp28
 70
     1
102
RTVSPropertyOp29
 70
     1
102
RTVSPropertyOp30
 70
     1
102
RTVSPropertyOp31
 70
     1
102
RTVSPropertyOp32
 70
     1
102
RTVSPropertyOp33
 70
     1
102
RTVSPropertyOp34
 70
     1
102
RTVSPropertyOp35
 70
     1
102
RTVSPropertyOp36
 70
     1
102
RTVSPropertyOp37
 70
     1
102
RTVSPropertyOp38
 70
     1
102
RTVSPropertyOp39
 70
     1
102
RTVSPropertyOp40
 70
     1
102
RTVSPropertyOp41
 70
     1
102
RTVSPropertyOp42
 70
     1
102
RTVSPropertyOp43
 70
     1
102
RTVSPropertyOp44
 70
     1
102
RTVSPropertyOp45
 70
     1
102
RTVSPropertyOp46
 70
     1
102
RTVSPropertyOp47
 70
     1
102
RTVSPropertyOp48
 70
     1
102
RTVSPropertyOp49
 70
     1
102
RTVSPropertyOp50
 70
     1
102
RTVSPropertyOp51
 70
     0
102
RTVSPropertyOp52
 70
     0
102
RTVSPropertyOp53
 70
     1
102
RTVSPropertyOp54
 70
     1
102
RTVSPropertyOp55
 70
     1
102
RTVSPropertyOp56
 70
     1
102
RTVSPropertyOp57
 70
     1
102
RTVSPost2010Prop28
280
     0
102
RTVSPost2010PropOp28
 70
     1
102
RTVSPost2010Prop29
280
     1
102
RTVSPost2010PropOp29
 70
     1
102
RTVSPost2010Prop30
280
     1
102
RTVSPost2010PropOp30
 70
     1
102
RTVSPost2010Prop31
280
     0
102
RTVSPost2010PropOp31
 70
     1
102
RTVSPost2010Prop32
280
     0
102
RTVSPost2010PropOp32
 70
     1
102
RTVSPost2010Prop33
280
     0
102
RTVSPost2010PropOp33
 70
     1
102
RTVSPost2010Prop34
280
     0
102
RTVSPost2010PropOp34
 70
     1
102
RTVSPost2010Prop35
280
     0
102
RTVSPost2010PropOp35
 70
     1
102
RTVSPost2010Prop36
280
     0
102
RTVSPost2010PropOp36
 70
     1
102
RTVSPost2010Prop37
 90
       50
102
RTVSPost2010PropOp37
 70
     1
102
RTVSPost2010Prop38
140
0.0
102
RTVSPost2010PropOp38
 70
     1
102
RTVSPost2010Prop39
140
1.0
102
RTVSPost2010PropOp39
 70
     1
102
RTVSPost2010Prop40
 90
        0
102
RTVSPost2010PropOp40
 70
     1
102
RTVSPost2010Prop41ColorIndex
 90
      178
102
RTVSPost2010Prop41ColorRGB
 90
        0
102
RTVSPost2010PropOp41
 70
     1
102
RTVSPost2010Prop42
 90
       50
102
RTVSPost2010PropOp42
 70
     1
102
RTVSPost2010Prop43
 90
        3
102
RTVSPost2010PropOp43
 70
     1
102
RTVSPost2010Prop44ColorIndex
 90
        5
102
RTVSPost2010Prop44ColorRGB
 90
      255
102
RTVSPost2010PropOp44
 70
     1
102
RTVSPost2010Prop45
280
     0
102
RTVSPost2010PropOp45
 70
     1
102
RTVSPost2010Prop46
 90
       50
102
RTVSPost2010PropOp46
 70
     1
102
RTVSPost2010Prop47
 90
       50
102
RTVSPost2010PropOp47
 70
     1
102
RTVSPost2010Prop48
 90
       50
102
RTVSPost2010PropOp48
 70
     1
102
RTVSPost2010Prop49
280
     0
102
RTVSPost2010PropOp49
 70
     1
102
RTVSPost2010Prop50
 90
       50
102
RTVSPost2010PropOp50
 70
     1
102
RTVSPost2010Prop51ColorIndex
 90
      256
102
RTVSPost2010Prop51ColorRGB
 90
-16777216
102
RTVSPost2010PropOp51
 70
     0
102
RTVSPost2010Prop52
140
1.0
102
RTVSPost2010PropOp52
 70
     0
102
RTVSPost2010Prop53
 90
        2
102
RTVSPost2010PropOp53
 70
     1
102
RTVSPost2010Prop54
  1
strokes_ogs.tif
102
RTVSPost2010PropOp54
 70
     1
102
RTVSPost2010Prop55
280
     0
102
RTVSPost2010PropOp55
 70
     1
102
RTVSPost2010Prop56
140
1.0
102
RTVSPost2010PropOp56
 70
     1
102
RTVSPost2010Prop57
140
1.0
102
RTVSPost2010PropOp57
 70
     1
  0
XRECORD
  5
303
102
{ACAD_REACTORS
330
302
102
}
330
302
100
AcDbXrecord
280
     1
102
RTVSPropertyOp0
 70
     1
102
RTVSPropertyOp1
 70
     1
102
RTVSPropertyOp2
 70
     1
102
RTVSPropertyOp3
 70
     1
102
RTVSPropertyOp4
 70
     1
102
RTVSPropertyOp5
 70
     1
102
RTVSPropertyOp6
 70
     1
102
RTVSPropertyOp7
 70
     1
102
RTVSPropertyOp8
 70
     1
102
RTVSPropertyOp9
 70
     1
102
RTVSPropertyOp10
 70
     1
102
RTVSPropertyOp11
 70
     1
102
RTVSPropertyOp12
 70
     1
102
RTVSPropertyOp13
 70
     1
102
RTVSPropertyOp14
 70
     1
102
RTVSPropertyOp15
 70
     1
102
RTVSPropertyOp16
 70
     1
102
RTVSPropertyOp17
 70
     1
102
RTVSPropertyOp18
 70
     1
102
RTVSPropertyOp19
 70
     1
102
RTVSPropertyOp20
 70
     1
102
RTVSPropertyOp21
 70
     1
102
RTVSPropertyOp22
 70
     1
102
RTVSPropertyOp23
 70
     1
102
RTVSPropertyOp24
 70
     1
102
RTVSPropertyOp25
 70
     1
102
RTVSPropertyOp26
 70
     1
102
RTVSPropertyOp27
 70
     1
102
RTVSPropertyOp28
 70
     1
102
RTVSPropertyOp29
 70
     1
102
RTVSPropertyOp30
 70
     1
102
RTVSPropertyOp31
 70
     1
102
RTVSPropertyOp32
 70
     1
102
RTVSPropertyOp33
 70
     1
102
RTVSPropertyOp34
 70
     1
102
RTVSPropertyOp35
 70
     1
102
RTVSPropertyOp36
 70
     1
102
RTVSPropertyOp37
 70
     1
102
RTVSPropertyOp38
 70
     1
102
RTVSPropertyOp39
 70
     1
102
RTVSPropertyOp40
 70
     1
102
RTVSPropertyOp41
 70
     1
102
RTVSPropertyOp42
 70
     1
102
RTVSPropertyOp43
 70
     1
102
RTVSPropertyOp44
 70
     1
102
RTVSPropertyOp45
 70
     1
102
RTVSPropertyOp46
 70
     1
102
RTVSPropertyOp47
 70
     1
102
RTVSPropertyOp48
 70
     1
102
RTVSPropertyOp49
 70
     1
102
RTVSPropertyOp50
 70
     1
102
RTVSPropertyOp51
 70
     0
102
RTVSPropertyOp52
 70
     0
102
RTVSPropertyOp53
 70
     1
102
RTVSPropertyOp54
 70
     1
102
RTVSPropertyOp55
 70
     1
102
RTVSPropertyOp56
 70
     1
102
RTVSPropertyOp57
 70
     1
102
RTVSPost2010Prop28
280
     0
102
RTVSPost2010PropOp28
 70
     1
102
RTVSPost2010Prop29
280
     1
102
RTVSPost2010PropOp29
 70
     1
102
RTVSPost2010Prop30
280
     1
102
RTVSPost2010PropOp30
 70
     1
102
RTVSPost2010Prop31
280
     0
102
RTVSPost2010PropOp31
 70
     1
102
RTVSPost2010Prop32
280
     0
102
RTVSPost2010PropOp32
 70
     1
102
RTVSPost2010Prop33
280
     0
102
RTVSPost2010PropOp33
 70
     1
102
RTVSPost2010Prop34
280
     0
102
RTVSPost2010PropOp34
 70
     1
102
RTVSPost2010Prop35
280
     0
102
RTVSPost2010PropOp35
 70
     1
102
RTVSPost2010Prop36
280
     0
102
RTVSPost2010PropOp36
 70
     1
102
RTVSPost2010Prop37
 90
       50
102
RTVSPost2010PropOp37
 70
     1
102
RTVSPost2010Prop38
140
0.0
102
RTVSPost2010PropOp38
 70
     1
102
RTVSPost2010Prop39
140
1.0
102
RTVSPost2010PropOp39
 70
     1
102
RTVSPost2010Prop40
 90
        0
102
RTVSPost2010PropOp40
 70
     1
102
RTVSPost2010Prop41ColorIndex
 90
      178
102
RTVSPost2010Prop41ColorRGB
 90
        0
102
RTVSPost2010PropOp41
 70
     1
102
RTVSPost2010Prop42
 90
       50
102
RTVSPost2010PropOp42
 70
     1
102
RTVSPost2010Prop43
 90
        3
102
RTVSPost2010PropOp43
 70
     1
102
RTVSPost2010Prop44ColorIndex
 90
        5
102
RTVSPost2010Prop44ColorRGB
 90
      255
102
RTVSPost2010PropOp44
 70
     1
102
RTVSPost2010Prop45
280
     0
102
RTVSPost2010PropOp45
 70
     1
102
RTVSPost2010Prop46
 90
       50
102
RTVSPost2010PropOp46
 70
     1
102
RTVSPost2010Prop47
 90
       50
102
RTVSPost2010PropOp47
 70
     1
102
RTVSPost2010Prop48
 90
       50
102
RTVSPost2010PropOp48
 70
     1
102
RTVSPost2010Prop49
280
     0
102
RTVSPost2010PropOp49
 70
     1
102
RTVSPost2010Prop50
 90
       50
102
RTVSPost2010PropOp50
 70
     1
102
RTVSPost2010Prop51ColorIndex
 90
      256
102
RTVSPost2010Prop51ColorRGB
 90
-16777216
102
RTVSPost2010PropOp51
 70
     0
102
RTVSPost2010Prop52
140
1.0
102
RTVSPost2010PropOp52
 70
     0
102
RTVSPost2010Prop53
 90
        2
102
RTVSPost2010PropOp53
 70
     1
102
RTVSPost2010Prop54
  1
strokes_ogs.tif
102
RTVSPost2010PropOp54
 70
     1
102
RTVSPost2010Prop55
280
     0
102
RTVSPost2010PropOp55
 70
     1
102
RTVSPost2010Prop56
140
1.0
102
RTVSPost2010PropOp56
 70
     1
102
RTVSPost2010Prop57
140
1.0
102
RTVSPost2010PropOp57
 70
     1
  0
XRECORD
  5
305
102
{ACAD_REACTORS
330
304
102
}
330
304
100
AcDbXrecord
280
     1
102
RTVSPropertyOp0
 70
     1
102
RTVSPropertyOp1
 70
     1
102
RTVSPropertyOp2
 70
     1
102
RTVSPropertyOp3
 70
     1
102
RTVSPropertyOp4
 70
     1
102
RTVSPropertyOp5
 70
     1
102
RTVSPropertyOp6
 70
     1
102
RTVSPropertyOp7
 70
     1
102
RTVSPropertyOp8
 70
     1
102
RTVSPropertyOp9
 70
     1
102
RTVSPropertyOp10
 70
     1
102
RTVSPropertyOp11
 70
     1
102
RTVSPropertyOp12
 70
     1
102
RTVSPropertyOp13
 70
     1
102
RTVSPropertyOp14
 70
     1
102
RTVSPropertyOp15
 70
     1
102
RTVSPropertyOp16
 70
     1
102
RTVSPropertyOp17
 70
     1
102
RTVSPropertyOp18
 70
     1
102
RTVSPropertyOp19
 70
     1
102
RTVSPropertyOp20
 70
     1
102
RTVSPropertyOp21
 70
     1
102
RTVSPropertyOp22
 70
     1
102
RTVSPropertyOp23
 70
     1
102
RTVSPropertyOp24
 70
     1
102
RTVSPropertyOp25
 70
     1
102
RTVSPropertyOp26
 70
     1
102
RTVSPropertyOp27
 70
     1
102
RTVSPropertyOp28
 70
     1
102
RTVSPropertyOp29
 70
     1
102
RTVSPropertyOp30
 70
     1
102
RTVSPropertyOp31
 70
     1
102
RTVSPropertyOp32
 70
     1
102
RTVSPropertyOp33
 70
     1
102
RTVSPropertyOp34
 70
     1
102
RTVSPropertyOp35
 70
     1
102
RTVSPropertyOp36
 70
     1
102
RTVSPropertyOp37
 70
     1
102
RTVSPropertyOp38
 70
     1
102
RTVSPropertyOp39
 70
     1
102
RTVSPropertyOp40
 70
     1
102
RTVSPropertyOp41
 70
     1
102
RTVSPropertyOp42
 70
     1
102
RTVSPropertyOp43
 70
     1
102
RTVSPropertyOp44
 70
     1
102
RTVSPropertyOp45
 70
     1
102
RTVSPropertyOp46
 70
     1
102
RTVSPropertyOp47
 70
     1
102
RTVSPropertyOp48
 70
     1
102
RTVSPropertyOp49
 70
     1
102
RTVSPropertyOp50
 70
     1
102
RTVSPropertyOp51
 70
     0
102
RTVSPropertyOp52
 70
     0
102
RTVSPropertyOp53
 70
     1
102
RTVSPropertyOp54
 70
     1
102
RTVSPropertyOp55
 70
     1
102
RTVSPropertyOp56
 70
     1
102
RTVSPropertyOp57
 70
     1
102
RTVSPost2010Prop28
280
     0
102
RTVSPost2010PropOp28
 70
     1
102
RTVSPost2010Prop29
280
     1
102
RTVSPost2010PropOp29
 70
     1
102
RTVSPost2010Prop30
280
     1
102
RTVSPost2010PropOp30
 70
     1
102
RTVSPost2010Prop31
280
     0
102
RTVSPost2010PropOp31
 70
     1
102
RTVSPost2010Prop32
280
     0
102
RTVSPost2010PropOp32
 70
     1
102
RTVSPost2010Prop33
280
     0
102
RTVSPost2010PropOp33
 70
     1
102
RTVSPost2010Prop34
280
     0
102
RTVSPost2010PropOp34
 70
     1
102
RTVSPost2010Prop35
280
     0
102
RTVSPost2010PropOp35
 70
     1
102
RTVSPost2010Prop36
280
     0
102
RTVSPost2010PropOp36
 70
     1
102
RTVSPost2010Prop37
 90
       50
102
RTVSPost2010PropOp37
 70
     1
102
RTVSPost2010Prop38
140
0.0
102
RTVSPost2010PropOp38
 70
     1
102
RTVSPost2010Prop39
140
1.0
102
RTVSPost2010PropOp39
 70
     1
102
RTVSPost2010Prop40
 90
        0
102
RTVSPost2010PropOp40
 70
     1
102
RTVSPost2010Prop41ColorIndex
 90
      178
102
RTVSPost2010Prop41ColorRGB
 90
        0
102
RTVSPost2010PropOp41
 70
     1
102
RTVSPost2010Prop42
 90
       50
102
RTVSPost2010PropOp42
 70
     1
102
RTVSPost2010Prop43
 90
        3
102
RTVSPost2010PropOp43
 70
     1
102
RTVSPost2010Prop44ColorIndex
 90
        5
102
RTVSPost2010Prop44ColorRGB
 90
      255
102
RTVSPost2010PropOp44
 70
     1
102
RTVSPost2010Prop45
280
     0
102
RTVSPost2010PropOp45
 70
     1
102
RTVSPost2010Prop46
 90
       50
102
RTVSPost2010PropOp46
 70
     1
102
RTVSPost2010Prop47
 90
       50
102
RTVSPost2010PropOp47
 70
     1
102
RTVSPost2010Prop48
 90
       50
102
RTVSPost2010PropOp48
 70
     1
102
RTVSPost2010Prop49
280
     0
102
RTVSPost2010PropOp49
 70
     1
102
RTVSPost2010Prop50
 90
       50
102
RTVSPost2010PropOp50
 70
     1
102
RTVSPost2010Prop51ColorIndex
 90
      256
102
RTVSPost2010Prop51ColorRGB
 90
-16777216
102
RTVSPost2010PropOp51
 70
     0
102
RTVSPost2010Prop52
140
1.0
102
RTVSPost2010PropOp52
 70
     0
102
RTVSPost2010Prop53
 90
        2
102
RTVSPost2010PropOp53
 70
     1
102
RTVSPost2010Prop54
  1
strokes_ogs.tif
102
RTVSPost2010PropOp54
 70
     1
102
RTVSPost2010Prop55
280
     0
102
RTVSPost2010PropOp55
 70
     1
102
RTVSPost2010Prop56
140
1.0
102
RTVSPost2010PropOp56
 70
     1
102
RTVSPost2010Prop57
140
1.0
102
RTVSPost2010PropOp57
 70
     1
  0
XRECORD
  5
307
102
{ACAD_REACTORS
330
306
102
}
330
306
100
AcDbXrecord
280
     1
102
RTVSPropertyOp0
 70
     1
102
RTVSPropertyOp1
 70
     1
102
RTVSPropertyOp2
 70
     1
102
RTVSPropertyOp3
 70
     1
102
RTVSPropertyOp4
 70
     1
102
RTVSPropertyOp5
 70
     1
102
RTVSPropertyOp6
 70
     1
102
RTVSPropertyOp7
 70
     1
102
RTVSPropertyOp8
 70
     1
102
RTVSPropertyOp9
 70
     1
102
RTVSPropertyOp10
 70
     1
102
RTVSPropertyOp11
 70
     1
102
RTVSPropertyOp12
 70
     1
102
RTVSPropertyOp13
 70
     1
102
RTVSPropertyOp14
 70
     1
102
RTVSPropertyOp15
 70
     1
102
RTVSPropertyOp16
 70
     1
102
RTVSPropertyOp17
 70
     1
102
RTVSPropertyOp18
 70
     1
102
RTVSPropertyOp19
 70
     1
102
RTVSPropertyOp20
 70
     1
102
RTVSPropertyOp21
 70
     1
102
RTVSPropertyOp22
 70
     1
102
RTVSPropertyOp23
 70
     1
102
RTVSPropertyOp24
 70
     1
102
RTVSPropertyOp25
 70
     1
102
RTVSPropertyOp26
 70
     1
102
RTVSPropertyOp27
 70
     1
102
RTVSPropertyOp28
 70
     1
102
RTVSPropertyOp29
 70
     1
102
RTVSPropertyOp30
 70
     1
102
RTVSPropertyOp31
 70
     1
102
RTVSPropertyOp32
 70
     1
102
RTVSPropertyOp33
 70
     1
102
RTVSPropertyOp34
 70
     1
102
RTVSPropertyOp35
 70
     1
102
RTVSPropertyOp36
 70
     1
102
RTVSPropertyOp37
 70
     1
102
RTVSPropertyOp38
 70
     1
102
RTVSPropertyOp39
 70
     1
102
RTVSPropertyOp40
 70
     1
102
RTVSPropertyOp41
 70
     1
102
RTVSPropertyOp42
 70
     1
102
RTVSPropertyOp43
 70
     1
102
RTVSPropertyOp44
 70
     1
102
RTVSPropertyOp45
 70
     1
102
RTVSPropertyOp46
 70
     1
102
RTVSPropertyOp47
 70
     1
102
RTVSPropertyOp48
 70
     1
102
RTVSPropertyOp49
 70
     1
102
RTVSPropertyOp50
 70
     1
102
RTVSPropertyOp51
 70
     0
102
RTVSPropertyOp52
 70
     0
102
RTVSPropertyOp53
 70
     1
102
RTVSPropertyOp54
 70
     1
102
RTVSPropertyOp55
 70
     1
102
RTVSPropertyOp56
 70
     1
102
RTVSPropertyOp57
 70
     1
102
RTVSPost2010Prop28
280
     0
102
RTVSPost2010PropOp28
 70
     1
102
RTVSPost2010Prop29
280
     1
102
RTVSPost2010PropOp29
 70
     1
102
RTVSPost2010Prop30
280
     1
102
RTVSPost2010PropOp30
 70
     1
102
RTVSPost2010Prop31
280
     0
102
RTVSPost2010PropOp31
 70
     1
102
RTVSPost2010Prop32
280
     0
102
RTVSPost2010PropOp32
 70
     1
102
RTVSPost2010Prop33
280
     0
102
RTVSPost2010PropOp33
 70
     1
102
RTVSPost2010Prop34
280
     0
102
RTVSPost2010PropOp34
 70
     1
102
RTVSPost2010Prop35
280
     0
102
RTVSPost2010PropOp35
 70
     1
102
RTVSPost2010Prop36
280
     0
102
RTVSPost2010PropOp36
 70
     1
102
RTVSPost2010Prop37
 90
       50
102
RTVSPost2010PropOp37
 70
     1
102
RTVSPost2010Prop38
140
0.0
102
RTVSPost2010PropOp38
 70
     1
102
RTVSPost2010Prop39
140
1.0
102
RTVSPost2010PropOp39
 70
     1
102
RTVSPost2010Prop40
 90
        0
102
RTVSPost2010PropOp40
 70
     1
102
RTVSPost2010Prop41ColorIndex
 90
      178
102
RTVSPost2010Prop41ColorRGB
 90
        0
102
RTVSPost2010PropOp41
 70
     1
102
RTVSPost2010Prop42
 90
       50
102
RTVSPost2010PropOp42
 70
     1
102
RTVSPost2010Prop43
 90
        3
102
RTVSPost2010PropOp43
 70
     1
102
RTVSPost2010Prop44ColorIndex
 90
        5
102
RTVSPost2010Prop44ColorRGB
 90
      255
102
RTVSPost2010PropOp44
 70
     1
102
RTVSPost2010Prop45
280
     0
102
RTVSPost2010PropOp45
 70
     1
102
RTVSPost2010Prop46
 90
       50
102
RTVSPost2010PropOp46
 70
     1
102
RTVSPost2010Prop47
 90
       50
102
RTVSPost2010PropOp47
 70
     1
102
RTVSPost2010Prop48
 90
       50
102
RTVSPost2010PropOp48
 70
     1
102
RTVSPost2010Prop49
280
     0
102
RTVSPost2010PropOp49
 70
     1
102
RTVSPost2010Prop50
 90
       50
102
RTVSPost2010PropOp50
 70
     1
102
RTVSPost2010Prop51ColorIndex
 90
      256
102
RTVSPost2010Prop51ColorRGB
 90
-16777216
102
RTVSPost2010PropOp51
 70
     0
102
RTVSPost2010Prop52
140
1.0
102
RTVSPost2010PropOp52
 70
     0
102
RTVSPost2010Prop53
 90
        2
102
RTVSPost2010PropOp53
 70
     1
102
RTVSPost2010Prop54
  1
strokes_ogs.tif
102
RTVSPost2010PropOp54
 70
     1
102
RTVSPost2010Prop55
280
     0
102
RTVSPost2010PropOp55
 70
     1
102
RTVSPost2010Prop56
140
1.0
102
RTVSPost2010PropOp56
 70
     1
102
RTVSPost2010Prop57
140
1.0
102
RTVSPost2010PropOp57
 70
     1
  0
XRECORD
  5
309
102
{ACAD_REACTORS
330
308
102
}
330
308
100
AcDbXrecord
280
     1
102
RTVSPropertyOp0
 70
     1
102
RTVSPropertyOp1
 70
     1
102
RTVSPropertyOp2
 70
     1
102
RTVSPropertyOp3
 70
     1
102
RTVSPropertyOp4
 70
     1
102
RTVSPropertyOp5
 70
     1
102
RTVSPropertyOp6
 70
     1
102
RTVSPropertyOp7
 70
     1
102
RTVSPropertyOp8
 70
     1
102
RTVSPropertyOp9
 70
     1
102
RTVSPropertyOp10
 70
     1
102
RTVSPropertyOp11
 70
     1
102
RTVSPropertyOp12
 70
     1
102
RTVSPropertyOp13
 70
     1
102
RTVSPropertyOp14
 70
     1
102
RTVSPropertyOp15
 70
     1
102
RTVSPropertyOp16
 70
     1
102
RTVSPropertyOp17
 70
     1
102
RTVSPropertyOp18
 70
     1
102
RTVSPropertyOp19
 70
     1
102
RTVSPropertyOp20
 70
     1
102
RTVSPropertyOp21
 70
     1
102
RTVSPropertyOp22
 70
     1
102
RTVSPropertyOp23
 70
     1
102
RTVSPropertyOp24
 70
     1
102
RTVSPropertyOp25
 70
     1
102
RTVSPropertyOp26
 70
     1
102
RTVSPropertyOp27
 70
     1
102
RTVSPropertyOp28
 70
     1
102
RTVSPropertyOp29
 70
     1
102
RTVSPropertyOp30
 70
     1
102
RTVSPropertyOp31
 70
     1
102
RTVSPropertyOp32
 70
     1
102
RTVSPropertyOp33
 70
     1
102
RTVSPropertyOp34
 70
     1
102
RTVSPropertyOp35
 70
     1
102
RTVSPropertyOp36
 70
     1
102
RTVSPropertyOp37
 70
     1
102
RTVSPropertyOp38
 70
     1
102
RTVSPropertyOp39
 70
     1
102
RTVSPropertyOp40
 70
     1
102
RTVSPropertyOp41
 70
     1
102
RTVSPropertyOp42
 70
     1
102
RTVSPropertyOp43
 70
     1
102
RTVSPropertyOp44
 70
     1
102
RTVSPropertyOp45
 70
     1
102
RTVSPropertyOp46
 70
     1
102
RTVSPropertyOp47
 70
     1
102
RTVSPropertyOp48
 70
     1
102
RTVSPropertyOp49
 70
     1
102
RTVSPropertyOp50
 70
     1
102
RTVSPropertyOp51
 70
     0
102
RTVSPropertyOp52
 70
     0
102
RTVSPropertyOp53
 70
     1
102
RTVSPropertyOp54
 70
     1
102
RTVSPropertyOp55
 70
     1
102
RTVSPropertyOp56
 70
     1
102
RTVSPropertyOp57
 70
     1
102
RTVSPost2010Prop28
280
     0
102
RTVSPost2010PropOp28
 70
     1
102
RTVSPost2010Prop29
280
     1
102
RTVSPost2010PropOp29
 70
     1
102
RTVSPost2010Prop30
280
     1
102
RTVSPost2010PropOp30
 70
     1
102
RTVSPost2010Prop31
280
     0
102
RTVSPost2010PropOp31
 70
     1
102
RTVSPost2010Prop32
280
     0
102
RTVSPost2010PropOp32
 70
     1
102
RTVSPost2010Prop33
280
     0
102
RTVSPost2010PropOp33
 70
     1
102
RTVSPost2010Prop34
280
     0
102
RTVSPost2010PropOp34
 70
     1
102
RTVSPost2010Prop35
280
     0
102
RTVSPost2010PropOp35
 70
     1
102
RTVSPost2010Prop36
280
     0
102
RTVSPost2010PropOp36
 70
     1
102
RTVSPost2010Prop37
 90
       50
102
RTVSPost2010PropOp37
 70
     1
102
RTVSPost2010Prop38
140
0.0
102
RTVSPost2010PropOp38
 70
     1
102
RTVSPost2010Prop39
140
1.0
102
RTVSPost2010PropOp39
 70
     1
102
RTVSPost2010Prop40
 90
        0
102
RTVSPost2010PropOp40
 70
     1
102
RTVSPost2010Prop41ColorIndex
 90
      178
102
RTVSPost2010Prop41ColorRGB
 90
        0
102
RTVSPost2010PropOp41
 70
     1
102
RTVSPost2010Prop42
 90
       50
102
RTVSPost2010PropOp42
 70
     1
102
RTVSPost2010Prop43
 90
        3
102
RTVSPost2010PropOp43
 70
     1
102
RTVSPost2010Prop44ColorIndex
 90
        5
102
RTVSPost2010Prop44ColorRGB
 90
      255
102
RTVSPost2010PropOp44
 70
     1
102
RTVSPost2010Prop45
280
     0
102
RTVSPost2010PropOp45
 70
     1
102
RTVSPost2010Prop46
 90
       50
102
RTVSPost2010PropOp46
 70
     1
102
RTVSPost2010Prop47
 90
       50
102
RTVSPost2010PropOp47
 70
     1
102
RTVSPost2010Prop48
 90
       50
102
RTVSPost2010PropOp48
 70
     1
102
RTVSPost2010Prop49
280
     0
102
RTVSPost2010PropOp49
 70
     1
102
RTVSPost2010Prop50
 90
       50
102
RTVSPost2010PropOp50
 70
     1
102
RTVSPost2010Prop51ColorIndex
 90
      256
102
RTVSPost2010Prop51ColorRGB
 90
-16777216
102
RTVSPost2010PropOp51
 70
     0
102
RTVSPost2010Prop52
140
1.0
102
RTVSPost2010PropOp52
 70
     0
102
RTVSPost2010Prop53
 90
        2
102
RTVSPost2010PropOp53
 70
     1
102
RTVSPost2010Prop54
  1
strokes_ogs.tif
102
RTVSPost2010PropOp54
 70
     1
102
RTVSPost2010Prop55
280
     0
102
RTVSPost2010PropOp55
 70
     1
102
RTVSPost2010Prop56
140
1.0
102
RTVSPost2010PropOp56
 70
     1
102
RTVSPost2010Prop57
140
1.0
102
RTVSPost2010PropOp57
 70
     1
  0
XRECORD
  5
30F
102
{ACAD_REACTORS
330
30E
102
}
330
30E
100
AcDbXrecord
280
     1
102
RTVSPropertyOp0
 70
     1
102
RTVSPropertyOp1
 70
     1
102
RTVSPropertyOp2
 70
     1
102
RTVSPropertyOp3
 70
     1
102
RTVSPropertyOp4
 70
     1
102
RTVSPropertyOp5
 70
     1
102
RTVSPropertyOp6
 70
     1
102
RTVSPropertyOp7
 70
     1
102
RTVSPropertyOp8
 70
     1
102
RTVSPropertyOp9
 70
     1
102
RTVSPropertyOp10
 70
     1
102
RTVSPropertyOp11
 70
     1
102
RTVSPropertyOp12
 70
     1
102
RTVSPropertyOp13
 70
     1
102
RTVSPropertyOp14
 70
     1
102
RTVSPropertyOp15
 70
     1
102
RTVSPropertyOp16
 70
     1
102
RTVSPropertyOp17
 70
     1
102
RTVSPropertyOp18
 70
     1
102
RTVSPropertyOp19
 70
     1
102
RTVSPropertyOp20
 70
     1
102
RTVSPropertyOp21
 70
     1
102
RTVSPropertyOp22
 70
     1
102
RTVSPropertyOp23
 70
     1
102
RTVSPropertyOp24
 70
     1
102
RTVSPropertyOp25
 70
     1
102
RTVSPropertyOp26
 70
     1
102
RTVSPropertyOp27
 70
     1
102
RTVSPropertyOp28
 70
     1
102
RTVSPropertyOp29
 70
     1
102
RTVSPropertyOp30
 70
     1
102
RTVSPropertyOp31
 70
     1
102
RTVSPropertyOp32
 70
     1
102
RTVSPropertyOp33
 70
     1
102
RTVSPropertyOp34
 70
     1
102
RTVSPropertyOp35
 70
     1
102
RTVSPropertyOp36
 70
     1
102
RTVSPropertyOp37
 70
     1
102
RTVSPropertyOp38
 70
     1
102
RTVSPropertyOp39
 70
     1
102
RTVSPropertyOp40
 70
     1
102
RTVSPropertyOp41
 70
     1
102
RTVSPropertyOp42
 70
     1
102
RTVSPropertyOp43
 70
     1
102
RTVSPropertyOp44
 70
     1
102
RTVSPropertyOp45
 70
     1
102
RTVSPropertyOp46
 70
     1
102
RTVSPropertyOp47
 70
     1
102
RTVSPropertyOp48
 70
     1
102
RTVSPropertyOp49
 70
     1
102
RTVSPropertyOp50
 70
     1
102
RTVSPropertyOp51
 70
     0
102
RTVSPropertyOp52
 70
     0
102
RTVSPropertyOp53
 70
     1
102
RTVSPropertyOp54
 70
     1
102
RTVSPropertyOp55
 70
     1
102
RTVSPropertyOp56
 70
     1
102
RTVSPropertyOp57
 70
     1
102
RTVSPost2010Prop28
280
     0
102
RTVSPost2010PropOp28
 70
     1
102
RTVSPost2010Prop29
280
     1
102
RTVSPost2010PropOp29
 70
     1
102
RTVSPost2010Prop30
280
     1
102
RTVSPost2010PropOp30
 70
     1
102
RTVSPost2010Prop31
280
     0
102
RTVSPost2010PropOp31
 70
     1
102
RTVSPost2010Prop32
280
     0
102
RTVSPost2010PropOp32
 70
     1
102
RTVSPost2010Prop33
280
     0
102
RTVSPost2010PropOp33
 70
     1
102
RTVSPost2010Prop34
280
     0
102
RTVSPost2010PropOp34
 70
     1
102
RTVSPost2010Prop35
280
     0
102
RTVSPost2010PropOp35
 70
     1
102
RTVSPost2010Prop36
280
     0
102
RTVSPost2010PropOp36
 70
     1
102
RTVSPost2010Prop37
 90
       50
102
RTVSPost2010PropOp37
 70
     1
102
RTVSPost2010Prop38
140
0.0
102
RTVSPost2010PropOp38
 70
     1
102
RTVSPost2010Prop39
140
1.0
102
RTVSPost2010PropOp39
 70
     1
102
RTVSPost2010Prop40
 90
        0
102
RTVSPost2010PropOp40
 70
     1
102
RTVSPost2010Prop41ColorIndex
 90
      178
102
RTVSPost2010Prop41ColorRGB
 90
        0
102
RTVSPost2010PropOp41
 70
     1
102
RTVSPost2010Prop42
 90
       50
102
RTVSPost2010PropOp42
 70
     1
102
RTVSPost2010Prop43
 90
        3
102
RTVSPost2010PropOp43
 70
     1
102
RTVSPost2010Prop44ColorIndex
 90
        5
102
RTVSPost2010Prop44ColorRGB
 90
      255
102
RTVSPost2010PropOp44
 70
     1
102
RTVSPost2010Prop45
280
     0
102
RTVSPost2010PropOp45
 70
     1
102
RTVSPost2010Prop46
 90
       50
102
RTVSPost2010PropOp46
 70
     1
102
RTVSPost2010Prop47
 90
       50
102
RTVSPost2010PropOp47
 70
     1
102
RTVSPost2010Prop48
 90
       50
102
RTVSPost2010PropOp48
 70
     1
102
RTVSPost2010Prop49
280
     0
102
RTVSPost2010PropOp49
 70
     1
102
RTVSPost2010Prop50
 90
       50
102
RTVSPost2010PropOp50
 70
     1
102
RTVSPost2010Prop51ColorIndex
 90
      256
102
RTVSPost2010Prop51ColorRGB
 90
-16777216
102
RTVSPost2010PropOp51
 70
     0
102
RTVSPost2010Prop52
140
1.0
102
RTVSPost2010PropOp52
 70
     0
102
RTVSPost2010Prop53
 90
        2
102
RTVSPost2010PropOp53
 70
     1
102
RTVSPost2010Prop54
  1
strokes_ogs.tif
102
RTVSPost2010PropOp54
 70
     1
102
RTVSPost2010Prop55
280
     0
102
RTVSPost2010PropOp55
 70
     1
102
RTVSPost2010Prop56
140
1.0
102
RTVSPost2010PropOp56
 70
     1
102
RTVSPost2010Prop57
140
1.0
102
RTVSPost2010PropOp57
 70
     1
  0
XRECORD
  5
323
102
{ACAD_REACTORS
330
322
102
}
330
322
100
AcDbXrecord
280
     1
102
RTVSPropertyOp0
 70
     0
102
RTVSPropertyOp1
 70
     0
102
RTVSPropertyOp2
 70
     0
102
RTVSPropertyOp3
 70
     0
102
RTVSPropertyOp4
 70
     0
102
RTVSPropertyOp5
 70
     0
102
RTVSPropertyOp6
 70
     0
102
RTVSPropertyOp7
 70
     0
102
RTVSPropertyOp8
 70
     0
102
RTVSPropertyOp9
 70
     0
102
RTVSPropertyOp10
 70
     0
102
RTVSPropertyOp11
 70
     0
102
RTVSPropertyOp12
 70
     0
102
RTVSPropertyOp13
 70
     0
102
RTVSPropertyOp14
 70
     2
102
RTVSPropertyOp15
 70
     0
102
RTVSPropertyOp16
 70
     0
102
RTVSPropertyOp17
 70
     0
102
RTVSPropertyOp18
 70
     0
102
RTVSPropertyOp19
 70
     0
102
RTVSPropertyOp20
 70
     0
102
RTVSPropertyOp21
 70
     0
102
RTVSPropertyOp22
 70
     0
102
RTVSPropertyOp23
 70
     0
102
RTVSPropertyOp24
 70
     0
102
RTVSPropertyOp25
 70
     0
102
RTVSPropertyOp26
 70
     0
102
RTVSPropertyOp27
 70
     0
102
RTVSPropertyOp28
 70
     0
102
RTVSPropertyOp29
 70
     0
102
RTVSPropertyOp30
 70
     0
102
RTVSPropertyOp31
 70
     0
102
RTVSPropertyOp32
 70
     0
102
RTVSPropertyOp33
 70
     0
102
RTVSPropertyOp34
 70
     0
102
RTVSPropertyOp35
 70
     0
102
RTVSPropertyOp36
 70
     0
102
RTVSPropertyOp37
 70
     0
102
RTVSPropertyOp38
 70
     0
102
RTVSPropertyOp39
 70
     0
102
RTVSPropertyOp40
 70
     0
102
RTVSPropertyOp41
 70
     0
102
RTVSPropertyOp42
 70
     0
102
RTVSPropertyOp43
 70
     0
102
RTVSPropertyOp44
 70
     0
102
RTVSPropertyOp45
 70
     0
102
RTVSPropertyOp46
 70
     0
102
RTVSPropertyOp47
 70
     0
102
RTVSPropertyOp48
 70
     0
102
RTVSPropertyOp49
 70
     0
102
RTVSPropertyOp50
 70
     0
102
RTVSPropertyOp51
 70
     0
102
RTVSPropertyOp52
 70
     0
102
RTVSPropertyOp53
 70
     0
102
RTVSPropertyOp54
 70
     0
102
RTVSPropertyOp55
 70
     0
102
RTVSPropertyOp56
 70
     0
102
RTVSPropertyOp57
 70
     0
102
RTVSPost2010Prop28
280
     0
102
RTVSPost2010PropOp28
 70
     0
102
RTVSPost2010Prop29
280
     1
102
RTVSPost2010PropOp29
 70
     0
102
RTVSPost2010Prop30
280
     1
102
RTVSPost2010PropOp30
 70
     0
102
RTVSPost2010Prop31
280
     0
102
RTVSPost2010PropOp31
 70
     0
102
RTVSPost2010Prop32
280
     0
102
RTVSPost2010PropOp32
 70
     0
102
RTVSPost2010Prop33
280
     0
102
RTVSPost2010PropOp33
 70
     0
102
RTVSPost2010Prop34
280
     0
102
RTVSPost2010PropOp34
 70
     0
102
RTVSPost2010Prop35
280
     0
102
RTVSPost2010PropOp35
 70
     0
102
RTVSPost2010Prop36
280
     0
102
RTVSPost2010PropOp36
 70
     0
102
RTVSPost2010Prop37
 90
       50
102
RTVSPost2010PropOp37
 70
     0
102
RTVSPost2010Prop38
140
0.0
102
RTVSPost2010PropOp38
 70
     0
102
RTVSPost2010Prop39
140
1.0
102
RTVSPost2010PropOp39
 70
     0
102
RTVSPost2010Prop40
 90
        0
102
RTVSPost2010PropOp40
 70
     0
102
RTVSPost2010Prop41ColorIndex
 90
      178
102
RTVSPost2010Prop41ColorRGB
 90
        0
102
RTVSPost2010PropOp41
 70
     0
102
RTVSPost2010Prop42
 90
       50
102
RTVSPost2010PropOp42
 70
     0
102
RTVSPost2010Prop43
 90
        3
102
RTVSPost2010PropOp43
 70
     0
102
RTVSPost2010Prop44ColorIndex
 90
        5
102
RTVSPost2010Prop44ColorRGB
 90
      255
102
RTVSPost2010PropOp44
 70
     0
102
RTVSPost2010Prop45
280
     0
102
RTVSPost2010PropOp45
 70
     0
102
RTVSPost2010Prop46
 90
       50
102
RTVSPost2010PropOp46
 70
     0
102
RTVSPost2010Prop47
 90
       50
102
RTVSPost2010PropOp47
 70
     0
102
RTVSPost2010Prop48
 90
       50
102
RTVSPost2010PropOp48
 70
     0
102
RTVSPost2010Prop49
280
     0
102
RTVSPost2010PropOp49
 70
     0
102
RTVSPost2010Prop50
 90
       50
102
RTVSPost2010PropOp50
 70
     0
102
RTVSPost2010Prop51ColorIndex
 90
      256
102
RTVSPost2010Prop51ColorRGB
 90
-16777216
102
RTVSPost2010PropOp51
 70
     0
102
RTVSPost2010Prop52
140
1.0
102
RTVSPost2010PropOp52
 70
     0
102
RTVSPost2010Prop53
 90
        2
102
RTVSPost2010PropOp53
 70
     0
102
RTVSPost2010Prop54
  1
strokes_ogs.tif
102
RTVSPost2010PropOp54
 70
     0
102
RTVSPost2010Prop55
280
     0
102
RTVSPost2010PropOp55
 70
     0
102
RTVSPost2010Prop56
140
1.0
102
RTVSPost2010PropOp56
 70
     0
102
RTVSPost2010Prop57
140
1.0
102
RTVSPost2010PropOp57
 70
     0
  0
XRECORD
  5
31D
102
{ACAD_REACTORS
330
31C
102
}
330
31C
100
AcDbXrecord
280
     1
102
RTVSPropertyOp0
 70
     1
102
RTVSPropertyOp1
 70
     1
102
RTVSPropertyOp2
 70
     1
102
RTVSPropertyOp3
 70
     1
102
RTVSPropertyOp4
 70
     1
102
RTVSPropertyOp5
 70
     1
102
RTVSPropertyOp6
 70
     1
102
RTVSPropertyOp7
 70
     1
102
RTVSPropertyOp8
 70
     1
102
RTVSPropertyOp9
 70
     1
102
RTVSPropertyOp10
 70
     1
102
RTVSPropertyOp11
 70
     1
102
RTVSPropertyOp12
 70
     1
102
RTVSPropertyOp13
 70
     1
102
RTVSPropertyOp14
 70
     1
102
RTVSPropertyOp15
 70
     1
102
RTVSPropertyOp16
 70
     1
102
RTVSPropertyOp17
 70
     1
102
RTVSPropertyOp18
 70
     1
102
RTVSPropertyOp19
 70
     1
102
RTVSPropertyOp20
 70
     1
102
RTVSPropertyOp21
 70
     1
102
RTVSPropertyOp22
 70
     1
102
RTVSPropertyOp23
 70
     1
102
RTVSPropertyOp24
 70
     1
102
RTVSPropertyOp25
 70
     1
102
RTVSPropertyOp26
 70
     1
102
RTVSPropertyOp27
 70
     1
102
RTVSPropertyOp28
 70
     1
102
RTVSPropertyOp29
 70
     1
102
RTVSPropertyOp30
 70
     1
102
RTVSPropertyOp31
 70
     1
102
RTVSPropertyOp32
 70
     1
102
RTVSPropertyOp33
 70
     1
102
RTVSPropertyOp34
 70
     1
102
RTVSPropertyOp35
 70
     1
102
RTVSPropertyOp36
 70
     1
102
RTVSPropertyOp37
 70
     1
102
RTVSPropertyOp38
 70
     1
102
RTVSPropertyOp39
 70
     1
102
RTVSPropertyOp40
 70
     1
102
RTVSPropertyOp41
 70
     1
102
RTVSPropertyOp42
 70
     1
102
RTVSPropertyOp43
 70
     1
102
RTVSPropertyOp44
 70
     1
102
RTVSPropertyOp45
 70
     1
102
RTVSPropertyOp46
 70
     1
102
RTVSPropertyOp47
 70
     1
102
RTVSPropertyOp48
 70
     1
102
RTVSPropertyOp49
 70
     1
102
RTVSPropertyOp50
 70
     1
102
RTVSPropertyOp51
 70
     0
102
RTVSPropertyOp52
 70
     0
102
RTVSPropertyOp53
 70
     1
102
RTVSPropertyOp54
 70
     1
102
RTVSPropertyOp55
 70
     1
102
RTVSPropertyOp56
 70
     1
102
RTVSPropertyOp57
 70
     1
102
RTVSPost2010Prop28
280
     0
102
RTVSPost2010PropOp28
 70
     1
102
RTVSPost2010Prop29
280
     1
102
RTVSPost2010PropOp29
 70
     1
102
RTVSPost2010Prop30
280
     1
102
RTVSPost2010PropOp30
 70
     1
102
RTVSPost2010Prop31
280
     0
102
RTVSPost2010PropOp31
 70
     1
102
RTVSPost2010Prop32
280
     0
102
RTVSPost2010PropOp32
 70
     1
102
RTVSPost2010Prop33
280
     0
102
RTVSPost2010PropOp33
 70
     1
102
RTVSPost2010Prop34
280
     0
102
RTVSPost2010PropOp34
 70
     1
102
RTVSPost2010Prop35
280
     0
102
RTVSPost2010PropOp35
 70
     1
102
RTVSPost2010Prop36
280
     0
102
RTVSPost2010PropOp36
 70
     1
102
RTVSPost2010Prop37
 90
       50
102
RTVSPost2010PropOp37
 70
     1
102
RTVSPost2010Prop38
140
0.0
102
RTVSPost2010PropOp38
 70
     1
102
RTVSPost2010Prop39
140
1.0
102
RTVSPost2010PropOp39
 70
     1
102
RTVSPost2010Prop40
 90
        0
102
RTVSPost2010PropOp40
 70
     1
102
RTVSPost2010Prop41ColorIndex
 90
      178
102
RTVSPost2010Prop41ColorRGB
 90
        0
102
RTVSPost2010PropOp41
 70
     1
102
RTVSPost2010Prop42
 90
       50
102
RTVSPost2010PropOp42
 70
     1
102
RTVSPost2010Prop43
 90
        3
102
RTVSPost2010PropOp43
 70
     1
102
RTVSPost2010Prop44ColorIndex
 90
        5
102
RTVSPost2010Prop44ColorRGB
 90
      255
102
RTVSPost2010PropOp44
 70
     1
102
RTVSPost2010Prop45
280
     0
102
RTVSPost2010PropOp45
 70
     1
102
RTVSPost2010Prop46
 90
       50
102
RTVSPost2010PropOp46
 70
     1
102
RTVSPost2010Prop47
 90
       50
102
RTVSPost2010PropOp47
 70
     1
102
RTVSPost2010Prop48
 90
       50
102
RTVSPost2010PropOp48
 70
     1
102
RTVSPost2010Prop49
280
     0
102
RTVSPost2010PropOp49
 70
     1
102
RTVSPost2010Prop50
 90
       50
102
RTVSPost2010PropOp50
 70
     1
102
RTVSPost2010Prop51ColorIndex
 90
      256
102
RTVSPost2010Prop51ColorRGB
 90
-16777216
102
RTVSPost2010PropOp51
 70
     0
102
RTVSPost2010Prop52
140
1.0
102
RTVSPost2010PropOp52
 70
     0
102
RTVSPost2010Prop53
 90
        2
102
RTVSPost2010PropOp53
 70
     1
102
RTVSPost2010Prop54
  1
strokes_ogs.tif
102
RTVSPost2010PropOp54
 70
     1
102
RTVSPost2010Prop55
280
     0
102
RTVSPost2010PropOp55
 70
     1
102
RTVSPost2010Prop56
140
1.0
102
RTVSPost2010PropOp56
 70
     1
102
RTVSPost2010Prop57
140
1.0
102
RTVSPost2010PropOp57
 70
     1
  0
XRECORD
  5
325
102
{ACAD_REACTORS
330
324
102
}
330
324
100
AcDbXrecord
280
     1
102
RTVSPropertyOp0
 70
     0
102
RTVSPropertyOp1
 70
     0
102
RTVSPropertyOp2
 70
     0
102
RTVSPropertyOp3
 70
     0
102
RTVSPropertyOp4
 70
     0
102
RTVSPropertyOp5
 70
     0
102
RTVSPropertyOp6
 70
     0
102
RTVSPropertyOp7
 70
     0
102
RTVSPropertyOp8
 70
     0
102
RTVSPropertyOp9
 70
     0
102
RTVSPropertyOp10
 70
     0
102
RTVSPropertyOp11
 70
     0
102
RTVSPropertyOp12
 70
     0
102
RTVSPropertyOp13
 70
     0
102
RTVSPropertyOp14
 70
     2
102
RTVSPropertyOp15
 70
     0
102
RTVSPropertyOp16
 70
     0
102
RTVSPropertyOp17
 70
     0
102
RTVSPropertyOp18
 70
     0
102
RTVSPropertyOp19
 70
     0
102
RTVSPropertyOp20
 70
     0
102
RTVSPropertyOp21
 70
     0
102
RTVSPropertyOp22
 70
     0
102
RTVSPropertyOp23
 70
     0
102
RTVSPropertyOp24
 70
     0
102
RTVSPropertyOp25
 70
     0
102
RTVSPropertyOp26
 70
     0
102
RTVSPropertyOp27
 70
     0
102
RTVSPropertyOp28
 70
     0
102
RTVSPropertyOp29
 70
     0
102
RTVSPropertyOp30
 70
     0
102
RTVSPropertyOp31
 70
     0
102
RTVSPropertyOp32
 70
     0
102
RTVSPropertyOp33
 70
     0
102
RTVSPropertyOp34
 70
     0
102
RTVSPropertyOp35
 70
     0
102
RTVSPropertyOp36
 70
     0
102
RTVSPropertyOp37
 70
     0
102
RTVSPropertyOp38
 70
     0
102
RTVSPropertyOp39
 70
     0
102
RTVSPropertyOp40
 70
     0
102
RTVSPropertyOp41
 70
     0
102
RTVSPropertyOp42
 70
     0
102
RTVSPropertyOp43
 70
     0
102
RTVSPropertyOp44
 70
     0
102
RTVSPropertyOp45
 70
     0
102
RTVSPropertyOp46
 70
     0
102
RTVSPropertyOp47
 70
     0
102
RTVSPropertyOp48
 70
     0
102
RTVSPropertyOp49
 70
     0
102
RTVSPropertyOp50
 70
     0
102
RTVSPropertyOp51
 70
     0
102
RTVSPropertyOp52
 70
     0
102
RTVSPropertyOp53
 70
     0
102
RTVSPropertyOp54
 70
     0
102
RTVSPropertyOp55
 70
     0
102
RTVSPropertyOp56
 70
     0
102
RTVSPropertyOp57
 70
     0
102
RTVSPost2010Prop28
280
     0
102
RTVSPost2010PropOp28
 70
     0
102
RTVSPost2010Prop29
280
     1
102
RTVSPost2010PropOp29
 70
     0
102
RTVSPost2010Prop30
280
     1
102
RTVSPost2010PropOp30
 70
     0
102
RTVSPost2010Prop31
280
     0
102
RTVSPost2010PropOp31
 70
     0
102
RTVSPost2010Prop32
280
     0
102
RTVSPost2010PropOp32
 70
     0
102
RTVSPost2010Prop33
280
     0
102
RTVSPost2010PropOp33
 70
     0
102
RTVSPost2010Prop34
280
     0
102
RTVSPost2010PropOp34
 70
     0
102
RTVSPost2010Prop35
280
     0
102
RTVSPost2010PropOp35
 70
     0
102
RTVSPost2010Prop36
280
     0
102
RTVSPost2010PropOp36
 70
     0
102
RTVSPost2010Prop37
 90
       50
102
RTVSPost2010PropOp37
 70
     0
102
RTVSPost2010Prop38
140
0.0
102
RTVSPost2010PropOp38
 70
     0
102
RTVSPost2010Prop39
140
1.0
102
RTVSPost2010PropOp39
 70
     0
102
RTVSPost2010Prop40
 90
        0
102
RTVSPost2010PropOp40
 70
     0
102
RTVSPost2010Prop41ColorIndex
 90
      178
102
RTVSPost2010Prop41ColorRGB
 90
        0
102
RTVSPost2010PropOp41
 70
     0
102
RTVSPost2010Prop42
 90
       50
102
RTVSPost2010PropOp42
 70
     0
102
RTVSPost2010Prop43
 90
        3
102
RTVSPost2010PropOp43
 70
     0
102
RTVSPost2010Prop44ColorIndex
 90
        5
102
RTVSPost2010Prop44ColorRGB
 90
      255
102
RTVSPost2010PropOp44
 70
     0
102
RTVSPost2010Prop45
280
     0
102
RTVSPost2010PropOp45
 70
     0
102
RTVSPost2010Prop46
 90
       50
102
RTVSPost2010PropOp46
 70
     0
102
RTVSPost2010Prop47
 90
       50
102
RTVSPost2010PropOp47
 70
     0
102
RTVSPost2010Prop48
 90
       50
102
RTVSPost2010PropOp48
 70
     0
102
RTVSPost2010Prop49
280
     0
102
RTVSPost2010PropOp49
 70
     0
102
RTVSPost2010Prop50
 90
       50
102
RTVSPost2010PropOp50
 70
     0
102
RTVSPost2010Prop51ColorIndex
 90
      256
102
RTVSPost2010Prop51ColorRGB
 90
-16777216
102
RTVSPost2010PropOp51
 70
     0
102
RTVSPost2010Prop52
140
1.0
102
RTVSPost2010PropOp52
 70
     0
102
RTVSPost2010Prop53
 90
        2
102
RTVSPost2010PropOp53
 70
     0
102
RTVSPost2010Prop54
  1
strokes_ogs.tif
102
RTVSPost2010PropOp54
 70
     0
102
RTVSPost2010Prop55
280
     0
102
RTVSPost2010PropOp55
 70
     0
102
RTVSPost2010Prop56
140
1.0
102
RTVSPost2010PropOp56
 70
     0
102
RTVSPost2010Prop57
140
1.0
102
RTVSPost2010PropOp57
 70
     0
  0
XRECORD
  5
313
102
{ACAD_REACTORS
330
312
102
}
330
312
100
AcDbXrecord
280
     1
102
RTVSPropertyOp0
 70
     1
102
RTVSPropertyOp1
 70
     1
102
RTVSPropertyOp2
 70
     1
102
RTVSPropertyOp3
 70
     1
102
RTVSPropertyOp4
 70
     1
102
RTVSPropertyOp5
 70
     1
102
RTVSPropertyOp6
 70
     1
102
RTVSPropertyOp7
 70
     1
102
RTVSPropertyOp8
 70
     1
102
RTVSPropertyOp9
 70
     1
102
RTVSPropertyOp10
 70
     1
102
RTVSPropertyOp11
 70
     1
102
RTVSPropertyOp12
 70
     1
102
RTVSPropertyOp13
 70
     1
102
RTVSPropertyOp14
 70
     1
102
RTVSPropertyOp15
 70
     1
102
RTVSPropertyOp16
 70
     1
102
RTVSPropertyOp17
 70
     1
102
RTVSPropertyOp18
 70
     1
102
RTVSPropertyOp19
 70
     1
102
RTVSPropertyOp20
 70
     1
102
RTVSPropertyOp21
 70
     1
102
RTVSPropertyOp22
 70
     1
102
RTVSPropertyOp23
 70
     1
102
RTVSPropertyOp24
 70
     1
102
RTVSPropertyOp25
 70
     1
102
RTVSPropertyOp26
 70
     1
102
RTVSPropertyOp27
 70
     1
102
RTVSPropertyOp28
 70
     1
102
RTVSPropertyOp29
 70
     1
102
RTVSPropertyOp30
 70
     1
102
RTVSPropertyOp31
 70
     1
102
RTVSPropertyOp32
 70
     1
102
RTVSPropertyOp33
 70
     1
102
RTVSPropertyOp34
 70
     1
102
RTVSPropertyOp35
 70
     1
102
RTVSPropertyOp36
 70
     1
102
RTVSPropertyOp37
 70
     1
102
RTVSPropertyOp38
 70
     1
102
RTVSPropertyOp39
 70
     1
102
RTVSPropertyOp40
 70
     1
102
RTVSPropertyOp41
 70
     1
102
RTVSPropertyOp42
 70
     1
102
RTVSPropertyOp43
 70
     1
102
RTVSPropertyOp44
 70
     1
102
RTVSPropertyOp45
 70
     1
102
RTVSPropertyOp46
 70
     1
102
RTVSPropertyOp47
 70
     1
102
RTVSPropertyOp48
 70
     1
102
RTVSPropertyOp49
 70
     1
102
RTVSPropertyOp50
 70
     1
102
RTVSPropertyOp51
 70
     0
102
RTVSPropertyOp52
 70
     0
102
RTVSPropertyOp53
 70
     1
102
RTVSPropertyOp54
 70
     1
102
RTVSPropertyOp55
 70
     1
102
RTVSPropertyOp56
 70
     1
102
RTVSPropertyOp57
 70
     1
102
RTVSPost2010Prop28
280
     0
102
RTVSPost2010PropOp28
 70
     1
102
RTVSPost2010Prop29
280
     1
102
RTVSPost2010PropOp29
 70
     1
102
RTVSPost2010Prop30
280
     1
102
RTVSPost2010PropOp30
 70
     1
102
RTVSPost2010Prop31
280
     0
102
RTVSPost2010PropOp31
 70
     1
102
RTVSPost2010Prop32
280
     0
102
RTVSPost2010PropOp32
 70
     1
102
RTVSPost2010Prop33
280
     0
102
RTVSPost2010PropOp33
 70
     1
102
RTVSPost2010Prop34
280
     0
102
RTVSPost2010PropOp34
 70
     1
102
RTVSPost2010Prop35
280
     0
102
RTVSPost2010PropOp35
 70
     1
102
RTVSPost2010Prop36
280
     0
102
RTVSPost2010PropOp36
 70
     1
102
RTVSPost2010Prop37
 90
       50
102
RTVSPost2010PropOp37
 70
     1
102
RTVSPost2010Prop38
140
0.0
102
RTVSPost2010PropOp38
 70
     1
102
RTVSPost2010Prop39
140
1.0
102
RTVSPost2010PropOp39
 70
     1
102
RTVSPost2010Prop40
 90
        0
102
RTVSPost2010PropOp40
 70
     1
102
RTVSPost2010Prop41ColorIndex
 90
      178
102
RTVSPost2010Prop41ColorRGB
 90
        0
102
RTVSPost2010PropOp41
 70
     1
102
RTVSPost2010Prop42
 90
       50
102
RTVSPost2010PropOp42
 70
     1
102
RTVSPost2010Prop43
 90
        3
102
RTVSPost2010PropOp43
 70
     1
102
RTVSPost2010Prop44ColorIndex
 90
        5
102
RTVSPost2010Prop44ColorRGB
 90
      255
102
RTVSPost2010PropOp44
 70
     1
102
RTVSPost2010Prop45
280
     0
102
RTVSPost2010PropOp45
 70
     1
102
RTVSPost2010Prop46
 90
       50
102
RTVSPost2010PropOp46
 70
     1
102
RTVSPost2010Prop47
 90
       50
102
RTVSPost2010PropOp47
 70
     1
102
RTVSPost2010Prop48
 90
       50
102
RTVSPost2010PropOp48
 70
     1
102
RTVSPost2010Prop49
280
     0
102
RTVSPost2010PropOp49
 70
     1
102
RTVSPost2010Prop50
 90
       50
102
RTVSPost2010PropOp50
 70
     1
102
RTVSPost2010Prop51ColorIndex
 90
      256
102
RTVSPost2010Prop51ColorRGB
 90
-16777216
102
RTVSPost2010PropOp51
 70
     0
102
RTVSPost2010Prop52
140
1.0
102
RTVSPost2010PropOp52
 70
     0
102
RTVSPost2010Prop53
 90
        2
102
RTVSPost2010PropOp53
 70
     1
102
RTVSPost2010Prop54
  1
strokes_ogs.tif
102
RTVSPost2010PropOp54
 70
     1
102
RTVSPost2010Prop55
280
     0
102
RTVSPost2010PropOp55
 70
     1
102
RTVSPost2010Prop56
140
1.0
102
RTVSPost2010PropOp56
 70
     1
102
RTVSPost2010Prop57
140
1.0
102
RTVSPost2010PropOp57
 70
     1
  0
XRECORD
  5
331
102
{ACAD_REACTORS
330
330
102
}
330
330
100
AcDbXrecord
280
     1
102
RTVSPropertyOp0
 70
     1
102
RTVSPropertyOp1
 70
     1
102
RTVSPropertyOp2
 70
     1
102
RTVSPropertyOp3
 70
     1
102
RTVSPropertyOp4
 70
     1
102
RTVSPropertyOp5
 70
     1
102
RTVSPropertyOp6
 70
     1
102
RTVSPropertyOp7
 70
     1
102
RTVSPropertyOp8
 70
     1
102
RTVSPropertyOp9
 70
     1
102
RTVSPropertyOp10
 70
     1
102
RTVSPropertyOp11
 70
     1
102
RTVSPropertyOp12
 70
     1
102
RTVSPropertyOp13
 70
     1
102
RTVSPropertyOp14
 70
     1
102
RTVSPropertyOp15
 70
     1
102
RTVSPropertyOp16
 70
     1
102
RTVSPropertyOp17
 70
     1
102
RTVSPropertyOp18
 70
     1
102
RTVSPropertyOp19
 70
     1
102
RTVSPropertyOp20
 70
     1
102
RTVSPropertyOp21
 70
     1
102
RTVSPropertyOp22
 70
     1
102
RTVSPropertyOp23
 70
     1
102
RTVSPropertyOp24
 70
     1
102
RTVSPropertyOp25
 70
     1
102
RTVSPropertyOp26
 70
     1
102
RTVSPropertyOp27
 70
     1
102
RTVSPropertyOp28
 70
     1
102
RTVSPropertyOp29
 70
     1
102
RTVSPropertyOp30
 70
     1
102
RTVSPropertyOp31
 70
     1
102
RTVSPropertyOp32
 70
     1
102
RTVSPropertyOp33
 70
     1
102
RTVSPropertyOp34
 70
     1
102
RTVSPropertyOp35
 70
     1
102
RTVSPropertyOp36
 70
     1
102
RTVSPropertyOp37
 70
     1
102
RTVSPropertyOp38
 70
     1
102
RTVSPropertyOp39
 70
     1
102
RTVSPropertyOp40
 70
     1
102
RTVSPropertyOp41
 70
     1
102
RTVSPropertyOp42
 70
     1
102
RTVSPropertyOp43
 70
     1
102
RTVSPropertyOp44
 70
     1
102
RTVSPropertyOp45
 70
     1
102
RTVSPropertyOp46
 70
     1
102
RTVSPropertyOp47
 70
     1
102
RTVSPropertyOp48
 70
     1
102
RTVSPropertyOp49
 70
     1
102
RTVSPropertyOp50
 70
     1
102
RTVSPropertyOp51
 70
     0
102
RTVSPropertyOp52
 70
     0
102
RTVSPropertyOp53
 70
     1
102
RTVSPropertyOp54
 70
     1
102
RTVSPropertyOp55
 70
     1
102
RTVSPropertyOp56
 70
     1
102
RTVSPropertyOp57
 70
     1
102
RTVSPost2010Prop28
280
     0
102
RTVSPost2010PropOp28
 70
     1
102
RTVSPost2010Prop29
280
     1
102
RTVSPost2010PropOp29
 70
     1
102
RTVSPost2010Prop30
280
     1
102
RTVSPost2010PropOp30
 70
     1
102
RTVSPost2010Prop31
280
     0
102
RTVSPost2010PropOp31
 70
     1
102
RTVSPost2010Prop32
280
     0
102
RTVSPost2010PropOp32
 70
     1
102
RTVSPost2010Prop33
280
     0
102
RTVSPost2010PropOp33
 70
     1
102
RTVSPost2010Prop34
280
     0
102
RTVSPost2010PropOp34
 70
     1
102
RTVSPost2010Prop35
280
     0
102
RTVSPost2010PropOp35
 70
     1
102
RTVSPost2010Prop36
280
     0
102
RTVSPost2010PropOp36
 70
     1
102
RTVSPost2010Prop37
 90
       50
102
RTVSPost2010PropOp37
 70
     1
102
RTVSPost2010Prop38
140
0.0
102
RTVSPost2010PropOp38
 70
     1
102
RTVSPost2010Prop39
140
1.0
102
RTVSPost2010PropOp39
 70
     1
102
RTVSPost2010Prop40
 90
        0
102
RTVSPost2010PropOp40
 70
     1
102
RTVSPost2010Prop41ColorIndex
 90
      178
102
RTVSPost2010Prop41ColorRGB
 90
        0
102
RTVSPost2010PropOp41
 70
     1
102
RTVSPost2010Prop42
 90
       50
102
RTVSPost2010PropOp42
 70
     1
102
RTVSPost2010Prop43
 90
        3
102
RTVSPost2010PropOp43
 70
     1
102
RTVSPost2010Prop44ColorIndex
 90
        5
102
RTVSPost2010Prop44ColorRGB
 90
      255
102
RTVSPost2010PropOp44
 70
     1
102
RTVSPost2010Prop45
280
     0
102
RTVSPost2010PropOp45
 70
     1
102
RTVSPost2010Prop46
 90
       50
102
RTVSPost2010PropOp46
 70
     1
102
RTVSPost2010Prop47
 90
       50
102
RTVSPost2010PropOp47
 70
     1
102
RTVSPost2010Prop48
 90
       50
102
RTVSPost2010PropOp48
 70
     1
102
RTVSPost2010Prop49
280
     0
102
RTVSPost2010PropOp49
 70
     1
102
RTVSPost2010Prop50
 90
       50
102
RTVSPost2010PropOp50
 70
     1
102
RTVSPost2010Prop51ColorIndex
 90
      256
102
RTVSPost2010Prop51ColorRGB
 90
-16777216
102
RTVSPost2010PropOp51
 70
     0
102
RTVSPost2010Prop52
140
1.0
102
RTVSPost2010PropOp52
 70
     0
102
RTVSPost2010Prop53
 90
        2
102
RTVSPost2010PropOp53
 70
     1
102
RTVSPost2010Prop54
  1
strokes_ogs.tif
102
RTVSPost2010PropOp54
 70
     1
102
RTVSPost2010Prop55
280
     0
102
RTVSPost2010PropOp55
 70
     1
102
RTVSPost2010Prop56
140
1.0
102
RTVSPost2010PropOp56
 70
     1
102
RTVSPost2010Prop57
140
1.0
102
RTVSPost2010PropOp57
 70
     1
  0
XRECORD
  5
32F
102
{ACAD_REACTORS
330
32E
102
}
330
32E
100
AcDbXrecord
280
     1
102
RTVSPropertyOp0
 70
     1
102
RTVSPropertyOp1
 70
     1
102
RTVSPropertyOp2
 70
     1
102
RTVSPropertyOp3
 70
     1
102
RTVSPropertyOp4
 70
     1
102
RTVSPropertyOp5
 70
     1
102
RTVSPropertyOp6
 70
     1
102
RTVSPropertyOp7
 70
     1
102
RTVSPropertyOp8
 70
     1
102
RTVSPropertyOp9
 70
     1
102
RTVSPropertyOp10
 70
     1
102
RTVSPropertyOp11
 70
     1
102
RTVSPropertyOp12
 70
     1
102
RTVSPropertyOp13
 70
     1
102
RTVSPropertyOp14
 70
     1
102
RTVSPropertyOp15
 70
     1
102
RTVSPropertyOp16
 70
     1
102
RTVSPropertyOp17
 70
     1
102
RTVSPropertyOp18
 70
     1
102
RTVSPropertyOp19
 70
     1
102
RTVSPropertyOp20
 70
     1
102
RTVSPropertyOp21
 70
     1
102
RTVSPropertyOp22
 70
     1
102
RTVSPropertyOp23
 70
     1
102
RTVSPropertyOp24
 70
     1
102
RTVSPropertyOp25
 70
     1
102
RTVSPropertyOp26
 70
     1
102
RTVSPropertyOp27
 70
     1
102
RTVSPropertyOp28
 70
     1
102
RTVSPropertyOp29
 70
     1
102
RTVSPropertyOp30
 70
     1
102
RTVSPropertyOp31
 70
     1
102
RTVSPropertyOp32
 70
     1
102
RTVSPropertyOp33
 70
     1
102
RTVSPropertyOp34
 70
     1
102
RTVSPropertyOp35
 70
     1
102
RTVSPropertyOp36
 70
     1
102
RTVSPropertyOp37
 70
     1
102
RTVSPropertyOp38
 70
     1
102
RTVSPropertyOp39
 70
     1
102
RTVSPropertyOp40
 70
     1
102
RTVSPropertyOp41
 70
     1
102
RTVSPropertyOp42
 70
     1
102
RTVSPropertyOp43
 70
     1
102
RTVSPropertyOp44
 70
     1
102
RTVSPropertyOp45
 70
     1
102
RTVSPropertyOp46
 70
     1
102
RTVSPropertyOp47
 70
     1
102
RTVSPropertyOp48
 70
     1
102
RTVSPropertyOp49
 70
     1
102
RTVSPropertyOp50
 70
     1
102
RTVSPropertyOp51
 70
     0
102
RTVSPropertyOp52
 70
     0
102
RTVSPropertyOp53
 70
     1
102
RTVSPropertyOp54
 70
     1
102
RTVSPropertyOp55
 70
     1
102
RTVSPropertyOp56
 70
     1
102
RTVSPropertyOp57
 70
     1
102
RTVSPost2010Prop28
280
     0
102
RTVSPost2010PropOp28
 70
     1
102
RTVSPost2010Prop29
280
     1
102
RTVSPost2010PropOp29
 70
     1
102
RTVSPost2010Prop30
280
     1
102
RTVSPost2010PropOp30
 70
     1
102
RTVSPost2010Prop31
280
     0
102
RTVSPost2010PropOp31
 70
     1
102
RTVSPost2010Prop32
280
     0
102
RTVSPost2010PropOp32
 70
     1
102
RTVSPost2010Prop33
280
     0
102
RTVSPost2010PropOp33
 70
     1
102
RTVSPost2010Prop34
280
     0
102
RTVSPost2010PropOp34
 70
     1
102
RTVSPost2010Prop35
280
     0
102
RTVSPost2010PropOp35
 70
     1
102
RTVSPost2010Prop36
280
     0
102
RTVSPost2010PropOp36
 70
     1
102
RTVSPost2010Prop37
 90
       50
102
RTVSPost2010PropOp37
 70
     1
102
RTVSPost2010Prop38
140
0.0
102
RTVSPost2010PropOp38
 70
     1
102
RTVSPost2010Prop39
140
1.0
102
RTVSPost2010PropOp39
 70
     1
102
RTVSPost2010Prop40
 90
        0
102
RTVSPost2010PropOp40
 70
     1
102
RTVSPost2010Prop41ColorIndex
 90
      178
102
RTVSPost2010Prop41ColorRGB
 90
        0
102
RTVSPost2010PropOp41
 70
     1
102
RTVSPost2010Prop42
 90
       50
102
RTVSPost2010PropOp42
 70
     1
102
RTVSPost2010Prop43
 90
        3
102
RTVSPost2010PropOp43
 70
     1
102
RTVSPost2010Prop44ColorIndex
 90
        5
102
RTVSPost2010Prop44ColorRGB
 90
      255
102
RTVSPost2010PropOp44
 70
     1
102
RTVSPost2010Prop45
280
     0
102
RTVSPost2010PropOp45
 70
     1
102
RTVSPost2010Prop46
 90
       50
102
RTVSPost2010PropOp46
 70
     1
102
RTVSPost2010Prop47
 90
       50
102
RTVSPost2010PropOp47
 70
     1
102
RTVSPost2010Prop48
 90
       50
102
RTVSPost2010PropOp48
 70
     1
102
RTVSPost2010Prop49
280
     0
102
RTVSPost2010PropOp49
 70
     1
102
RTVSPost2010Prop50
 90
       50
102
RTVSPost2010PropOp50
 70
     1
102
RTVSPost2010Prop51ColorIndex
 90
      256
102
RTVSPost2010Prop51ColorRGB
 90
-16777216
102
RTVSPost2010PropOp51
 70
     0
102
RTVSPost2010Prop52
140
1.0
102
RTVSPost2010PropOp52
 70
     0
102
RTVSPost2010Prop53
 90
        2
102
RTVSPost2010PropOp53
 70
     1
102
RTVSPost2010Prop54
  1
strokes_ogs.tif
102
RTVSPost2010PropOp54
 70
     1
102
RTVSPost2010Prop55
280
     0
102
RTVSPost2010PropOp55
 70
     1
102
RTVSPost2010Prop56
140
1.0
102
RTVSPost2010PropOp56
 70
     1
102
RTVSPost2010Prop57
140
1.0
102
RTVSPost2010PropOp57
 70
     1
  0
XRECORD
  5
329
102
{ACAD_REACTORS
330
328
102
}
330
328
100
AcDbXrecord
280
     1
102
RTVSPropertyOp0
 70
     1
102
RTVSPropertyOp1
 70
     1
102
RTVSPropertyOp2
 70
     1
102
RTVSPropertyOp3
 70
     1
102
RTVSPropertyOp4
 70
     1
102
RTVSPropertyOp5
 70
     1
102
RTVSPropertyOp6
 70
     1
102
RTVSPropertyOp7
 70
     1
102
RTVSPropertyOp8
 70
     1
102
RTVSPropertyOp9
 70
     1
102
RTVSPropertyOp10
 70
     1
102
RTVSPropertyOp11
 70
     1
102
RTVSPropertyOp12
 70
     1
102
RTVSPropertyOp13
 70
     1
102
RTVSPropertyOp14
 70
     1
102
RTVSPropertyOp15
 70
     1
102
RTVSPropertyOp16
 70
     1
102
RTVSPropertyOp17
 70
     1
102
RTVSPropertyOp18
 70
     1
102
RTVSPropertyOp19
 70
     1
102
RTVSPropertyOp20
 70
     1
102
RTVSPropertyOp21
 70
     1
102
RTVSPropertyOp22
 70
     1
102
RTVSPropertyOp23
 70
     1
102
RTVSPropertyOp24
 70
     1
102
RTVSPropertyOp25
 70
     1
102
RTVSPropertyOp26
 70
     1
102
RTVSPropertyOp27
 70
     1
102
RTVSPropertyOp28
 70
     1
102
RTVSPropertyOp29
 70
     1
102
RTVSPropertyOp30
 70
     1
102
RTVSPropertyOp31
 70
     1
102
RTVSPropertyOp32
 70
     1
102
RTVSPropertyOp33
 70
     1
102
RTVSPropertyOp34
 70
     1
102
RTVSPropertyOp35
 70
     1
102
RTVSPropertyOp36
 70
     1
102
RTVSPropertyOp37
 70
     1
102
RTVSPropertyOp38
 70
     1
102
RTVSPropertyOp39
 70
     1
102
RTVSPropertyOp40
 70
     1
102
RTVSPropertyOp41
 70
     1
102
RTVSPropertyOp42
 70
     1
102
RTVSPropertyOp43
 70
     1
102
RTVSPropertyOp44
 70
     1
102
RTVSPropertyOp45
 70
     1
102
RTVSPropertyOp46
 70
     1
102
RTVSPropertyOp47
 70
     1
102
RTVSPropertyOp48
 70
     1
102
RTVSPropertyOp49
 70
     1
102
RTVSPropertyOp50
 70
     1
102
RTVSPropertyOp51
 70
     0
102
RTVSPropertyOp52
 70
     0
102
RTVSPropertyOp53
 70
     1
102
RTVSPropertyOp54
 70
     1
102
RTVSPropertyOp55
 70
     1
102
RTVSPropertyOp56
 70
     1
102
RTVSPropertyOp57
 70
     1
102
RTVSPost2010Prop28
280
     0
102
RTVSPost2010PropOp28
 70
     1
102
RTVSPost2010Prop29
280
     1
102
RTVSPost2010PropOp29
 70
     1
102
RTVSPost2010Prop30
280
     1
102
RTVSPost2010PropOp30
 70
     1
102
RTVSPost2010Prop31
280
     0
102
RTVSPost2010PropOp31
 70
     1
102
RTVSPost2010Prop32
280
     0
102
RTVSPost2010PropOp32
 70
     1
102
RTVSPost2010Prop33
280
     0
102
RTVSPost2010PropOp33
 70
     1
102
RTVSPost2010Prop34
280
     0
102
RTVSPost2010PropOp34
 70
     1
102
RTVSPost2010Prop35
280
     0
102
RTVSPost2010PropOp35
 70
     1
102
RTVSPost2010Prop36
280
     0
102
RTVSPost2010PropOp36
 70
     1
102
RTVSPost2010Prop37
 90
       50
102
RTVSPost2010PropOp37
 70
     1
102
RTVSPost2010Prop38
140
0.0
102
RTVSPost2010PropOp38
 70
     1
102
RTVSPost2010Prop39
140
1.0
102
RTVSPost2010PropOp39
 70
     1
102
RTVSPost2010Prop40
 90
        0
102
RTVSPost2010PropOp40
 70
     1
102
RTVSPost2010Prop41ColorIndex
 90
      178
102
RTVSPost2010Prop41ColorRGB
 90
        0
102
RTVSPost2010PropOp41
 70
     1
102
RTVSPost2010Prop42
 90
       50
102
RTVSPost2010PropOp42
 70
     1
102
RTVSPost2010Prop43
 90
        3
102
RTVSPost2010PropOp43
 70
     1
102
RTVSPost2010Prop44ColorIndex
 90
        5
102
RTVSPost2010Prop44ColorRGB
 90
      255
102
RTVSPost2010PropOp44
 70
     1
102
RTVSPost2010Prop45
280
     0
102
RTVSPost2010PropOp45
 70
     1
102
RTVSPost2010Prop46
 90
       50
102
RTVSPost2010PropOp46
 70
     1
102
RTVSPost2010Prop47
 90
       50
102
RTVSPost2010PropOp47
 70
     1
102
RTVSPost2010Prop48
 90
       50
102
RTVSPost2010PropOp48
 70
     1
102
RTVSPost2010Prop49
280
     0
102
RTVSPost2010PropOp49
 70
     1
102
RTVSPost2010Prop50
 90
       50
102
RTVSPost2010PropOp50
 70
     1
102
RTVSPost2010Prop51ColorIndex
 90
      256
102
RTVSPost2010Prop51ColorRGB
 90
-16777216
102
RTVSPost2010PropOp51
 70
     0
102
RTVSPost2010Prop52
140
1.0
102
RTVSPost2010PropOp52
 70
     0
102
RTVSPost2010Prop53
 90
        2
102
RTVSPost2010PropOp53
 70
     1
102
RTVSPost2010Prop54
  1
strokes_ogs.tif
102
RTVSPost2010PropOp54
 70
     1
102
RTVSPost2010Prop55
280
     0
102
RTVSPost2010PropOp55
 70
     1
102
RTVSPost2010Prop56
140
1.0
102
RTVSPost2010PropOp56
 70
     1
102
RTVSPost2010Prop57
140
1.0
102
RTVSPost2010PropOp57
 70
     1
  0
XRECORD
  5
32B
102
{ACAD_REACTORS
330
32A
102
}
330
32A
100
AcDbXrecord
280
     1
102
RTVSPropertyOp0
 70
     1
102
RTVSPropertyOp1
 70
     1
102
RTVSPropertyOp2
 70
     1
102
RTVSPropertyOp3
 70
     1
102
RTVSPropertyOp4
 70
     1
102
RTVSPropertyOp5
 70
     1
102
RTVSPropertyOp6
 70
     1
102
RTVSPropertyOp7
 70
     1
102
RTVSPropertyOp8
 70
     1
102
RTVSPropertyOp9
 70
     1
102
RTVSPropertyOp10
 70
     1
102
RTVSPropertyOp11
 70
     1
102
RTVSPropertyOp12
 70
     1
102
RTVSPropertyOp13
 70
     1
102
RTVSPropertyOp14
 70
     1
102
RTVSPropertyOp15
 70
     1
102
RTVSPropertyOp16
 70
     1
102
RTVSPropertyOp17
 70
     1
102
RTVSPropertyOp18
 70
     1
102
RTVSPropertyOp19
 70
     1
102
RTVSPropertyOp20
 70
     1
102
RTVSPropertyOp21
 70
     1
102
RTVSPropertyOp22
 70
     1
102
RTVSPropertyOp23
 70
     1
102
RTVSPropertyOp24
 70
     1
102
RTVSPropertyOp25
 70
     1
102
RTVSPropertyOp26
 70
     1
102
RTVSPropertyOp27
 70
     1
102
RTVSPropertyOp28
 70
     1
102
RTVSPropertyOp29
 70
     1
102
RTVSPropertyOp30
 70
     1
102
RTVSPropertyOp31
 70
     1
102
RTVSPropertyOp32
 70
     1
102
RTVSPropertyOp33
 70
     1
102
RTVSPropertyOp34
 70
     1
102
RTVSPropertyOp35
 70
     1
102
RTVSPropertyOp36
 70
     1
102
RTVSPropertyOp37
 70
     1
102
RTVSPropertyOp38
 70
     1
102
RTVSPropertyOp39
 70
     1
102
RTVSPropertyOp40
 70
     1
102
RTVSPropertyOp41
 70
     1
102
RTVSPropertyOp42
 70
     1
102
RTVSPropertyOp43
 70
     1
102
RTVSPropertyOp44
 70
     1
102
RTVSPropertyOp45
 70
     1
102
RTVSPropertyOp46
 70
     1
102
RTVSPropertyOp47
 70
     1
102
RTVSPropertyOp48
 70
     1
102
RTVSPropertyOp49
 70
     1
102
RTVSPropertyOp50
 70
     1
102
RTVSPropertyOp51
 70
     0
102
RTVSPropertyOp52
 70
     0
102
RTVSPropertyOp53
 70
     1
102
RTVSPropertyOp54
 70
     1
102
RTVSPropertyOp55
 70
     1
102
RTVSPropertyOp56
 70
     1
102
RTVSPropertyOp57
 70
     1
102
RTVSPost2010Prop28
280
     0
102
RTVSPost2010PropOp28
 70
     1
102
RTVSPost2010Prop29
280
     1
102
RTVSPost2010PropOp29
 70
     1
102
RTVSPost2010Prop30
280
     1
102
RTVSPost2010PropOp30
 70
     1
102
RTVSPost2010Prop31
280
     0
102
RTVSPost2010PropOp31
 70
     1
102
RTVSPost2010Prop32
280
     0
102
RTVSPost2010PropOp32
 70
     1
102
RTVSPost2010Prop33
280
     0
102
RTVSPost2010PropOp33
 70
     1
102
RTVSPost2010Prop34
280
     0
102
RTVSPost2010PropOp34
 70
     1
102
RTVSPost2010Prop35
280
     0
102
RTVSPost2010PropOp35
 70
     1
102
RTVSPost2010Prop36
280
     0
102
RTVSPost2010PropOp36
 70
     1
102
RTVSPost2010Prop37
 90
       50
102
RTVSPost2010PropOp37
 70
     1
102
RTVSPost2010Prop38
140
0.0
102
RTVSPost2010PropOp38
 70
     1
102
RTVSPost2010Prop39
140
1.0
102
RTVSPost2010PropOp39
 70
     1
102
RTVSPost2010Prop40
 90
        0
102
RTVSPost2010PropOp40
 70
     1
102
RTVSPost2010Prop41ColorIndex
 90
      178
102
RTVSPost2010Prop41ColorRGB
 90
        0
102
RTVSPost2010PropOp41
 70
     1
102
RTVSPost2010Prop42
 90
       50
102
RTVSPost2010PropOp42
 70
     1
102
RTVSPost2010Prop43
 90
        3
102
RTVSPost2010PropOp43
 70
     1
102
RTVSPost2010Prop44ColorIndex
 90
        5
102
RTVSPost2010Prop44ColorRGB
 90
      255
102
RTVSPost2010PropOp44
 70
     1
102
RTVSPost2010Prop45
280
     0
102
RTVSPost2010PropOp45
 70
     1
102
RTVSPost2010Prop46
 90
       50
102
RTVSPost2010PropOp46
 70
     1
102
RTVSPost2010Prop47
 90
       50
102
RTVSPost2010PropOp47
 70
     1
102
RTVSPost2010Prop48
 90
       50
102
RTVSPost2010PropOp48
 70
     1
102
RTVSPost2010Prop49
280
     0
102
RTVSPost2010PropOp49
 70
     1
102
RTVSPost2010Prop50
 90
       50
102
RTVSPost2010PropOp50
 70
     1
102
RTVSPost2010Prop51ColorIndex
 90
      256
102
RTVSPost2010Prop51ColorRGB
 90
-16777216
102
RTVSPost2010PropOp51
 70
     0
102
RTVSPost2010Prop52
140
1.0
102
RTVSPost2010PropOp52
 70
     0
102
RTVSPost2010Prop53
 90
        2
102
RTVSPost2010PropOp53
 70
     1
102
RTVSPost2010Prop54
  1
strokes_ogs.tif
102
RTVSPost2010PropOp54
 70
     1
102
RTVSPost2010Prop55
280
     0
102
RTVSPost2010PropOp55
 70
     1
102
RTVSPost2010Prop56
140
1.0
102
RTVSPost2010PropOp56
 70
     1
102
RTVSPost2010Prop57
140
1.0
102
RTVSPost2010PropOp57
 70
     1
  0
XRECORD
  5
31B
102
{ACAD_REACTORS
330
31A
102
}
330
31A
100
AcDbXrecord
280
     1
102
RTVSPropertyOp0
 70
     1
102
RTVSPropertyOp1
 70
     1
102
RTVSPropertyOp2
 70
     1
102
RTVSPropertyOp3
 70
     1
102
RTVSPropertyOp4
 70
     1
102
RTVSPropertyOp5
 70
     1
102
RTVSPropertyOp6
 70
     1
102
RTVSPropertyOp7
 70
     1
102
RTVSPropertyOp8
 70
     1
102
RTVSPropertyOp9
 70
     1
102
RTVSPropertyOp10
 70
     1
102
RTVSPropertyOp11
 70
     1
102
RTVSPropertyOp12
 70
     1
102
RTVSPropertyOp13
 70
     1
102
RTVSPropertyOp14
 70
     1
102
RTVSPropertyOp15
 70
     1
102
RTVSPropertyOp16
 70
     1
102
RTVSPropertyOp17
 70
     1
102
RTVSPropertyOp18
 70
     1
102
RTVSPropertyOp19
 70
     1
102
RTVSPropertyOp20
 70
     1
102
RTVSPropertyOp21
 70
     1
102
RTVSPropertyOp22
 70
     1
102
RTVSPropertyOp23
 70
     1
102
RTVSPropertyOp24
 70
     1
102
RTVSPropertyOp25
 70
     1
102
RTVSPropertyOp26
 70
     1
102
RTVSPropertyOp27
 70
     1
102
RTVSPropertyOp28
 70
     1
102
RTVSPropertyOp29
 70
     1
102
RTVSPropertyOp30
 70
     1
102
RTVSPropertyOp31
 70
     1
102
RTVSPropertyOp32
 70
     1
102
RTVSPropertyOp33
 70
     1
102
RTVSPropertyOp34
 70
     1
102
RTVSPropertyOp35
 70
     1
102
RTVSPropertyOp36
 70
     1
102
RTVSPropertyOp37
 70
     1
102
RTVSPropertyOp38
 70
     1
102
RTVSPropertyOp39
 70
     1
102
RTVSPropertyOp40
 70
     1
102
RTVSPropertyOp41
 70
     1
102
RTVSPropertyOp42
 70
     1
102
RTVSPropertyOp43
 70
     1
102
RTVSPropertyOp44
 70
     1
102
RTVSPropertyOp45
 70
     1
102
RTVSPropertyOp46
 70
     1
102
RTVSPropertyOp47
 70
     1
102
RTVSPropertyOp48
 70
     1
102
RTVSPropertyOp49
 70
     1
102
RTVSPropertyOp50
 70
     1
102
RTVSPropertyOp51
 70
     0
102
RTVSPropertyOp52
 70
     0
102
RTVSPropertyOp53
 70
     1
102
RTVSPropertyOp54
 70
     1
102
RTVSPropertyOp55
 70
     1
102
RTVSPropertyOp56
 70
     1
102
RTVSPropertyOp57
 70
     1
102
RTVSPost2010Prop28
280
     0
102
RTVSPost2010PropOp28
 70
     1
102
RTVSPost2010Prop29
280
     1
102
RTVSPost2010PropOp29
 70
     1
102
RTVSPost2010Prop30
280
     1
102
RTVSPost2010PropOp30
 70
     1
102
RTVSPost2010Prop31
280
     0
102
RTVSPost2010PropOp31
 70
     1
102
RTVSPost2010Prop32
280
     0
102
RTVSPost2010PropOp32
 70
     1
102
RTVSPost2010Prop33
280
     0
102
RTVSPost2010PropOp33
 70
     1
102
RTVSPost2010Prop34
280
     0
102
RTVSPost2010PropOp34
 70
     1
102
RTVSPost2010Prop35
280
     0
102
RTVSPost2010PropOp35
 70
     1
102
RTVSPost2010Prop36
280
     0
102
RTVSPost2010PropOp36
 70
     1
102
RTVSPost2010Prop37
 90
       50
102
RTVSPost2010PropOp37
 70
     1
102
RTVSPost2010Prop38
140
0.0
102
RTVSPost2010PropOp38
 70
     1
102
RTVSPost2010Prop39
140
1.0
102
RTVSPost2010PropOp39
 70
     1
102
RTVSPost2010Prop40
 90
        0
102
RTVSPost2010PropOp40
 70
     1
102
RTVSPost2010Prop41ColorIndex
 90
      178
102
RTVSPost2010Prop41ColorRGB
 90
        0
102
RTVSPost2010PropOp41
 70
     1
102
RTVSPost2010Prop42
 90
       50
102
RTVSPost2010PropOp42
 70
     1
102
RTVSPost2010Prop43
 90
        3
102
RTVSPost2010PropOp43
 70
     1
102
RTVSPost2010Prop44ColorIndex
 90
        5
102
RTVSPost2010Prop44ColorRGB
 90
      255
102
RTVSPost2010PropOp44
 70
     1
102
RTVSPost2010Prop45
280
     0
102
RTVSPost2010PropOp45
 70
     1
102
RTVSPost2010Prop46
 90
       50
102
RTVSPost2010PropOp46
 70
     1
102
RTVSPost2010Prop47
 90
       50
102
RTVSPost2010PropOp47
 70
     1
102
RTVSPost2010Prop48
 90
       50
102
RTVSPost2010PropOp48
 70
     1
102
RTVSPost2010Prop49
280
     0
102
RTVSPost2010PropOp49
 70
     1
102
RTVSPost2010Prop50
 90
       50
102
RTVSPost2010PropOp50
 70
     1
102
RTVSPost2010Prop51ColorIndex
 90
      256
102
RTVSPost2010Prop51ColorRGB
 90
-16777216
102
RTVSPost2010PropOp51
 70
     0
102
RTVSPost2010Prop52
140
1.0
102
RTVSPost2010PropOp52
 70
     0
102
RTVSPost2010Prop53
 90
        2
102
RTVSPost2010PropOp53
 70
     1
102
RTVSPost2010Prop54
  1
strokes_ogs.tif
102
RTVSPost2010PropOp54
 70
     1
102
RTVSPost2010Prop55
280
     0
102
RTVSPost2010PropOp55
 70
     1
102
RTVSPost2010Prop56
140
1.0
102
RTVSPost2010PropOp56
 70
     1
102
RTVSPost2010Prop57
140
1.0
102
RTVSPost2010PropOp57
 70
     1
  0
XRECORD
  5
30D
102
{ACAD_REACTORS
330
30C
102
}
330
30C
100
AcDbXrecord
280
     1
102
RTVSPropertyOp0
 70
     1
102
RTVSPropertyOp1
 70
     1
102
RTVSPropertyOp2
 70
     1
102
RTVSPropertyOp3
 70
     1
102
RTVSPropertyOp4
 70
     1
102
RTVSPropertyOp5
 70
     1
102
RTVSPropertyOp6
 70
     1
102
RTVSPropertyOp7
 70
     1
102
RTVSPropertyOp8
 70
     1
102
RTVSPropertyOp9
 70
     1
102
RTVSPropertyOp10
 70
     1
102
RTVSPropertyOp11
 70
     1
102
RTVSPropertyOp12
 70
     1
102
RTVSPropertyOp13
 70
     1
102
RTVSPropertyOp14
 70
     1
102
RTVSPropertyOp15
 70
     1
102
RTVSPropertyOp16
 70
     1
102
RTVSPropertyOp17
 70
     1
102
RTVSPropertyOp18
 70
     1
102
RTVSPropertyOp19
 70
     1
102
RTVSPropertyOp20
 70
     1
102
RTVSPropertyOp21
 70
     1
102
RTVSPropertyOp22
 70
     1
102
RTVSPropertyOp23
 70
     1
102
RTVSPropertyOp24
 70
     1
102
RTVSPropertyOp25
 70
     1
102
RTVSPropertyOp26
 70
     1
102
RTVSPropertyOp27
 70
     1
102
RTVSPropertyOp28
 70
     1
102
RTVSPropertyOp29
 70
     1
102
RTVSPropertyOp30
 70
     1
102
RTVSPropertyOp31
 70
     1
102
RTVSPropertyOp32
 70
     1
102
RTVSPropertyOp33
 70
     1
102
RTVSPropertyOp34
 70
     1
102
RTVSPropertyOp35
 70
     1
102
RTVSPropertyOp36
 70
     1
102
RTVSPropertyOp37
 70
     1
102
RTVSPropertyOp38
 70
     1
102
RTVSPropertyOp39
 70
     1
102
RTVSPropertyOp40
 70
     1
102
RTVSPropertyOp41
 70
     1
102
RTVSPropertyOp42
 70
     1
102
RTVSPropertyOp43
 70
     1
102
RTVSPropertyOp44
 70
     1
102
RTVSPropertyOp45
 70
     1
102
RTVSPropertyOp46
 70
     1
102
RTVSPropertyOp47
 70
     1
102
RTVSPropertyOp48
 70
     1
102
RTVSPropertyOp49
 70
     1
102
RTVSPropertyOp50
 70
     1
102
RTVSPropertyOp51
 70
     0
102
RTVSPropertyOp52
 70
     0
102
RTVSPropertyOp53
 70
     1
102
RTVSPropertyOp54
 70
     1
102
RTVSPropertyOp55
 70
     1
102
RTVSPropertyOp56
 70
     1
102
RTVSPropertyOp57
 70
     1
102
RTVSPost2010Prop28
280
     0
102
RTVSPost2010PropOp28
 70
     1
102
RTVSPost2010Prop29
280
     1
102
RTVSPost2010PropOp29
 70
     1
102
RTVSPost2010Prop30
280
     1
102
RTVSPost2010PropOp30
 70
     1
102
RTVSPost2010Prop31
280
     0
102
RTVSPost2010PropOp31
 70
     1
102
RTVSPost2010Prop32
280
     0
102
RTVSPost2010PropOp32
 70
     1
102
RTVSPost2010Prop33
280
     0
102
RTVSPost2010PropOp33
 70
     1
102
RTVSPost2010Prop34
280
     0
102
RTVSPost2010PropOp34
 70
     1
102
RTVSPost2010Prop35
280
     0
102
RTVSPost2010PropOp35
 70
     1
102
RTVSPost2010Prop36
280
     0
102
RTVSPost2010PropOp36
 70
     1
102
RTVSPost2010Prop37
 90
       50
102
RTVSPost2010PropOp37
 70
     1
102
RTVSPost2010Prop38
140
0.0
102
RTVSPost2010PropOp38
 70
     1
102
RTVSPost2010Prop39
140
1.0
102
RTVSPost2010PropOp39
 70
     1
102
RTVSPost2010Prop40
 90
        0
102
RTVSPost2010PropOp40
 70
     1
102
RTVSPost2010Prop41ColorIndex
 90
      178
102
RTVSPost2010Prop41ColorRGB
 90
        0
102
RTVSPost2010PropOp41
 70
     1
102
RTVSPost2010Prop42
 90
       50
102
RTVSPost2010PropOp42
 70
     1
102
RTVSPost2010Prop43
 90
        3
102
RTVSPost2010PropOp43
 70
     1
102
RTVSPost2010Prop44ColorIndex
 90
        5
102
RTVSPost2010Prop44ColorRGB
 90
      255
102
RTVSPost2010PropOp44
 70
     1
102
RTVSPost2010Prop45
280
     0
102
RTVSPost2010PropOp45
 70
     1
102
RTVSPost2010Prop46
 90
       50
102
RTVSPost2010PropOp46
 70
     1
102
RTVSPost2010Prop47
 90
       50
102
RTVSPost2010PropOp47
 70
     1
102
RTVSPost2010Prop48
 90
       50
102
RTVSPost2010PropOp48
 70
     1
102
RTVSPost2010Prop49
280
     0
102
RTVSPost2010PropOp49
 70
     1
102
RTVSPost2010Prop50
 90
       50
102
RTVSPost2010PropOp50
 70
     1
102
RTVSPost2010Prop51ColorIndex
 90
      256
102
RTVSPost2010Prop51ColorRGB
 90
-16777216
102
RTVSPost2010PropOp51
 70
     0
102
RTVSPost2010Prop52
140
1.0
102
RTVSPost2010PropOp52
 70
     0
102
RTVSPost2010Prop53
 90
        2
102
RTVSPost2010PropOp53
 70
     1
102
RTVSPost2010Prop54
  1
strokes_ogs.tif
102
RTVSPost2010PropOp54
 70
     1
102
RTVSPost2010Prop55
280
     0
102
RTVSPost2010PropOp55
 70
     1
102
RTVSPost2010Prop56
140
1.0
102
RTVSPost2010PropOp56
 70
     1
102
RTVSPost2010Prop57
140
1.0
102
RTVSPost2010PropOp57
 70
     1
  0
XRECORD
  5
32D
102
{ACAD_REACTORS
330
32C
102
}
330
32C
100
AcDbXrecord
280
     1
102
RTVSPropertyOp0
 70
     1
102
RTVSPropertyOp1
 70
     1
102
RTVSPropertyOp2
 70
     1
102
RTVSPropertyOp3
 70
     1
102
RTVSPropertyOp4
 70
     1
102
RTVSPropertyOp5
 70
     1
102
RTVSPropertyOp6
 70
     1
102
RTVSPropertyOp7
 70
     1
102
RTVSPropertyOp8
 70
     1
102
RTVSPropertyOp9
 70
     1
102
RTVSPropertyOp10
 70
     1
102
RTVSPropertyOp11
 70
     1
102
RTVSPropertyOp12
 70
     1
102
RTVSPropertyOp13
 70
     1
102
RTVSPropertyOp14
 70
     1
102
RTVSPropertyOp15
 70
     1
102
RTVSPropertyOp16
 70
     1
102
RTVSPropertyOp17
 70
     1
102
RTVSPropertyOp18
 70
     1
102
RTVSPropertyOp19
 70
     1
102
RTVSPropertyOp20
 70
     1
102
RTVSPropertyOp21
 70
     1
102
RTVSPropertyOp22
 70
     1
102
RTVSPropertyOp23
 70
     1
102
RTVSPropertyOp24
 70
     1
102
RTVSPropertyOp25
 70
     1
102
RTVSPropertyOp26
 70
     1
102
RTVSPropertyOp27
 70
     1
102
RTVSPropertyOp28
 70
     1
102
RTVSPropertyOp29
 70
     1
102
RTVSPropertyOp30
 70
     1
102
RTVSPropertyOp31
 70
     1
102
RTVSPropertyOp32
 70
     1
102
RTVSPropertyOp33
 70
     1
102
RTVSPropertyOp34
 70
     1
102
RTVSPropertyOp35
 70
     1
102
RTVSPropertyOp36
 70
     1
102
RTVSPropertyOp37
 70
     1
102
RTVSPropertyOp38
 70
     1
102
RTVSPropertyOp39
 70
     1
102
RTVSPropertyOp40
 70
     1
102
RTVSPropertyOp41
 70
     1
102
RTVSPropertyOp42
 70
     1
102
RTVSPropertyOp43
 70
     1
102
RTVSPropertyOp44
 70
     1
102
RTVSPropertyOp45
 70
     1
102
RTVSPropertyOp46
 70
     1
102
RTVSPropertyOp47
 70
     1
102
RTVSPropertyOp48
 70
     1
102
RTVSPropertyOp49
 70
     1
102
RTVSPropertyOp50
 70
     1
102
RTVSPropertyOp51
 70
     0
102
RTVSPropertyOp52
 70
     0
102
RTVSPropertyOp53
 70
     1
102
RTVSPropertyOp54
 70
     1
102
RTVSPropertyOp55
 70
     1
102
RTVSPropertyOp56
 70
     1
102
RTVSPropertyOp57
 70
     1
102
RTVSPost2010Prop28
280
     0
102
RTVSPost2010PropOp28
 70
     1
102
RTVSPost2010Prop29
280
     1
102
RTVSPost2010PropOp29
 70
     1
102
RTVSPost2010Prop30
280
     1
102
RTVSPost2010PropOp30
 70
     1
102
RTVSPost2010Prop31
280
     0
102
RTVSPost2010PropOp31
 70
     1
102
RTVSPost2010Prop32
280
     0
102
RTVSPost2010PropOp32
 70
     1
102
RTVSPost2010Prop33
280
     0
102
RTVSPost2010PropOp33
 70
     1
102
RTVSPost2010Prop34
280
     0
102
RTVSPost2010PropOp34
 70
     1
102
RTVSPost2010Prop35
280
     0
102
RTVSPost2010PropOp35
 70
     1
102
RTVSPost2010Prop36
280
     0
102
RTVSPost2010PropOp36
 70
     1
102
RTVSPost2010Prop37
 90
       50
102
RTVSPost2010PropOp37
 70
     1
102
RTVSPost2010Prop38
140
0.0
102
RTVSPost2010PropOp38
 70
     1
102
RTVSPost2010Prop39
140
1.0
102
RTVSPost2010PropOp39
 70
     1
102
RTVSPost2010Prop40
 90
        0
102
RTVSPost2010PropOp40
 70
     1
102
RTVSPost2010Prop41ColorIndex
 90
      178
102
RTVSPost2010Prop41ColorRGB
 90
        0
102
RTVSPost2010PropOp41
 70
     1
102
RTVSPost2010Prop42
 90
       50
102
RTVSPost2010PropOp42
 70
     1
102
RTVSPost2010Prop43
 90
        3
102
RTVSPost2010PropOp43
 70
     1
102
RTVSPost2010Prop44ColorIndex
 90
        5
102
RTVSPost2010Prop44ColorRGB
 90
      255
102
RTVSPost2010PropOp44
 70
     1
102
RTVSPost2010Prop45
280
     0
102
RTVSPost2010PropOp45
 70
     1
102
RTVSPost2010Prop46
 90
       50
102
RTVSPost2010PropOp46
 70
     1
102
RTVSPost2010Prop47
 90
       50
102
RTVSPost2010PropOp47
 70
     1
102
RTVSPost2010Prop48
 90
       50
102
RTVSPost2010PropOp48
 70
     1
102
RTVSPost2010Prop49
280
     0
102
RTVSPost2010PropOp49
 70
     1
102
RTVSPost2010Prop50
 90
       50
102
RTVSPost2010PropOp50
 70
     1
102
RTVSPost2010Prop51ColorIndex
 90
      256
102
RTVSPost2010Prop51ColorRGB
 90
-16777216
102
RTVSPost2010PropOp51
 70
     0
102
RTVSPost2010Prop52
140
1.0
102
RTVSPost2010PropOp52
 70
     0
102
RTVSPost2010Prop53
 90
        2
102
RTVSPost2010PropOp53
 70
     1
102
RTVSPost2010Prop54
  1
strokes_ogs.tif
102
RTVSPost2010PropOp54
 70
     1
102
RTVSPost2010Prop55
280
     0
102
RTVSPost2010PropOp55
 70
     1
102
RTVSPost2010Prop56
140
1.0
102
RTVSPost2010PropOp56
 70
     1
102
RTVSPost2010Prop57
140
1.0
102
RTVSPost2010PropOp57
 70
     1
  0
ENDSEC
  0
EOF
