  0
SECTION
  2
HEADER
  9
$ACADVER
  1
AC1021
  9
$ACADMAINTVER
 70
    25
  9
$DWGCODEPAGE
  3
ANSI_1252
  9
$INSBASE
 10
0.0
 20
0.0
 30
0.0
  9
$EXTMIN
 10
1.000000000000000E+20
 20
1.000000000000000E+20
 30
1.000000000000000E+20
  9
$EXTMAX
 10
-1.000000000000000E+20
 20
-1.000000000000000E+20
 30
-1.000000000000000E+20
  9
$LIMMIN
 10
0.0
 20
0.0
  9
$LIMMAX
 10
12.0
 20
9.0
  9
$ORTHOMODE
 70
     0
  9
$REGENMODE
 70
     1
  9
$FILLMODE
 70
     1
  9
$QTEXTMODE
 70
     0
  9
$MIRRTEXT
 70
     1
  9
$LTSCALE
 40
1.0
  9
$ATTMODE
 70
     1
  9
$TEXTSIZE
 40
0.2
  9
$TRACEWID
 40
0.05
  9
$TEXTSTYLE
  7
Standard
  9
$CLAYER
  8
Graypants_Roest_150h
  9
$CELTYPE
  6
ByLayer
  9
$CECOLOR
 62
   256
  9
$CELTSCALE
 40
1.0
  9
$DISPSILH
 70
     0
  9
$DIMSCALE
 40
1.0
  9
$DIMASZ
 40
0.18
  9
$DIMEXO
 40
0.0625
  9
$DIMDLI
 40
0.38
  9
$DIMRND
 40
0.0
  9
$DIMDLE
 40
0.0
  9
$DIMEXE
 40
0.18
  9
$DIMTP
 40
0.0
  9
$DIMTM
 40
0.0
  9
$DIMTXT
 40
0.18
  9
$DIMCEN
 40
0.09
  9
$DIMTSZ
 40
0.0
  9
$DIMTOL
 70
     0
  9
$DIMLIM
 70
     0
  9
$DIMTIH
 70
     1
  9
$DIMTOH
 70
     1
  9
$DIMSE1
 70
     0
  9
$DIMSE2
 70
     0
  9
$DIMTAD
 70
     0
  9
$DIMZIN
 70
     0
  9
$DIMBLK
  1

  9
$DIMASO
 70
     1
  9
$DIMSHO
 70
     1
  9
$DIMPOST
  1

  9
$DIMAPOST
  1

  9
$DIMALT
 70
     0
  9
$DIMALTD
 70
     2
  9
$DIMALTF
 40
25.4
  9
$DIMLFAC
 40
1.0
  9
$DIMTOFL
 70
     0
  9
$DIMTVP
 40
0.0
  9
$DIMTIX
 70
     0
  9
$DIMSOXD
 70
     0
  9
$DIMSAH
 70
     0
  9
$DIMBLK1
  1

  9
$DIMBLK2
  1

  9
$DIMSTYLE
  2
STANDARD_ACAD
  9
$DIMCLRD
 70
     0
  9
$DIMCLRE
 70
     0
  9
$DIMCLRT
 70
     0
  9
$DIMTFAC
 40
1.0
  9
$DIMGAP
 40
0.09
  9
$DIMJUST
 70
     0
  9
$DIMSD1
 70
     0
  9
$DIMSD2
 70
     0
  9
$DIMTOLJ
 70
     1
  9
$DIMTZIN
 70
     0
  9
$DIMALTZ
 70
     0
  9
$DIMALTTZ
 70
     0
  9
$DIMUPT
 70
     0
  9
$DIMDEC
 70
     4
  9
$DIMTDEC
 70
     4
  9
$DIMALTU
 70
     2
  9
$DIMALTTD
 70
     2
  9
$DIMTXSTY
  7
Standard
  9
$DIMAUNIT
 70
     0
  9
$DIMADEC
 70
     0
  9
$DIMALTRND
 40
0.0
  9
$DIMAZIN
 70
     0
  9
$DIMDSEP
 70
    46
  9
$DIMATFIT
 70
     3
  9
$DIMFRAC
 70
     0
  9
$DIMLDRBLK
  1

  9
$DIMLUNIT
 70
     2
  9
$DIMLWD
 70
    -2
  9
$DIMLWE
 70
    -2
  9
$DIMTMOVE
 70
     2
  9
$DIMFXL
 40
1.0
  9
$DIMFXLON
 70
     0
  9
$DIMJOGANG
 40
0.7853981633974483
  9
$DIMTFILL
 70
     0
  9
$DIMTFILLCLR
 70
     0
  9
$DIMARCSYM
 70
     0
  9
$DIMLTYPE
  6

  9
$DIMLTEX1
  6

  9
$DIMLTEX2
  6

  9
$LUNITS
 70
     2
  9
$LUPREC
 70
     3
  9
$SKETCHINC
 40
0.1
  9
$FILLETRAD
 40
0.5
  9
$AUNITS
 70
     0
  9
$AUPREC
 70
     0
  9
$MENU
  1
.
  9
$ELEVATION
 40
0.0
  9
$PELEVATION
 40
0.0
  9
$THICKNESS
 40
0.0
  9
$LIMCHECK
 70
     0
  9
$CHAMFERA
 40
0.0
  9
$CHAMFERB
 40
0.0
  9
$CHAMFERC
 40
0.0
  9
$CHAMFERD
 40
0.0
  9
$SKPOLY
 70
     0
  9
$TDCREATE
 40
2460858.651736504
  9
$TDUCREATE
 40
2460858.985069838
  9
$TDUPDATE
 40
2460858.651754051
  9
$TDUUPDATE
 40
2460858.985087384
  9
$TDINDWG
 40
0.0000000116
  9
$TDUSRTIMER
 40
0.0000000116
  9
$USRTIMER
 70
     1
  9
$ANGBASE
 50
0.0
  9
$ANGDIR
 70
     0
  9
$PDMODE
 70
     0
  9
$PDSIZE
 40
0.0
  9
$PLINEWID
 40
0.0
  9
$SPLFRAME
 70
     0
  9
$SPLINETYPE
 70
     6
  9
$SPLINESEGS
 70
     8
  9
$HANDSEED
  5
328
  9
$SURFTAB1
 70
     6
  9
$SURFTAB2
 70
     6
  9
$SURFTYPE
 70
     6
  9
$SURFU
 70
     6
  9
$SURFV
 70
     6
  9
$UCSBASE
  2

  9
$UCSNAME
  2

  9
$UCSORG
 10
0.0
 20
0.0
 30
0.0
  9
$UCSXDIR
 10
1.0
 20
0.0
 30
0.0
  9
$UCSYDIR
 10
0.0
 20
1.0
 30
0.0
  9
$UCSORTHOREF
  2

  9
$UCSORTHOVIEW
 70
     0
  9
$UCSORGTOP
 10
0.0
 20
0.0
 30
0.0
  9
$UCSORGBOTTOM
 10
0.0
 20
0.0
 30
0.0
  9
$UCSORGLEFT
 10
0.0
 20
0.0
 30
0.0
  9
$UCSORGRIGHT
 10
0.0
 20
0.0
 30
0.0
  9
$UCSORGFRONT
 10
0.0
 20
0.0
 30
0.0
  9
$UCSORGBACK
 10
0.0
 20
0.0
 30
0.0
  9
$PUCSBASE
  2

  9
$PUCSNAME
  2

  9
$PUCSORG
 10
0.0
 20
0.0
 30
0.0
  9
$PUCSXDIR
 10
1.0
 20
0.0
 30
0.0
  9
$PUCSYDIR
 10
0.0
 20
1.0
 30
0.0
  9
$PUCSORTHOREF
  2

  9
$PUCSORTHOVIEW
 70
     0
  9
$PUCSORGTOP
 10
0.0
 20
0.0
 30
0.0
  9
$PUCSORGBOTTOM
 10
0.0
 20
0.0
 30
0.0
  9
$PUCSORGLEFT
 10
0.0
 20
0.0
 30
0.0
  9
$PUCSORGRIGHT
 10
0.0
 20
0.0
 30
0.0
  9
$PUCSORGFRONT
 10
0.0
 20
0.0
 30
0.0
  9
$PUCSORGBACK
 10
0.0
 20
0.0
 30
0.0
  9
$USERI1
 70
     0
  9
$USERI2
 70
     0
  9
$USERI3
 70
     0
  9
$USERI4
 70
     0
  9
$USERI5
 70
     0
  9
$USERR1
 40
0.0
  9
$USERR2
 40
0.0
  9
$USERR3
 40
0.0
  9
$USERR4
 40
0.0
  9
$USERR5
 40
0.0
  9
$WORLDVIEW
 70
     1
  9
$SHADEDGE
 70
     3
  9
$SHADEDIF
 70
    70
  9
$TILEMODE
 70
     1
  9
$MAXACTVP
 70
    64
  9
$PINSBASE
 10
0.0
 20
0.0
 30
0.0
  9
$PLIMCHECK
 70
     0
  9
$PEXTMIN
 10
1.000000000000000E+20
 20
1.000000000000000E+20
 30
1.000000000000000E+20
  9
$PEXTMAX
 10
-1.000000000000000E+20
 20
-1.000000000000000E+20
 30
-1.000000000000000E+20
  9
$PLIMMIN
 10
0.0
 20
0.0
  9
$PLIMMAX
 10
12.0
 20
9.0
  9
$UNITMODE
 70
     0
  9
$VISRETAIN
 70
     1
  9
$PLINEGEN
 70
     0
  9
$PSLTSCALE
 70
     1
  9
$TREEDEPTH
 70
  3020
  9
$CMLSTYLE
  2
Standard
  9
$CMLJUST
 70
     0
  9
$CMLSCALE
 40
1.0
  9
$PROXYGRAPHICS
 70
     1
  9
$MEASUREMENT
 70
     1
  9
$CELWEIGHT
370
    -1
  9
$ENDCAPS
280
     0
  9
$JOINSTYLE
280
     0
  9
$LWDISPLAY
290
     0
  9
$INSUNITS
 70
     4
  9
$HYPERLINKBASE
  1

  9
$STYLESHEET
  1

  9
$XEDIT
290
     1
  9
$CEPSNTYPE
380
     0
  9
$PSTYLEMODE
290
     1
  9
$FINGERPRINTGUID
  2
{b9307924-958c-3840-81f7-ff6845e21f66}
  9
$VERSIONGUID
  2
{FAEB1C32-E019-11D5-929B-00C0DF256EC4}
  9
$EXTNAMES
290
     1
  9
$PSVPSCALE
 40
0.0
  9
$OLESTARTUP
290
     0
  9
$SORTENTS
280
   127
  9
$INDEXCTL
280
     0
  9
$HIDETEXT
280
     1
  9
$XCLIPFRAME
290
     0
  9
$HALOGAP
280
     0
  9
$OBSCOLOR
 70
   257
  9
$OBSLTYPE
280
     0
  9
$INTERSECTIONDISPLAY
280
     0
  9
$INTERSECTIONCOLOR
 70
   257
  9
$DIMASSOC
280
     2
  9
$PROJECTNAME
  1

  9
$CAMERADISPLAY
290
     0
  9
$LENSLENGTH
 40
50.0
  9
$CAMERAHEIGHT
 40
0.0
  9
$STEPSPERSEC
 40
2.0
  9
$STEPSIZE
 40
6.0
  9
$3DDWFPREC
 40
2.0
  9
$PSOLWIDTH
 40
0.25
  9
$PSOLHEIGHT
 40
4.0
  9
$LOFTANG1
 40
1.570796326794897
  9
$LOFTANG2
 40
1.570796326794897
  9
$LOFTMAG1
 40
0.0
  9
$LOFTMAG2
 40
0.0
  9
$LOFTPARAM
 70
     7
  9
$LOFTNORMALS
280
     1
  9
$LATITUDE
 40
37.795
  9
$LONGITUDE
 40
-122.394
  9
$NORTHDIRECTION
 40
0.0
  9
$TIMEZONE
 70
 -8000
  9
$LIGHTGLYPHDISPLAY
280
     1
  9
$TILEMODELIGHTSYNCH
280
     1
  9
$CMATERIAL
347
44
  9
$SOLIDHIST
280
     0
  9
$SHOWHIST
280
     1
  9
$DWFFRAME
280
     2
  9
$DGNFRAME
280
     2
  9
$REALWORLDSCALE
290
     1
  9
$INTERFERECOLOR
 62
   256
  9
$CSHADOW
280
     0
  9
$SHADOWPLANELOCATION
 40
0.0
  0
ENDSEC
  0
SECTION
  2
CLASSES
  0
CLASS
  1
ACDBDICTIONARYWDFLT
  2
AcDbDictionaryWithDefault
  3
ObjectDBX Classes
 90
        0
 91
        3
280
     0
281
     0
  0
CLASS
  1
VISUALSTYLE
  2
AcDbVisualStyle
  3
ObjectDBX Classes
 90
     4095
 91
        3
280
     0
281
     0
  0
CLASS
  1
MATERIAL
  2
AcDbMaterial
  3
ObjectDBX Classes
 90
     1153
 91
        3
280
     0
281
     0
  0
CLASS
  1
SCALE
  2
AcDbScale
  3
ObjectDBX Classes
 90
     1153
 91
        3
280
     0
281
     0
  0
CLASS
  1
TABLESTYLE
  2
AcDbTableStyle
  3
ObjectDBX Classes
 90
     4095
 91
        3
280
     0
281
     0
  0
CLASS
  1
MLEADERSTYLE
  2
AcDbMLeaderStyle
  3
ACDB_MLEADERSTYLE_CLASS
 90
     4095
 91
        3
280
     0
281
     0
  0
CLASS
  1
SUN
  2
AcDbSun
  3
SCENEOE
 90
     1153
 91
        3
280
     0
281
     0
  0
CLASS
  1
DICTIONARYVAR
  2
AcDbDictionaryVar
  3
ObjectDBX Classes
 90
        0
 91
        3
280
     0
281
     0
  0
CLASS
  1
CELLSTYLEMAP
  2
AcDbCellStyleMap
  3
ObjectDBX Classes
 90
     1152
 91
        3
280
     0
281
     0
  0
ENDSEC
  0
SECTION
  2
TABLES
  0
TABLE
  2
VPORT
  5
8
330
0
100
AcDbSymbolTable
 70
     1
  0
VPORT
  5
29
330
8
100
AcDbSymbolTableRecord
100
AcDbViewportTableRecord
  2
*Active
 70
     0
 10
0.0
 20
0.0
 11
1.0
 21
1.0
 12
10.42990654205607
 22
4.5
 13
0.0
 23
0.0
 14
0.5
 24
0.5
 15
0.5
 25
0.5
 16
0.0
 26
0.0
 36
1.0
 17
0.0
 27
0.0
 37
0.0
 40
9.0
 41
1.972972972850329
 42
50.0
 43
0.0
 44
0.0
 50
0.0
 51
0.0
 71
     0
 72
   100
 73
     1
 74
     3
 75
     0
 76
     0
 77
     0
 78
     0
281
     0
 65
     1
110
0.0
120
0.0
130
0.0
111
1.0
121
0.0
131
0.0
112
0.0
122
1.0
132
0.0
 79
     0
146
0.0
348
2F
 60
     3
 61
     5
292
     1
282
     1
141
0.0
142
0.0
 63
   250
361
6D
  0
ENDTAB
  0
TABLE
  2
LTYPE
  5
5
330
0
100
AcDbSymbolTable
 70
     2
  0
LTYPE
  5
14
330
5
100
AcDbSymbolTableRecord
100
AcDbLinetypeTableRecord
  2
ByBlock
 70
     0
  3

 72
    65
 73
     0
 40
0.0
  0
LTYPE
  5
15
330
5
100
AcDbSymbolTableRecord
100
AcDbLinetypeTableRecord
  2
ByLayer
 70
     0
  3

 72
    65
 73
     0
 40
0.0
  0
LTYPE
  5
16
330
5
100
AcDbSymbolTableRecord
100
AcDbLinetypeTableRecord
  2
Continuous
 70
     0
  3
Solid line
 72
    65
 73
     0
 40
0.0
  0
LTYPE
  5
13D
330
5
100
AcDbSymbolTableRecord
100
AcDbLinetypeTableRecord
  2
Hidden
 70
     0
  3

 72
    65
 73
     2
 40
4.0
 49
2.0
 74
     0
 49
-2.0
 74
     0
  0
ENDTAB
  0
TABLE
  2
LAYER
  5
2
330
0
100
AcDbSymbolTable
 70
     2
  0
LAYER
  5
10
330
2
100
AcDbSymbolTableRecord
100
AcDbLayerTableRecord
  2
0
 70
     0
 62
     7
  6
Continuous
370
    -3
390
F
347
46
  0
LAYER
  5
6E
330
2
100
AcDbSymbolTableRecord
100
AcDbLayerTableRecord
  2
Graypants_Roest_150h
 70
     0
 62
    36
420
  8339200
  6
Continuous
370
    -3
390
F
347
46
  0
ENDTAB
  0
TABLE
  2
STYLE
  5
3
330
0
100
AcDbSymbolTable
 70
     1
  0
STYLE
  5
11
330
3
100
AcDbSymbolTableRecord
100
AcDbTextStyleTableRecord
  2
Standard
 70
     0
 40
0.0
 41
1.0
 50
0.0
 71
     0
 42
0.2
  3
txt
  4

  0
ENDTAB
  0
TABLE
  2
VIEW
  5
6
330
0
100
AcDbSymbolTable
 70
     0
  0
ENDTAB
  0
TABLE
  2
UCS
  5
7
330
0
100
AcDbSymbolTable
 70
     0
  0
ENDTAB
  0
TABLE
  2
APPID
  5
9
330
0
100
AcDbSymbolTable
 70
     2
  0
APPID
  5
12
330
9
100
AcDbSymbolTableRecord
100
AcDbRegAppTableRecord
  2
ACAD
 70
     0
  0
APPID
  5
320
330
9
100
AcDbSymbolTableRecord
100
AcDbRegAppTableRecord
  2
ACAD_MLEADERVER
 70
     0
  0
ENDTAB
  0
TABLE
  2
DIMSTYLE
  5
A
330
0
100
AcDbSymbolTable
 70
     1
100
AcDbDimStyleTable
  0
DIMSTYLE
105
27
330
A
100
AcDbSymbolTableRecord
100
AcDbDimStyleTableRecord
  2
STANDARD_ACAD
 70
     0
178
     0
340
11
  0
ENDTAB
  0
TABLE
  2
BLOCK_RECORD
  5
1
330
0
100
AcDbSymbolTable
 70
     1
  0
BLOCK_RECORD
  5
1F
330
1
100
AcDbSymbolTableRecord
100
AcDbBlockTableRecord
  2
*Model_Space
340
22
 70
     0
280
     1
281
     0
  0
BLOCK_RECORD
  5
1B
330
1
100
AcDbSymbolTableRecord
100
AcDbBlockTableRecord
  2
*Paper_Space
340
1E
 70
     0
280
     1
281
     0
  0
BLOCK_RECORD
  5
23
330
1
100
AcDbSymbolTableRecord
100
AcDbBlockTableRecord
  2
*Paper_Space0
340
26
 70
     0
280
     1
281
     0
  0
ENDTAB
  0
ENDSEC
  0
SECTION
  2
BLOCKS
  0
BLOCK
  5
20
330
1F
100
AcDbEntity
  8
0
100
AcDbBlockBegin
  2
*Model_Space
 70
     0
 10
0.0
 20
0.0
 30
0.0
  3
*Model_Space
  1

  0
ENDBLK
  5
21
330
1F
100
AcDbEntity
  8
0
100
AcDbBlockEnd
  0
BLOCK
  5
1C
330
1B
100
AcDbEntity
 67
     1
  8
0
100
AcDbBlockBegin
  2
*Paper_Space
 70
     0
 10
0.0
 20
0.0
 30
0.0
  3
*Paper_Space
  1

  0
ENDBLK
  5
1D
330
1B
100
AcDbEntity
 67
     1
  8
0
100
AcDbBlockEnd
  0
BLOCK
  5
24
330
23
100
AcDbEntity
  8
0
100
AcDbBlockBegin
  2
*Paper_Space0
 70
     0
 10
0.0
 20
0.0
 30
0.0
  3
*Paper_Space0
  1

  0
ENDBLK
  5
25
330
23
100
AcDbEntity
  8
0
100
AcDbBlockEnd
  0
ENDSEC
  0
SECTION
  2
ENTITIES
  0
LINE
  5
6F
330
1F
100
AcDbEntity
  8
Graypants_Roest_150h
 62
    36
420
  8339200
370
    -3
100
AcDbLine
 10
1886.335002424252
 20
-449.8637524243019
 30
0.0
 11
1810.976252425039
 21
-449.8637524262356
 31
0.0
  0
LINE
  5
70
330
1F
100
AcDbEntity
  8
Graypants_Roest_150h
 62
    36
420
  8339200
370
    -3
100
AcDbLine
 10
1963.693752423566
 20
-449.8637524262356
 30
0.0
 11
1888.335002424252
 21
-449.8637524243017
 31
0.0
  0
POLYLINE
  5
71
330
1F
100
AcDbEntity
  8
Graypants_Roest_150h
 62
    36
420
  8339200
370
    -3
100
AcDb2dPolyline
 66
     1
 10
0.0
 20
0.0
 30
0.0
  0
VERTEX
  5
72
330
71
100
AcDbEntity
  8
Graypants_Roest_150h
 62
    36
420
  8339200
370
    -3
100
AcDbVertex
100
AcDb2dVertex
 10
1965.122502424235
 20
-418.1137524262278
 30
0.0
  0
VERTEX
  5
73
330
71
100
AcDbEntity
  8
Graypants_Roest_150h
 62
    36
420
  8339200
370
    -3
100
AcDbVertex
100
AcDb2dVertex
 10
1965.122502423597
 20
-448.4350024262678
 30
0.0
  0
VERTEX
  5
74
330
71
100
AcDbEntity
  8
Graypants_Roest_150h
 62
    36
420
  8339200
370
    -3
100
AcDbVertex
100
AcDb2dVertex
 10
1965.121669494301
 20
-448.483781537446
 30
0.0
  0
VERTEX
  5
75
330
71
100
AcDbEntity
  8
Graypants_Roest_150h
 62
    36
420
  8339200
370
    -3
100
AcDbVertex
100
AcDb2dVertex
 10
1965.119171677576
 20
-448.5325037743625
 30
0.0
  0
VERTEX
  5
76
330
71
100
AcDbEntity
  8
Graypants_Roest_150h
 62
    36
420
  8339200
370
    -3
100
AcDbVertex
100
AcDb2dVertex
 10
1965.115011885762
 20
-448.5811123290686
 30
0.0
  0
VERTEX
  5
77
330
71
100
AcDbEntity
  8
Graypants_Roest_150h
 62
    36
420
  8339200
370
    -3
100
AcDbVertex
100
AcDb2dVertex
 10
1965.109194968992
 20
-448.6295505261638
 30
0.0
  0
VERTEX
  5
78
330
71
100
AcDbEntity
  8
Graypants_Roest_150h
 62
    36
420
  8339200
370
    -3
100
AcDbVertex
100
AcDb2dVertex
 10
1965.10172770953
 20
-448.677761888877
 30
0.0
  0
VERTEX
  5
79
330
71
100
AcDbEntity
  8
Graypants_Roest_150h
 62
    36
420
  8339200
370
    -3
100
AcDbVertex
100
AcDb2dVertex
 10
1965.092618813867
 20
-448.725690204916
 30
0.0
  0
VERTEX
  5
7A
330
71
100
AcDbEntity
  8
Graypants_Roest_150h
 62
    36
420
  8339200
370
    -3
100
AcDbVertex
100
AcDb2dVertex
 10
1965.081878902567
 20
-448.7732795920082
 30
0.0
  0
VERTEX
  5
7B
330
71
100
AcDbEntity
  8
Graypants_Roest_150h
 62
    36
420
  8339200
370
    -3
100
AcDbVertex
100
AcDb2dVertex
 10
1965.069520497887
 20
-448.8204745630572
 30
0.0
  0
VERTEX
  5
7C
330
71
100
AcDbEntity
  8
Graypants_Roest_150h
 62
    36
420
  8339200
370
    -3
100
AcDbVertex
100
AcDb2dVertex
 10
1965.055558009173
 20
-448.8672200908376
 30
0.0
  0
VERTEX
  5
7D
330
71
100
AcDbEntity
  8
Graypants_Roest_150h
 62
    36
420
  8339200
370
    -3
100
AcDbVertex
100
AcDb2dVertex
 10
1965.040007716064
 20
-448.9134616721552
 30
0.0
  0
VERTEX
  5
7E
330
71
100
AcDbEntity
  8
Graypants_Roest_150h
 62
    36
420
  8339200
370
    -3
100
AcDbVertex
100
AcDb2dVertex
 10
1965.022887749504
 20
-448.9591453913947
 30
0.0
  0
VERTEX
  5
7F
330
71
100
AcDbEntity
  8
Graypants_Roest_150h
 62
    36
420
  8339200
370
    -3
100
AcDbVertex
100
AcDb2dVertex
 10
1965.00421807061
 20
-449.0042179833829
 30
0.0
  0
VERTEX
  5
80
330
71
100
AcDbEntity
  8
Graypants_Roest_150h
 62
    36
420
  8339200
370
    -3
100
AcDbVertex
100
AcDb2dVertex
 10
1964.984020447392
 20
-449.0486268954939
 30
0.0
  0
VERTEX
  5
81
330
71
100
AcDbEntity
  8
Graypants_Roest_150h
 62
    36
420
  8339200
370
    -3
100
AcDbVertex
100
AcDb2dVertex
 10
1964.962318429375
 20
-449.0923203489225
 30
0.0
  0
VERTEX
  5
82
330
71
100
AcDbEntity
  8
Graypants_Roest_150h
 62
    36
420
  8339200
370
    -3
100
AcDbVertex
100
AcDb2dVertex
 10
1964.939137320141
 20
-449.1352473990567
 30
0.0
  0
VERTEX
  5
83
330
71
100
AcDbEntity
  8
Graypants_Roest_150h
 62
    36
420
  8339200
370
    -3
100
AcDbVertex
100
AcDb2dVertex
 10
1964.914504147826
 20
-449.1773579948762
 30
0.0
  0
VERTEX
  5
84
330
71
100
AcDbEntity
  8
Graypants_Roest_150h
 62
    36
420
  8339200
370
    -3
100
AcDbVertex
100
AcDb2dVertex
 10
1964.888447633609
 20
-449.21860303731
 30
0.0
  0
VERTEX
  5
85
330
71
100
AcDbEntity
  8
Graypants_Roest_150h
 62
    36
420
  8339200
370
    -3
100
AcDbVertex
100
AcDb2dVertex
 10
1964.860998158218
 20
-449.2589344364835
 30
0.0
  0
VERTEX
  5
86
330
71
100
AcDbEntity
  8
Graypants_Roest_150h
 62
    36
420
  8339200
370
    -3
100
AcDbVertex
100
AcDb2dVertex
 10
1964.832187726514
 20
-449.2983051677895
 30
0.0
  0
VERTEX
  5
87
330
71
100
AcDbEntity
  8
Graypants_Roest_150h
 62
    36
420
  8339200
370
    -3
100
AcDbVertex
100
AcDb2dVertex
 10
1964.802049930171
 20
-449.3366693267164
 30
0.0
  0
VERTEX
  5
88
330
71
100
AcDbEntity
  8
Graypants_Roest_150h
 62
    36
420
  8339200
370
    -3
100
AcDbVertex
100
AcDb2dVertex
 10
1964.770619908513
 20
-449.3739821823711
 30
0.0
  0
VERTEX
  5
89
330
71
100
AcDbEntity
  8
Graypants_Roest_150h
 62
    36
420
  8339200
370
    -3
100
AcDbVertex
100
AcDb2dVertex
 10
1964.737934307538
 20
-449.4102002296329
 30
0.0
  0
VERTEX
  5
8A
330
71
100
AcDbEntity
  8
Graypants_Roest_150h
 62
    36
420
  8339200
370
    -3
100
AcDbVertex
100
AcDb2dVertex
 10
1964.704031237195
 20
-449.4452812398787
 30
0.0
  0
VERTEX
  5
8B
330
71
100
AcDbEntity
  8
Graypants_Roest_150h
 62
    36
420
  8339200
370
    -3
100
AcDbVertex
100
AcDb2dVertex
 10
1964.668950226948
 20
-449.47918431022
 30
0.0
  0
VERTEX
  5
8C
330
71
100
AcDbEntity
  8
Graypants_Roest_150h
 62
    36
420
  8339200
370
    -3
100
AcDbVertex
100
AcDb2dVertex
 10
1964.632732179685
 20
-449.5118699111933
 30
0.0
  0
VERTEX
  5
8D
330
71
100
AcDbEntity
  8
Graypants_Roest_150h
 62
    36
420
  8339200
370
    -3
100
AcDbVertex
100
AcDb2dVertex
 10
1964.595419324029
 20
-449.5432999328501
 30
0.0
  0
VERTEX
  5
8E
330
71
100
AcDbEntity
  8
Graypants_Roest_150h
 62
    36
420
  8339200
370
    -3
100
AcDbVertex
100
AcDb2dVertex
 10
1964.557055165101
 20
-449.5734377291907
 30
0.0
  0
VERTEX
  5
8F
330
71
100
AcDbEntity
  8
Graypants_Roest_150h
 62
    36
420
  8339200
370
    -3
100
AcDbVertex
100
AcDb2dVertex
 10
1964.517684433793
 20
-449.6022481608931
 30
0.0
  0
VERTEX
  5
90
330
71
100
AcDbEntity
  8
Graypants_Roest_150h
 62
    36
420
  8339200
370
    -3
100
AcDbVertex
100
AcDb2dVertex
 10
1964.477353034619
 20
-449.6296976362825
 30
0.0
  0
VERTEX
  5
91
330
71
100
AcDbEntity
  8
Graypants_Roest_150h
 62
    36
420
  8339200
370
    -3
100
AcDbVertex
100
AcDb2dVertex
 10
1964.436107992184
 20
-449.6557541504984
 30
0.0
  0
VERTEX
  5
92
330
71
100
AcDbEntity
  8
Graypants_Roest_150h
 62
    36
420
  8339200
370
    -3
100
AcDbVertex
100
AcDb2dVertex
 10
1964.393997396363
 20
-449.680387322811
 30
0.0
  0
VERTEX
  5
93
330
71
100
AcDbEntity
  8
Graypants_Roest_150h
 62
    36
420
  8339200
370
    -3
100
AcDbVertex
100
AcDb2dVertex
 10
1964.351070346228
 20
-449.7035684320432
 30
0.0
  0
VERTEX
  5
94
330
71
100
AcDbEntity
  8
Graypants_Roest_150h
 62
    36
420
  8339200
370
    -3
100
AcDbVertex
100
AcDb2dVertex
 10
1964.307376892798
 20
-449.7252704500586
 30
0.0
  0
VERTEX
  5
95
330
71
100
AcDbEntity
  8
Graypants_Roest_150h
 62
    36
420
  8339200
370
    -3
100
AcDbVertex
100
AcDb2dVertex
 10
1964.262967980687
 20
-449.7454680732749
 30
0.0
  0
VERTEX
  5
96
330
71
100
AcDbEntity
  8
Graypants_Roest_150h
 62
    36
420
  8339200
370
    -3
100
AcDbVertex
100
AcDb2dVertex
 10
1964.217895388698
 20
-449.7641377521668
 30
0.0
  0
VERTEX
  5
97
330
71
100
AcDbEntity
  8
Graypants_Roest_150h
 62
    36
420
  8339200
370
    -3
100
AcDbVertex
100
AcDb2dVertex
 10
1964.172211669457
 20
-449.7812577187242
 30
0.0
  0
VERTEX
  5
98
330
71
100
AcDbEntity
  8
Graypants_Roest_150h
 62
    36
420
  8339200
370
    -3
100
AcDbVertex
100
AcDb2dVertex
 10
1964.125970088139
 20
-449.7968080118317
 30
0.0
  0
VERTEX
  5
99
330
71
100
AcDbEntity
  8
Graypants_Roest_150h
 62
    36
420
  8339200
370
    -3
100
AcDbVertex
100
AcDb2dVertex
 10
1964.079224560358
 20
-449.8107705005432
 30
0.0
  0
VERTEX
  5
9A
330
71
100
AcDbEntity
  8
Graypants_Roest_150h
 62
    36
420
  8339200
370
    -3
100
AcDbVertex
100
AcDb2dVertex
 10
1964.032029589308
 20
-449.8231289052213
 30
0.0
  0
VERTEX
  5
9B
330
71
100
AcDbEntity
  8
Graypants_Roest_150h
 62
    36
420
  8339200
370
    -3
100
AcDbVertex
100
AcDb2dVertex
 10
1963.984440202216
 20
-449.833868816519
 30
0.0
  0
VERTEX
  5
9C
330
71
100
AcDbEntity
  8
Graypants_Roest_150h
 62
    36
420
  8339200
370
    -3
100
AcDbVertex
100
AcDb2dVertex
 10
1963.936511886176
 20
-449.8429777121804
 30
0.0
  0
VERTEX
  5
9D
330
71
100
AcDbEntity
  8
Graypants_Roest_150h
 62
    36
420
  8339200
370
    -3
100
AcDbVertex
100
AcDb2dVertex
 10
1963.888300523463
 20
-449.8504449716403
 30
0.0
  0
VERTEX
  5
9E
330
71
100
AcDbEntity
  8
Graypants_Roest_150h
 62
    36
420
  8339200
370
    -3
100
AcDbVertex
100
AcDb2dVertex
 10
1963.839862326367
 20
-449.8562618884084
 30
0.0
  0
VERTEX
  5
9F
330
71
100
AcDbEntity
  8
Graypants_Roest_150h
 62
    36
420
  8339200
370
    -3
100
AcDbVertex
100
AcDb2dVertex
 10
1963.791253771661
 20
-449.8604216802198
 30
0.0
  0
VERTEX
  5
A0
330
71
100
AcDbEntity
  8
Graypants_Roest_150h
 62
    36
420
  8339200
370
    -3
100
AcDbVertex
100
AcDb2dVertex
 10
1963.742531534745
 20
-449.8629194969435
 30
0.0
  0
VERTEX
  5
A1
330
71
100
AcDbEntity
  8
Graypants_Roest_150h
 62
    36
420
  8339200
370
    -3
100
AcDbVertex
100
AcDb2dVertex
 10
1963.693752423566
 20
-449.8637524262368
 30
0.0
  0
SEQEND
  5
A2
330
71
100
AcDbEntity
  8
Graypants_Roest_150h
 62
    36
420
  8339200
370
    -3
  0
LINE
  5
A3
330
1F
100
AcDbEntity
  8
Graypants_Roest_150h
 62
    36
420
  8339200
370
    -3
100
AcDbLine
 10
1965.122502424235
 20
-418.1137524262272
 30
0.0
 11
1887.335002424302
 21
-418.113752424257
 31
0.0
  0
POLYLINE
  5
A4
330
1F
100
AcDbEntity
  8
Graypants_Roest_150h
 62
    36
420
  8339200
370
    -3
100
AcDb2dPolyline
 66
     1
 10
0.0
 20
0.0
 30
0.0
  0
VERTEX
  5
A5
330
A4
100
AcDbEntity
  8
Graypants_Roest_150h
 62
    36
420
  8339200
370
    -3
100
AcDbVertex
100
AcDb2dVertex
 10
1810.976252425038
 20
-449.8637524262365
 30
0.0
  0
VERTEX
  5
A6
330
A4
100
AcDbEntity
  8
Graypants_Roest_150h
 62
    36
420
  8339200
370
    -3
100
AcDbVertex
100
AcDb2dVertex
 10
1810.92747331386
 20
-449.8629194969432
 30
0.0
  0
VERTEX
  5
A7
330
A4
100
AcDbEntity
  8
Graypants_Roest_150h
 62
    36
420
  8339200
370
    -3
100
AcDbVertex
100
AcDb2dVertex
 10
1810.878751076943
 20
-449.8604216802196
 30
0.0
  0
VERTEX
  5
A8
330
A4
100
AcDbEntity
  8
Graypants_Roest_150h
 62
    36
420
  8339200
370
    -3
100
AcDbVertex
100
AcDb2dVertex
 10
1810.830142522237
 20
-449.8562618884082
 30
0.0
  0
VERTEX
  5
A9
330
A4
100
AcDbEntity
  8
Graypants_Roest_150h
 62
    36
420
  8339200
370
    -3
100
AcDbVertex
100
AcDb2dVertex
 10
1810.781704325142
 20
-449.8504449716401
 30
0.0
  0
VERTEX
  5
AA
330
A4
100
AcDbEntity
  8
Graypants_Roest_150h
 62
    36
420
  8339200
370
    -3
100
AcDbVertex
100
AcDb2dVertex
 10
1810.733492962428
 20
-449.8429777121802
 30
0.0
  0
VERTEX
  5
AB
330
A4
100
AcDbEntity
  8
Graypants_Roest_150h
 62
    36
420
  8339200
370
    -3
100
AcDbVertex
100
AcDb2dVertex
 10
1810.685564646389
 20
-449.8338688165189
 30
0.0
  0
VERTEX
  5
AC
330
A4
100
AcDbEntity
  8
Graypants_Roest_150h
 62
    36
420
  8339200
370
    -3
100
AcDbVertex
100
AcDb2dVertex
 10
1810.637975259296
 20
-449.8231289052212
 30
0.0
  0
VERTEX
  5
AD
330
A4
100
AcDbEntity
  8
Graypants_Roest_150h
 62
    36
420
  8339200
370
    -3
100
AcDbVertex
100
AcDb2dVertex
 10
1810.590780288247
 20
-449.810770500543
 30
0.0
  0
VERTEX
  5
AE
330
A4
100
AcDbEntity
  8
Graypants_Roest_150h
 62
    36
420
  8339200
370
    -3
100
AcDbVertex
100
AcDb2dVertex
 10
1810.544034760466
 20
-449.7968080118316
 30
0.0
  0
VERTEX
  5
AF
330
A4
100
AcDbEntity
  8
Graypants_Roest_150h
 62
    36
420
  8339200
370
    -3
100
AcDbVertex
100
AcDb2dVertex
 10
1810.497793179147
 20
-449.7812577187241
 30
0.0
  0
VERTEX
  5
B0
330
A4
100
AcDbEntity
  8
Graypants_Roest_150h
 62
    36
420
  8339200
370
    -3
100
AcDbVertex
100
AcDb2dVertex
 10
1810.452109459907
 20
-449.7641377521668
 30
0.0
  0
VERTEX
  5
B1
330
A4
100
AcDbEntity
  8
Graypants_Roest_150h
 62
    36
420
  8339200
370
    -3
100
AcDbVertex
100
AcDb2dVertex
 10
1810.407036867918
 20
-449.7454680732748
 30
0.0
  0
VERTEX
  5
B2
330
A4
100
AcDbEntity
  8
Graypants_Roest_150h
 62
    36
420
  8339200
370
    -3
100
AcDbVertex
100
AcDb2dVertex
 10
1810.362627955806
 20
-449.7252704500585
 30
0.0
  0
VERTEX
  5
B3
330
A4
100
AcDbEntity
  8
Graypants_Roest_150h
 62
    36
420
  8339200
370
    -3
100
AcDbVertex
100
AcDb2dVertex
 10
1810.318934502377
 20
-449.7035684320431
 30
0.0
  0
VERTEX
  5
B4
330
A4
100
AcDbEntity
  8
Graypants_Roest_150h
 62
    36
420
  8339200
370
    -3
100
AcDbVertex
100
AcDb2dVertex
 10
1810.276007452241
 20
-449.680387322811
 30
0.0
  0
VERTEX
  5
B5
330
A4
100
AcDbEntity
  8
Graypants_Roest_150h
 62
    36
420
  8339200
370
    -3
100
AcDbVertex
100
AcDb2dVertex
 10
1810.233896856421
 20
-449.6557541504985
 30
0.0
  0
VERTEX
  5
B6
330
A4
100
AcDbEntity
  8
Graypants_Roest_150h
 62
    36
420
  8339200
370
    -3
100
AcDbVertex
100
AcDb2dVertex
 10
1810.192651813986
 20
-449.6296976362824
 30
0.0
  0
VERTEX
  5
B7
330
A4
100
AcDbEntity
  8
Graypants_Roest_150h
 62
    36
420
  8339200
370
    -3
100
AcDbVertex
100
AcDb2dVertex
 10
1810.152320414811
 20
-449.6022481608931
 30
0.0
  0
VERTEX
  5
B8
330
A4
100
AcDbEntity
  8
Graypants_Roest_150h
 62
    36
420
  8339200
370
    -3
100
AcDbVertex
100
AcDb2dVertex
 10
1810.112949683504
 20
-449.5734377291907
 30
0.0
  0
VERTEX
  5
B9
330
A4
100
AcDbEntity
  8
Graypants_Roest_150h
 62
    36
420
  8339200
370
    -3
100
AcDbVertex
100
AcDb2dVertex
 10
1810.074585524575
 20
-449.5432999328501
 30
0.0
  0
VERTEX
  5
BA
330
A4
100
AcDbEntity
  8
Graypants_Roest_150h
 62
    36
420
  8339200
370
    -3
100
AcDbVertex
100
AcDb2dVertex
 10
1810.03727266892
 20
-449.5118699111934
 30
0.0
  0
VERTEX
  5
BB
330
A4
100
AcDbEntity
  8
Graypants_Roest_150h
 62
    36
420
  8339200
370
    -3
100
AcDbVertex
100
AcDb2dVertex
 10
1810.001054621656
 20
-449.4791843102201
 30
0.0
  0
VERTEX
  5
BC
330
A4
100
AcDbEntity
  8
Graypants_Roest_150h
 62
    36
420
  8339200
370
    -3
100
AcDbVertex
100
AcDb2dVertex
 10
1809.965973611409
 20
-449.4452812398788
 30
0.0
  0
VERTEX
  5
BD
330
A4
100
AcDbEntity
  8
Graypants_Roest_150h
 62
    36
420
  8339200
370
    -3
100
AcDbVertex
100
AcDb2dVertex
 10
1809.932070541066
 20
-449.4102002296329
 30
0.0
  0
VERTEX
  5
BE
330
A4
100
AcDbEntity
  8
Graypants_Roest_150h
 62
    36
420
  8339200
370
    -3
100
AcDbVertex
100
AcDb2dVertex
 10
1809.899384940091
 20
-449.3739821823712
 30
0.0
  0
VERTEX
  5
BF
330
A4
100
AcDbEntity
  8
Graypants_Roest_150h
 62
    36
420
  8339200
370
    -3
100
AcDbVertex
100
AcDb2dVertex
 10
1809.867954918433
 20
-449.3366693267165
 30
0.0
  0
VERTEX
  5
C0
330
A4
100
AcDbEntity
  8
Graypants_Roest_150h
 62
    36
420
  8339200
370
    -3
100
AcDbVertex
100
AcDb2dVertex
 10
1809.837817122091
 20
-449.2983051677896
 30
0.0
  0
VERTEX
  5
C1
330
A4
100
AcDbEntity
  8
Graypants_Roest_150h
 62
    36
420
  8339200
370
    -3
100
AcDbVertex
100
AcDb2dVertex
 10
1809.809006690386
 20
-449.2589344364835
 30
0.0
  0
VERTEX
  5
C2
330
A4
100
AcDbEntity
  8
Graypants_Roest_150h
 62
    36
420
  8339200
370
    -3
100
AcDbVertex
100
AcDb2dVertex
 10
1809.781557214996
 20
-449.21860303731
 30
0.0
  0
VERTEX
  5
C3
330
A4
100
AcDbEntity
  8
Graypants_Roest_150h
 62
    36
420
  8339200
370
    -3
100
AcDbVertex
100
AcDb2dVertex
 10
1809.755500700778
 20
-449.1773579948763
 30
0.0
  0
VERTEX
  5
C4
330
A4
100
AcDbEntity
  8
Graypants_Roest_150h
 62
    36
420
  8339200
370
    -3
100
AcDbVertex
100
AcDb2dVertex
 10
1809.730867528463
 20
-449.1352473990568
 30
0.0
  0
VERTEX
  5
C5
330
A4
100
AcDbEntity
  8
Graypants_Roest_150h
 62
    36
420
  8339200
370
    -3
100
AcDbVertex
100
AcDb2dVertex
 10
1809.70768641923
 20
-449.0923203489226
 30
0.0
  0
VERTEX
  5
C6
330
A4
100
AcDbEntity
  8
Graypants_Roest_150h
 62
    36
420
  8339200
370
    -3
100
AcDbVertex
100
AcDb2dVertex
 10
1809.685984401212
 20
-449.0486268954939
 30
0.0
  0
VERTEX
  5
C7
330
A4
100
AcDbEntity
  8
Graypants_Roest_150h
 62
    36
420
  8339200
370
    -3
100
AcDbVertex
100
AcDb2dVertex
 10
1809.665786777994
 20
-449.0042179833829
 30
0.0
  0
VERTEX
  5
C8
330
A4
100
AcDbEntity
  8
Graypants_Roest_150h
 62
    36
420
  8339200
370
    -3
100
AcDbVertex
100
AcDb2dVertex
 10
1809.6471170991
 20
-448.9591453913947
 30
0.0
  0
VERTEX
  5
C9
330
A4
100
AcDbEntity
  8
Graypants_Roest_150h
 62
    36
420
  8339200
370
    -3
100
AcDbVertex
100
AcDb2dVertex
 10
1809.629997132541
 20
-448.9134616721552
 30
0.0
  0
VERTEX
  5
CA
330
A4
100
AcDbEntity
  8
Graypants_Roest_150h
 62
    36
420
  8339200
370
    -3
100
AcDbVertex
100
AcDb2dVertex
 10
1809.614446839431
 20
-448.8672200908376
 30
0.0
  0
VERTEX
  5
CB
330
A4
100
AcDbEntity
  8
Graypants_Roest_150h
 62
    36
420
  8339200
370
    -3
100
AcDbVertex
100
AcDb2dVertex
 10
1809.600484350718
 20
-448.8204745630572
 30
0.0
  0
VERTEX
  5
CC
330
A4
100
AcDbEntity
  8
Graypants_Roest_150h
 62
    36
420
  8339200
370
    -3
100
AcDbVertex
100
AcDb2dVertex
 10
1809.588125946038
 20
-448.7732795920084
 30
0.0
  0
VERTEX
  5
CD
330
A4
100
AcDbEntity
  8
Graypants_Roest_150h
 62
    36
420
  8339200
370
    -3
100
AcDbVertex
100
AcDb2dVertex
 10
1809.577386034738
 20
-448.7256902049161
 30
0.0
  0
VERTEX
  5
CE
330
A4
100
AcDbEntity
  8
Graypants_Roest_150h
 62
    36
420
  8339200
370
    -3
100
AcDbVertex
100
AcDb2dVertex
 10
1809.568277139074
 20
-448.677761888877
 30
0.0
  0
VERTEX
  5
CF
330
A4
100
AcDbEntity
  8
Graypants_Roest_150h
 62
    36
420
  8339200
370
    -3
100
AcDbVertex
100
AcDb2dVertex
 10
1809.560809879612
 20
-448.6295505261638
 30
0.0
  0
VERTEX
  5
D0
330
A4
100
AcDbEntity
  8
Graypants_Roest_150h
 62
    36
420
  8339200
370
    -3
100
AcDbVertex
100
AcDb2dVertex
 10
1809.554992962842
 20
-448.5811123290686
 30
0.0
  0
VERTEX
  5
D1
330
A4
100
AcDbEntity
  8
Graypants_Roest_150h
 62
    36
420
  8339200
370
    -3
100
AcDbVertex
100
AcDb2dVertex
 10
1809.550833171028
 20
-448.5325037743625
 30
0.0
  0
VERTEX
  5
D2
330
A4
100
AcDbEntity
  8
Graypants_Roest_150h
 62
    36
420
  8339200
370
    -3
100
AcDbVertex
100
AcDb2dVertex
 10
1809.548335354303
 20
-448.483781537446
 30
0.0
  0
VERTEX
  5
D3
330
A4
100
AcDbEntity
  8
Graypants_Roest_150h
 62
    36
420
  8339200
370
    -3
100
AcDbVertex
100
AcDb2dVertex
 10
1809.547502425007
 20
-448.4350024262678
 30
0.0
  0
VERTEX
  5
D4
330
A4
100
AcDbEntity
  8
Graypants_Roest_150h
 62
    36
420
  8339200
370
    -3
100
AcDbVertex
100
AcDb2dVertex
 10
1809.547502424369
 20
-418.1137524262278
 30
0.0
  0
SEQEND
  5
D5
330
A4
100
AcDbEntity
  8
Graypants_Roest_150h
 62
    36
420
  8339200
370
    -3
  0
LINE
  5
D6
330
1F
100
AcDbEntity
  8
Graypants_Roest_150h
 62
    36
420
  8339200
370
    -3
100
AcDbLine
 10
1887.335002424302
 20
-418.113752424257
 30
0.0
 11
1809.54750242437
 21
-418.1137524262272
 31
0.0
  0
LINE
  5
D7
330
1F
100
AcDbEntity
  8
Graypants_Roest_150h
 62
    36
420
  8339200
370
    -3
100
AcDbLine
 10
76.35874999928376
 20
-449.8637524262313
 30
0.0
 11
-76.35874999924317
 21
-449.8637524223636
 31
0.0
  0
POLYLINE
  5
D8
330
1F
100
AcDbEntity
  8
Graypants_Roest_150h
 62
    36
420
  8339200
370
    -3
100
AcDb2dPolyline
 66
     1
 10
0.0
 20
0.0
 30
0.0
  0
VERTEX
  5
D9
330
D8
100
AcDbEntity
  8
Graypants_Roest_150h
 62
    36
420
  8339200
370
    -3
100
AcDbVertex
100
AcDb2dVertex
 10
77.7875000007574
 20
-418.1137524262608
 30
0.0
  0
VERTEX
  5
DA
330
D8
100
AcDbEntity
  8
Graypants_Roest_150h
 62
    36
420
  8339200
370
    -3
100
AcDbVertex
100
AcDb2dVertex
 10
77.78749999935087
 20
-448.4350024263008
 30
0.0
  0
VERTEX
  5
DB
330
D8
100
AcDbEntity
  8
Graypants_Roest_150h
 62
    36
420
  8339200
370
    -3
100
AcDbVertex
100
AcDb2dVertex
 10
77.78666707005424
 20
-448.4837815374789
 30
0.0
  0
VERTEX
  5
DC
330
D8
100
AcDbEntity
  8
Graypants_Roest_150h
 62
    36
420
  8339200
370
    -3
100
AcDbVertex
100
AcDb2dVertex
 10
77.78416925332725
 20
-448.5325037743954
 30
0.0
  0
VERTEX
  5
DD
330
D8
100
AcDbEntity
  8
Graypants_Roest_150h
 62
    36
420
  8339200
370
    -3
100
AcDbVertex
100
AcDb2dVertex
 10
77.78000946151248
 20
-448.5811123291014
 30
0.0
  0
VERTEX
  5
DE
330
D8
100
AcDbEntity
  8
Graypants_Roest_150h
 62
    36
420
  8339200
370
    -3
100
AcDbVertex
100
AcDb2dVertex
 10
77.7741925447411
 20
-448.6295505261964
 30
0.0
  0
VERTEX
  5
DF
330
D8
100
AcDbEntity
  8
Graypants_Roest_150h
 62
    36
420
  8339200
370
    -3
100
AcDbVertex
100
AcDb2dVertex
 10
77.76672528527786
 20
-448.6777618889095
 30
0.0
  0
VERTEX
  5
E0
330
D8
100
AcDbEntity
  8
Graypants_Roest_150h
 62
    36
420
  8339200
370
    -3
100
AcDbVertex
100
AcDb2dVertex
 10
77.75761638961328
 20
-448.7256902049483
 30
0.0
  0
VERTEX
  5
E1
330
D8
100
AcDbEntity
  8
Graypants_Roest_150h
 62
    36
420
  8339200
370
    -3
100
AcDbVertex
100
AcDb2dVertex
 10
77.74687647831223
 20
-448.7732795920402
 30
0.0
  0
VERTEX
  5
E2
330
D8
100
AcDbEntity
  8
Graypants_Roest_150h
 62
    36
420
  8339200
370
    -3
100
AcDbVertex
100
AcDb2dVertex
 10
77.73451807363087
 20
-448.8204745630888
 30
0.0
  0
VERTEX
  5
E3
330
D8
100
AcDbEntity
  8
Graypants_Roest_150h
 62
    36
420
  8339200
370
    -3
100
AcDbVertex
100
AcDb2dVertex
 10
77.72055558491623
 20
-448.8672200908688
 30
0.0
  0
VERTEX
  5
E4
330
D8
100
AcDbEntity
  8
Graypants_Roest_150h
 62
    36
420
  8339200
370
    -3
100
AcDbVertex
100
AcDb2dVertex
 10
77.70500529180558
 20
-448.913461672186
 30
0.0
  0
VERTEX
  5
E5
330
D8
100
AcDbEntity
  8
Graypants_Roest_150h
 62
    36
420
  8339200
370
    -3
100
AcDbVertex
100
AcDb2dVertex
 10
77.68788532524509
 20
-448.9591453914251
 30
0.0
  0
VERTEX
  5
E6
330
D8
100
AcDbEntity
  8
Graypants_Roest_150h
 62
    36
420
  8339200
370
    -3
100
AcDbVertex
100
AcDb2dVertex
 10
77.66921564634995
 20
-449.0042179834129
 30
0.0
  0
VERTEX
  5
E7
330
D8
100
AcDbEntity
  8
Graypants_Roest_150h
 62
    36
420
  8339200
370
    -3
100
AcDbVertex
100
AcDb2dVertex
 10
77.64901802313064
 20
-449.0486268955233
 30
0.0
  0
VERTEX
  5
E8
330
D8
100
AcDbEntity
  8
Graypants_Roest_150h
 62
    36
420
  8339200
370
    -3
100
AcDbVertex
100
AcDb2dVertex
 10
77.6273160051123
 20
-449.0923203489514
 30
0.0
  0
VERTEX
  5
E9
330
D8
100
AcDbEntity
  8
Graypants_Roest_150h
 62
    36
420
  8339200
370
    -3
100
AcDbVertex
100
AcDb2dVertex
 10
77.60413489587718
 20
-449.135247399085
 30
0.0
  0
VERTEX
  5
EA
330
D8
100
AcDbEntity
  8
Graypants_Roest_150h
 62
    36
420
  8339200
370
    -3
100
AcDbVertex
100
AcDb2dVertex
 10
77.5795017235617
 20
-449.1773579949038
 30
0.0
  0
VERTEX
  5
EB
330
D8
100
AcDbEntity
  8
Graypants_Roest_150h
 62
    36
420
  8339200
370
    -3
100
AcDbVertex
100
AcDb2dVertex
 10
77.5534452093429
 20
-449.218603037337
 30
0.0
  0
VERTEX
  5
EC
330
D8
100
AcDbEntity
  8
Graypants_Roest_150h
 62
    36
420
  8339200
370
    -3
100
AcDbVertex
100
AcDb2dVertex
 10
77.52599573395075
 20
-449.2589344365098
 30
0.0
  0
VERTEX
  5
ED
330
D8
100
AcDbEntity
  8
Graypants_Roest_150h
 62
    36
420
  8339200
370
    -3
100
AcDbVertex
100
AcDb2dVertex
 10
77.49718530224571
 20
-449.2983051678151
 30
0.0
  0
VERTEX
  5
EE
330
D8
100
AcDbEntity
  8
Graypants_Roest_150h
 62
    36
420
  8339200
370
    -3
100
AcDbVertex
100
AcDb2dVertex
 10
77.46704750590239
 20
-449.3366693267413
 30
0.0
  0
VERTEX
  5
EF
330
D8
100
AcDbEntity
  8
Graypants_Roest_150h
 62
    36
420
  8339200
370
    -3
100
AcDbVertex
100
AcDb2dVertex
 10
77.43561748424317
 20
-449.3739821823951
 30
0.0
  0
VERTEX
  5
F0
330
D8
100
AcDbEntity
  8
Graypants_Roest_150h
 62
    36
420
  8339200
370
    -3
100
AcDbVertex
100
AcDb2dVertex
 10
77.40293188326737
 20
-449.410200229656
 30
0.0
  0
VERTEX
  5
F1
330
D8
100
AcDbEntity
  8
Graypants_Roest_150h
 62
    36
420
  8339200
370
    -3
100
AcDbVertex
100
AcDb2dVertex
 10
77.36902881292364
 20
-449.445281239901
 30
0.0
  0
VERTEX
  5
F2
330
D8
100
AcDbEntity
  8
Graypants_Roest_150h
 62
    36
420
  8339200
370
    -3
100
AcDbVertex
100
AcDb2dVertex
 10
77.33394780267543
 20
-449.4791843102415
 30
0.0
  0
VERTEX
  5
F3
330
D8
100
AcDbEntity
  8
Graypants_Roest_150h
 62
    36
420
  8339200
370
    -3
100
AcDbVertex
100
AcDb2dVertex
 10
77.29772975541141
 20
-449.5118699112139
 30
0.0
  0
VERTEX
  5
F4
330
D8
100
AcDbEntity
  8
Graypants_Roest_150h
 62
    36
420
  8339200
370
    -3
100
AcDbVertex
100
AcDb2dVertex
 10
77.26041689975463
 20
-449.5432999328696
 30
0.0
  0
VERTEX
  5
F5
330
D8
100
AcDbEntity
  8
Graypants_Roest_150h
 62
    36
420
  8339200
370
    -3
100
AcDbVertex
100
AcDb2dVertex
 10
77.22205274082563
 20
-449.5734377292093
 30
0.0
  0
VERTEX
  5
F6
330
D8
100
AcDbEntity
  8
Graypants_Roest_150h
 62
    36
420
  8339200
370
    -3
100
AcDbVertex
100
AcDb2dVertex
 10
77.18268200951765
 20
-449.6022481609106
 30
0.0
  0
VERTEX
  5
F7
330
D8
100
AcDbEntity
  8
Graypants_Roest_150h
 62
    36
420
  8339200
370
    -3
100
AcDbVertex
100
AcDb2dVertex
 10
77.1423506103422
 20
-449.6296976362989
 30
0.0
  0
VERTEX
  5
F8
330
D8
100
AcDbEntity
  8
Graypants_Roest_150h
 62
    36
420
  8339200
370
    -3
100
AcDbVertex
100
AcDb2dVertex
 10
77.10110556790666
 20
-449.6557541505139
 30
0.0
  0
VERTEX
  5
F9
330
D8
100
AcDbEntity
  8
Graypants_Roest_150h
 62
    36
420
  8339200
370
    -3
100
AcDbVertex
100
AcDb2dVertex
 10
77.05899497208547
 20
-449.6803873228254
 30
0.0
  0
VERTEX
  5
FA
330
D8
100
AcDbEntity
  8
Graypants_Roest_150h
 62
    36
420
  8339200
370
    -3
100
AcDbVertex
100
AcDb2dVertex
 10
77.01606792194968
 20
-449.7035684320564
 30
0.0
  0
VERTEX
  5
FB
330
D8
100
AcDbEntity
  8
Graypants_Roest_150h
 62
    36
420
  8339200
370
    -3
100
AcDbVertex
100
AcDb2dVertex
 10
76.97237446851953
 20
-449.7252704500707
 30
0.0
  0
VERTEX
  5
FC
330
D8
100
AcDbEntity
  8
Graypants_Roest_150h
 62
    36
420
  8339200
370
    -3
100
AcDbVertex
100
AcDb2dVertex
 10
76.92796555640719
 20
-449.7454680732858
 30
0.0
  0
VERTEX
  5
FD
330
D8
100
AcDbEntity
  8
Graypants_Roest_150h
 62
    36
420
  8339200
370
    -3
100
AcDbVertex
100
AcDb2dVertex
 10
76.88289296441765
 20
-449.7641377521767
 30
0.0
  0
VERTEX
  5
FE
330
D8
100
AcDbEntity
  8
Graypants_Roest_150h
 62
    36
420
  8339200
370
    -3
100
AcDbVertex
100
AcDb2dVertex
 10
76.83720924517701
 20
-449.7812577187329
 30
0.0
  0
VERTEX
  5
FF
330
D8
100
AcDbEntity
  8
Graypants_Roest_150h
 62
    36
420
  8339200
370
    -3
100
AcDbVertex
100
AcDb2dVertex
 10
76.79096766385832
 20
-449.7968080118392
 30
0.0
  0
VERTEX
  5
100
330
D8
100
AcDbEntity
  8
Graypants_Roest_150h
 62
    36
420
  8339200
370
    -3
100
AcDbVertex
100
AcDb2dVertex
 10
76.74422213607696
 20
-449.8107705005494
 30
0.0
  0
VERTEX
  5
101
330
D8
100
AcDbEntity
  8
Graypants_Roest_150h
 62
    36
420
  8339200
370
    -3
100
AcDbVertex
100
AcDb2dVertex
 10
76.69702716502722
 20
-449.8231289052263
 30
0.0
  0
VERTEX
  5
102
330
D8
100
AcDbEntity
  8
Graypants_Roest_150h
 62
    36
420
  8339200
370
    -3
100
AcDbVertex
100
AcDb2dVertex
 10
76.64943777793425
 20
-449.833868816523
 30
0.0
  0
VERTEX
  5
103
330
D8
100
AcDbEntity
  8
Graypants_Roest_150h
 62
    36
420
  8339200
370
    -3
100
AcDbVertex
100
AcDb2dVertex
 10
76.6015094618946
 20
-449.842977712183
 30
0.0
  0
VERTEX
  5
104
330
D8
100
AcDbEntity
  8
Graypants_Roest_150h
 62
    36
420
  8339200
370
    -3
100
AcDbVertex
100
AcDb2dVertex
 10
76.55329809918081
 20
-449.8504449716417
 30
0.0
  0
VERTEX
  5
105
330
D8
100
AcDbEntity
  8
Graypants_Roest_150h
 62
    36
420
  8339200
370
    -3
100
AcDbVertex
100
AcDb2dVertex
 10
76.50485990208523
 20
-449.8562618884085
 30
0.0
  0
VERTEX
  5
106
330
D8
100
AcDbEntity
  8
Graypants_Roest_150h
 62
    36
420
  8339200
370
    -3
100
AcDbVertex
100
AcDb2dVertex
 10
76.45625134737888
 20
-449.8604216802187
 30
0.0
  0
VERTEX
  5
107
330
D8
100
AcDbEntity
  8
Graypants_Roest_150h
 62
    36
420
  8339200
370
    -3
100
AcDbVertex
100
AcDb2dVertex
 10
76.40752911046222
 20
-449.8629194969411
 30
0.0
  0
VERTEX
  5
108
330
D8
100
AcDbEntity
  8
Graypants_Roest_150h
 62
    36
420
  8339200
370
    -3
100
AcDbVertex
100
AcDb2dVertex
 10
76.35874999928399
 20
-449.8637524262331
 30
0.0
  0
SEQEND
  5
109
330
D8
100
AcDbEntity
  8
Graypants_Roest_150h
 62
    36
420
  8339200
370
    -3
  0
LINE
  5
10A
330
1F
100
AcDbEntity
  8
Graypants_Roest_150h
 62
    36
420
  8339200
370
    -3
100
AcDbLine
 10
77.78750000075672
 20
-418.1137524262592
 30
0.0
 11
-77.78749999910826
 21
-418.1137524223188
 31
0.0
  0
POLYLINE
  5
10B
330
1F
100
AcDbEntity
  8
Graypants_Roest_150h
 62
    36
420
  8339200
370
    -3
100
AcDb2dPolyline
 66
     1
 10
0.0
 20
0.0
 30
0.0
  0
VERTEX
  5
10C
330
10B
100
AcDbEntity
  8
Graypants_Roest_150h
 62
    36
420
  8339200
370
    -3
100
AcDbVertex
100
AcDb2dVertex
 10
-76.3587499992442
 20
-449.8637524223636
 30
0.0
  0
VERTEX
  5
10D
330
10B
100
AcDbEntity
  8
Graypants_Roest_150h
 62
    36
420
  8339200
370
    -3
100
AcDbVertex
100
AcDb2dVertex
 10
-76.40752911042239
 20
-449.8629194930691
 30
0.0
  0
VERTEX
  5
10E
330
10B
100
AcDbEntity
  8
Graypants_Roest_150h
 62
    36
420
  8339200
370
    -3
100
AcDbVertex
100
AcDb2dVertex
 10
-76.45625134733893
 20
-449.8604216763442
 30
0.0
  0
VERTEX
  5
10F
330
10B
100
AcDbEntity
  8
Graypants_Roest_150h
 62
    36
420
  8339200
370
    -3
100
AcDbVertex
100
AcDb2dVertex
 10
-76.50485990204507
 20
-449.8562618845316
 30
0.0
  0
VERTEX
  5
110
330
10B
100
AcDbEntity
  8
Graypants_Roest_150h
 62
    36
420
  8339200
370
    -3
100
AcDbVertex
100
AcDb2dVertex
 10
-76.55329809914035
 20
-449.8504449677623
 30
0.0
  0
VERTEX
  5
111
330
10B
100
AcDbEntity
  8
Graypants_Roest_150h
 62
    36
420
  8339200
370
    -3
100
AcDbVertex
100
AcDb2dVertex
 10
-76.60150946185377
 20
-449.8429777083012
 30
0.0
  0
VERTEX
  5
112
330
10B
100
AcDbEntity
  8
Graypants_Roest_150h
 62
    36
420
  8339200
370
    -3
100
AcDbVertex
100
AcDb2dVertex
 10
-76.64943777789297
 20
-449.8338688126387
 30
0.0
  0
VERTEX
  5
113
330
10B
100
AcDbEntity
  8
Graypants_Roest_150h
 62
    36
420
  8339200
370
    -3
100
AcDbVertex
100
AcDb2dVertex
 10
-76.6970271649854
 20
-449.8231289013397
 30
0.0
  0
VERTEX
  5
114
330
10B
100
AcDbEntity
  8
Graypants_Roest_150h
 62
    36
420
  8339200
370
    -3
100
AcDbVertex
100
AcDb2dVertex
 10
-76.74422213603451
 20
-449.8107704966603
 30
0.0
  0
VERTEX
  5
115
330
10B
100
AcDbEntity
  8
Graypants_Roest_150h
 62
    36
420
  8339200
370
    -3
100
AcDbVertex
100
AcDb2dVertex
 10
-76.79096766381518
 20
-449.7968080079477
 30
0.0
  0
VERTEX
  5
116
330
10B
100
AcDbEntity
  8
Graypants_Roest_150h
 62
    36
420
  8339200
370
    -3
100
AcDbVertex
100
AcDb2dVertex
 10
-76.83720924513307
 20
-449.7812577148391
 30
0.0
  0
VERTEX
  5
117
330
10B
100
AcDbEntity
  8
Graypants_Roest_150h
 62
    36
420
  8339200
370
    -3
100
AcDbVertex
100
AcDb2dVertex
 10
-76.88289296437284
 20
-449.7641377482806
 30
0.0
  0
VERTEX
  5
118
330
10B
100
AcDbEntity
  8
Graypants_Roest_150h
 62
    36
420
  8339200
370
    -3
100
AcDbVertex
100
AcDb2dVertex
 10
-76.92796555636143
 20
-449.7454680693875
 30
0.0
  0
VERTEX
  5
119
330
10B
100
AcDbEntity
  8
Graypants_Roest_150h
 62
    36
420
  8339200
370
    -3
100
AcDbVertex
100
AcDb2dVertex
 10
-76.97237446847276
 20
-449.72527044617
 30
0.0
  0
VERTEX
  5
11A
330
10B
100
AcDbEntity
  8
Graypants_Roest_150h
 62
    36
420
  8339200
370
    -3
100
AcDbVertex
100
AcDb2dVertex
 10
-77.01606792190182
 20
-449.7035684281536
 30
0.0
  0
VERTEX
  5
11B
330
10B
100
AcDbEntity
  8
Graypants_Roest_150h
 62
    36
420
  8339200
370
    -3
100
AcDbVertex
100
AcDb2dVertex
 10
-77.05899497203644
 20
-449.6803873189203
 30
0.0
  0
VERTEX
  5
11C
330
10B
100
AcDbEntity
  8
Graypants_Roest_150h
 62
    36
420
  8339200
370
    -3
100
AcDbVertex
100
AcDb2dVertex
 10
-77.10110556785637
 20
-449.6557541466067
 30
0.0
  0
VERTEX
  5
11D
330
10B
100
AcDbEntity
  8
Graypants_Roest_150h
 62
    36
420
  8339200
370
    -3
100
AcDbVertex
100
AcDb2dVertex
 10
-77.1423506102906
 20
-449.6296976323897
 30
0.0
  0
VERTEX
  5
11E
330
10B
100
AcDbEntity
  8
Graypants_Roest_150h
 62
    36
420
  8339200
370
    -3
100
AcDbVertex
100
AcDb2dVertex
 10
-77.18268200946466
 20
-449.6022481569993
 30
0.0
  0
VERTEX
  5
11F
330
10B
100
AcDbEntity
  8
Graypants_Roest_150h
 62
    36
420
  8339200
370
    -3
100
AcDbVertex
100
AcDb2dVertex
 10
-77.22205274077119
 20
-449.5734377252959
 30
0.0
  0
VERTEX
  5
120
330
10B
100
AcDbEntity
  8
Graypants_Roest_150h
 62
    36
420
  8339200
370
    -3
100
AcDbVertex
100
AcDb2dVertex
 10
-77.26041689969865
 20
-449.5432999289544
 30
0.0
  0
VERTEX
  5
121
330
10B
100
AcDbEntity
  8
Graypants_Roest_150h
 62
    36
420
  8339200
370
    -3
100
AcDbVertex
100
AcDb2dVertex
 10
-77.29772975535387
 20
-449.5118699072967
 30
0.0
  0
VERTEX
  5
122
330
10B
100
AcDbEntity
  8
Graypants_Roest_150h
 62
    36
420
  8339200
370
    -3
100
AcDbVertex
100
AcDb2dVertex
 10
-77.33394780261621
 20
-449.4791843063225
 30
0.0
  0
VERTEX
  5
123
330
10B
100
AcDbEntity
  8
Graypants_Roest_150h
 62
    36
420
  8339200
370
    -3
100
AcDbVertex
100
AcDb2dVertex
 10
-77.36902881286271
 20
-449.4452812359803
 30
0.0
  0
VERTEX
  5
124
330
10B
100
AcDbEntity
  8
Graypants_Roest_150h
 62
    36
420
  8339200
370
    -3
100
AcDbVertex
100
AcDb2dVertex
 10
-77.40293188320466
 20
-449.4102002257335
 30
0.0
  0
VERTEX
  5
125
330
10B
100
AcDbEntity
  8
Graypants_Roest_150h
 62
    36
420
  8339200
370
    -3
100
AcDbVertex
100
AcDb2dVertex
 10
-77.43561748417864
 20
-449.373982178471
 30
0.0
  0
VERTEX
  5
126
330
10B
100
AcDbEntity
  8
Graypants_Roest_150h
 62
    36
420
  8339200
370
    -3
100
AcDbVertex
100
AcDb2dVertex
 10
-77.46704750583596
 20
-449.3366693228156
 30
0.0
  0
VERTEX
  5
127
330
10B
100
AcDbEntity
  8
Graypants_Roest_150h
 62
    36
420
  8339200
370
    -3
100
AcDbVertex
100
AcDb2dVertex
 10
-77.49718530217736
 20
-449.2983051638879
 30
0.0
  0
VERTEX
  5
128
330
10B
100
AcDbEntity
  8
Graypants_Roest_150h
 62
    36
420
  8339200
370
    -3
100
AcDbVertex
100
AcDb2dVertex
 10
-77.5259957338804
 20
-449.2589344325812
 30
0.0
  0
VERTEX
  5
129
330
10B
100
AcDbEntity
  8
Graypants_Roest_150h
 62
    36
420
  8339200
370
    -3
100
AcDbVertex
100
AcDb2dVertex
 10
-77.5534452092705
 20
-449.2186030334069
 30
0.0
  0
VERTEX
  5
12A
330
10B
100
AcDbEntity
  8
Graypants_Roest_150h
 62
    36
420
  8339200
370
    -3
100
AcDbVertex
100
AcDb2dVertex
 10
-77.57950172348724
 20
-449.1773579909724
 30
0.0
  0
VERTEX
  5
12B
330
10B
100
AcDbEntity
  8
Graypants_Roest_150h
 62
    36
420
  8339200
370
    -3
100
AcDbVertex
100
AcDb2dVertex
 10
-77.60413489580058
 20
-449.1352473951524
 30
0.0
  0
VERTEX
  5
12C
330
10B
100
AcDbEntity
  8
Graypants_Roest_150h
 62
    36
420
  8339200
370
    -3
100
AcDbVertex
100
AcDb2dVertex
 10
-77.62731600503353
 20
-449.0923203450176
 30
0.0
  0
VERTEX
  5
12D
330
10B
100
AcDbEntity
  8
Graypants_Roest_150h
 62
    36
420
  8339200
370
    -3
100
AcDbVertex
100
AcDb2dVertex
 10
-77.64901802304965
 20
-449.0486268915884
 30
0.0
  0
VERTEX
  5
12E
330
10B
100
AcDbEntity
  8
Graypants_Roest_150h
 62
    36
420
  8339200
370
    -3
100
AcDbVertex
100
AcDb2dVertex
 10
-77.66921564626675
 20
-449.0042179794769
 30
0.0
  0
VERTEX
  5
12F
330
10B
100
AcDbEntity
  8
Graypants_Roest_150h
 62
    36
420
  8339200
370
    -3
100
AcDbVertex
100
AcDb2dVertex
 10
-77.68788532515961
 20
-448.9591453874882
 30
0.0
  0
VERTEX
  5
130
330
10B
100
AcDbEntity
  8
Graypants_Roest_150h
 62
    36
420
  8339200
370
    -3
100
AcDbVertex
100
AcDb2dVertex
 10
-77.70500529171777
 20
-448.9134616682483
 30
0.0
  0
VERTEX
  5
131
330
10B
100
AcDbEntity
  8
Graypants_Roest_150h
 62
    36
420
  8339200
370
    -3
100
AcDbVertex
100
AcDb2dVertex
 10
-77.72055558482609
 20
-448.8672200869303
 30
0.0
  0
VERTEX
  5
132
330
10B
100
AcDbEntity
  8
Graypants_Roest_150h
 62
    36
420
  8339200
370
    -3
100
AcDbVertex
100
AcDb2dVertex
 10
-77.73451807353835
 20
-448.8204745591495
 30
0.0
  0
VERTEX
  5
133
330
10B
100
AcDbEntity
  8
Graypants_Roest_150h
 62
    36
420
  8339200
370
    -3
100
AcDbVertex
100
AcDb2dVertex
 10
-77.74687647821735
 20
-448.7732795881003
 30
0.0
  0
VERTEX
  5
134
330
10B
100
AcDbEntity
  8
Graypants_Roest_150h
 62
    36
420
  8339200
370
    -3
100
AcDbVertex
100
AcDb2dVertex
 10
-77.75761638951599
 20
-448.7256902010078
 30
0.0
  0
VERTEX
  5
135
330
10B
100
AcDbEntity
  8
Graypants_Roest_150h
 62
    36
420
  8339200
370
    -3
100
AcDbVertex
100
AcDb2dVertex
 10
-77.76672528517815
 20
-448.6777618849686
 30
0.0
  0
VERTEX
  5
136
330
10B
100
AcDbEntity
  8
Graypants_Roest_150h
 62
    36
420
  8339200
370
    -3
100
AcDbVertex
100
AcDb2dVertex
 10
-77.77419254463895
 20
-448.629550522255
 30
0.0
  0
VERTEX
  5
137
330
10B
100
AcDbEntity
  8
Graypants_Roest_150h
 62
    36
420
  8339200
370
    -3
100
AcDbVertex
100
AcDb2dVertex
 10
-77.78000946140789
 20
-448.5811123251598
 30
0.0
  0
VERTEX
  5
138
330
10B
100
AcDbEntity
  8
Graypants_Roest_150h
 62
    36
420
  8339200
370
    -3
100
AcDbVertex
100
AcDb2dVertex
 10
-77.7841692532202
 20
-448.5325037704536
 30
0.0
  0
VERTEX
  5
139
330
10B
100
AcDbEntity
  8
Graypants_Roest_150h
 62
    36
420
  8339200
370
    -3
100
AcDbVertex
100
AcDb2dVertex
 10
-77.78666706994473
 20
-448.483781533537
 30
0.0
  0
VERTEX
  5
13A
330
10B
100
AcDbEntity
  8
Graypants_Roest_150h
 62
    36
420
  8339200
370
    -3
100
AcDbVertex
100
AcDb2dVertex
 10
-77.7874999992389
 20
-448.4350024223588
 30
0.0
  0
VERTEX
  5
13B
330
10B
100
AcDbEntity
  8
Graypants_Roest_150h
 62
    36
420
  8339200
370
    -3
100
AcDbVertex
100
AcDb2dVertex
 10
-77.78749999910872
 20
-418.1137524223188
 30
0.0
  0
SEQEND
  5
13C
330
10B
100
AcDbEntity
  8
Graypants_Roest_150h
 62
    36
420
  8339200
370
    -3
  0
CIRCLE
  5
13E
330
1F
100
AcDbEntity
  8
Graypants_Roest_150h
  6
Hidden
 62
    36
420
  8339200
370
    -3
100
AcDbCircle
 10
0.0000000000002336
 20
0.000000000000113
 30
0.0
 40
77.78749999993249
210
0.0
220
0.0
230
-1.0
  0
LINE
  5
13F
330
1F
100
AcDbEntity
  8
Graypants_Roest_150h
370
    -3
100
AcDbLine
 10
1886.835002424297
 20
-1058.851310335062
 30
0.0
 11
1886.835002424253
 21
-450.1137524242679
 31
0.0
  0
LINE
  5
140
330
1F
100
AcDbEntity
  8
Graypants_Roest_150h
370
    -3
100
AcDbLine
 10
1887.835002424252
 20
-450.1137524242677
 30
0.0
 11
1887.835002424296
 21
-1058.851310335062
 31
0.0
  0
LINE
  5
141
330
1F
100
AcDbEntity
  8
Graypants_Roest_150h
370
    -3
100
AcDbLine
 10
1887.335002424252
 20
-418.1137524242674
 30
0.0
 11
1879.335002424252
 21
-418.1137524242674
 31
0.0
  0
LINE
  5
142
330
1F
100
AcDbEntity
  8
Graypants_Roest_150h
370
    -3
100
AcDbLine
 10
1881.335002424252
 20
-444.1137524242674
 30
0.0
 11
1881.335002424252
 21
-420.1137524242674
 31
0.0
  0
LINE
  5
143
330
1F
100
AcDbEntity
  8
Graypants_Roest_150h
370
    -3
100
AcDbLine
 10
1879.335002424252
 20
-420.1137524242672
 30
0.0
 11
1879.335002424252
 21
-418.1137524242674
 31
0.0
  0
LINE
  5
144
330
1F
100
AcDbEntity
  8
Graypants_Roest_150h
370
    -3
100
AcDbLine
 10
1895.335002424252
 20
-418.1137524242674
 30
0.0
 11
1895.335002424252
 21
-420.1137524242672
 31
0.0
  0
LINE
  5
145
330
1F
100
AcDbEntity
  8
Graypants_Roest_150h
370
    -3
100
AcDbLine
 10
1895.335002424252
 20
-418.1137524242674
 30
0.0
 11
1887.335002424252
 21
-418.1137524242674
 31
0.0
  0
LINE
  5
146
330
1F
100
AcDbEntity
  8
Graypants_Roest_150h
370
    -3
100
AcDbLine
 10
1893.335002424252
 20
-420.1137524242674
 30
0.0
 11
1893.335002424252
 21
-444.1137524242677
 31
0.0
  0
LINE
  5
147
330
1F
100
AcDbEntity
  8
Graypants_Roest_150h
370
    -3
100
AcDbLine
 10
1886.335002424252
 20
-450.1137524242677
 30
0.0
 11
1886.335002424252
 21
-446.1137524242677
 31
0.0
  0
LINE
  5
148
330
1F
100
AcDbEntity
  8
Graypants_Roest_150h
370
    -3
100
AcDbLine
 10
1888.335002424252
 20
-446.1137524242677
 30
0.0
 11
1888.335002424252
 21
-450.1137524242677
 31
0.0
  0
LINE
  5
149
330
1F
100
AcDbEntity
  8
Graypants_Roest_150h
370
    -3
100
AcDbLine
 10
1881.335002424252
 20
-446.1137524242677
 30
0.0
 11
1881.335002424252
 21
-444.1137524242677
 31
0.0
  0
LINE
  5
14A
330
1F
100
AcDbEntity
  8
Graypants_Roest_150h
370
    -3
100
AcDbLine
 10
1893.335002424252
 20
-444.1137524242677
 30
0.0
 11
1893.335002424252
 21
-446.1137524242677
 31
0.0
  0
LINE
  5
14B
330
1F
100
AcDbEntity
  8
Graypants_Roest_150h
370
    -3
100
AcDbLine
 10
1887.335002424252
 20
-420.1137524242674
 30
0.0
 11
1895.335002424252
 21
-420.1137524242674
 31
0.0
  0
LINE
  5
14C
330
1F
100
AcDbEntity
  8
Graypants_Roest_150h
370
    -3
100
AcDbLine
 10
1886.335002424252
 20
-450.1137524242677
 30
0.0
 11
1888.335002424252
 21
-450.1137524242677
 31
0.0
  0
LINE
  5
14D
330
1F
100
AcDbEntity
  8
Graypants_Roest_150h
370
    -3
100
AcDbLine
 10
1881.335002424252
 20
-446.1137524242677
 30
0.0
 11
1893.335002424252
 21
-446.1137524242677
 31
0.0
  0
LINE
  5
14E
330
1F
100
AcDbEntity
  8
Graypants_Roest_150h
370
    -3
100
AcDbLine
 10
1879.335002424252
 20
-420.1137524242674
 30
0.0
 11
1887.335002424252
 21
-420.1137524242674
 31
0.0
  0
LINE
  5
14F
330
1F
100
AcDbEntity
  8
Graypants_Roest_150h
370
    -3
100
AcDbLine
 10
1453.500000000004
 20
-1058.859559085214
 30
0.0
 11
1453.499999999753
 21
-450.1137524262608
 31
0.0
  0
LINE
  5
150
330
1F
100
AcDbEntity
  8
Graypants_Roest_150h
370
    -3
100
AcDbLine
 10
1454.499999999754
 20
-450.1137524262609
 30
0.0
 11
1454.500000000004
 21
-1058.859567615069
 31
0.0
  0
LINE
  5
151
330
1F
100
AcDbEntity
  8
Graypants_Roest_150h
370
    -3
100
AcDbLine
 10
1462.000000000005
 20
-418.1137524262608
 30
0.0
 11
1446.000000000005
 21
-418.1137524262608
 31
0.0
  0
LINE
  5
152
330
1F
100
AcDbEntity
  8
Graypants_Roest_150h
370
    -3
100
AcDbLine
 10
1448.000000000005
 20
-444.1137524262608
 30
0.0
 11
1448.000000000005
 21
-420.1137524262608
 31
0.0
  0
LINE
  5
153
330
1F
100
AcDbEntity
  8
Graypants_Roest_150h
370
    -3
100
AcDbLine
 10
1460.000000000005
 20
-420.1137524262608
 30
0.0
 11
1460.000000000005
 21
-444.1137524262608
 31
0.0
  0
LINE
  5
154
330
1F
100
AcDbEntity
  8
Graypants_Roest_150h
370
    -3
100
AcDbLine
 10
1446.000000000005
 20
-420.1137524262608
 30
0.0
 11
1446.000000000005
 21
-418.1137524262608
 31
0.0
  0
LINE
  5
155
330
1F
100
AcDbEntity
  8
Graypants_Roest_150h
370
    -3
100
AcDbLine
 10
1462.000000000005
 20
-418.1137524262608
 30
0.0
 11
1462.000000000005
 21
-420.1137524262608
 31
0.0
  0
LINE
  5
156
330
1F
100
AcDbEntity
  8
Graypants_Roest_150h
370
    -3
100
AcDbLine
 10
1454.999999999751
 20
-446.1137524262608
 30
0.0
 11
1454.999999999751
 21
-450.1137524262608
 31
0.0
  0
LINE
  5
157
330
1F
100
AcDbEntity
  8
Graypants_Roest_150h
370
    -3
100
AcDbLine
 10
1459.99999999975
 20
-444.113752426261
 30
0.0
 11
1459.999999999751
 21
-446.1137524262608
 31
0.0
  0
LINE
  5
158
330
1F
100
AcDbEntity
  8
Graypants_Roest_150h
370
    -3
100
AcDbLine
 10
1447.999999999751
 20
-446.113752426261
 30
0.0
 11
1447.999999999751
 21
-444.1137524262608
 31
0.0
  0
LINE
  5
159
330
1F
100
AcDbEntity
  8
Graypants_Roest_150h
370
    -3
100
AcDbLine
 10
1452.999999999751
 20
-450.1137524262608
 30
0.0
 11
1452.999999999751
 21
-446.1137524262608
 31
0.0
  0
LINE
  5
15A
330
1F
100
AcDbEntity
  8
Graypants_Roest_150h
370
    -3
100
AcDbLine
 10
1446.000000000005
 20
-420.1137524262608
 30
0.0
 11
1462.000000000005
 21
-420.1137524262608
 31
0.0
  0
LINE
  5
15B
330
1F
100
AcDbEntity
  8
Graypants_Roest_150h
370
    -3
100
AcDbLine
 10
1453.999999999751
 20
-450.1137524262608
 30
0.0
 11
1454.999999999751
 21
-450.1137524262608
 31
0.0
  0
LINE
  5
15C
330
1F
100
AcDbEntity
  8
Graypants_Roest_150h
370
    -3
100
AcDbLine
 10
1453.999999999751
 20
-446.1137524262608
 30
0.0
 11
1459.999999999751
 21
-446.1137524262608
 31
0.0
  0
LINE
  5
15D
330
1F
100
AcDbEntity
  8
Graypants_Roest_150h
370
    -3
100
AcDbLine
 10
1453.999999999751
 20
-450.1137524262608
 30
0.0
 11
1452.999999999751
 21
-450.1137524262608
 31
0.0
  0
LINE
  5
15E
330
1F
100
AcDbEntity
  8
Graypants_Roest_150h
370
    -3
100
AcDbLine
 10
1447.999999999751
 20
-446.1137524262608
 30
0.0
 11
1453.999999999751
 21
-446.1137524262608
 31
0.0
  0
LINE
  5
15F
330
1F
100
AcDbEntity
  8
Graypants_Roest_150h
370
    -3
100
AcDbLine
 10
-22.99999999999557
 20
-1088.997164112987
 30
0.0
 11
-22.99999999999557
 21
-1119.147164112987
 31
0.0
  0
LINE
  5
160
330
1F
100
AcDbEntity
  8
Graypants_Roest_150h
370
    -3
100
AcDbLine
 10
1477.000000000005
 20
-1088.997164112987
 30
0.0
 11
1477.000000000005
 21
-1058.847164112987
 31
0.0
  0
LINE
  5
161
330
1F
100
AcDbEntity
  8
Graypants_Roest_150h
370
    -3
100
AcDbLine
 10
728.5000000000044
 20
-1111.558691100317
 30
0.0
 11
741.2500000000044
 21
-1111.558691100324
 31
0.0
  0
LINE
  5
162
330
1F
100
AcDbEntity
  8
Graypants_Roest_150h
370
    -3
100
AcDbLine
 10
741.2500000000044
 20
-1111.558691100324
 30
0.0
 11
741.2500000000044
 21
-1119.147164112989
 31
0.0
  0
LINE
  5
163
330
1F
100
AcDbEntity
  8
Graypants_Roest_150h
370
    -3
100
AcDbLine
 10
744.2500000000044
 20
-1111.558691100316
 30
0.0
 11
757.0000000000044
 21
-1111.558691100324
 31
0.0
  0
LINE
  5
164
330
1F
100
AcDbEntity
  8
Graypants_Roest_150h
370
    -3
100
AcDbLine
 10
757.0000000000044
 20
-1111.558691100324
 30
0.0
 11
757.0000000000044
 21
-1119.147164112989
 31
0.0
  0
LINE
  5
165
330
1F
100
AcDbEntity
  8
Graypants_Roest_150h
370
    -3
100
AcDbLine
 10
760.0000000000044
 20
-1111.558691100316
 30
0.0
 11
772.7500000000044
 21
-1111.558691100324
 31
0.0
  0
LINE
  5
166
330
1F
100
AcDbEntity
  8
Graypants_Roest_150h
370
    -3
100
AcDbLine
 10
772.7500000000044
 20
-1111.558691100324
 30
0.0
 11
772.7500000000044
 21
-1119.147164112989
 31
0.0
  0
LINE
  5
167
330
1F
100
AcDbEntity
  8
Graypants_Roest_150h
370
    -3
100
AcDbLine
 10
775.7500000000044
 20
-1111.558691100316
 30
0.0
 11
788.5000000000044
 21
-1111.558691100324
 31
0.0
  0
LINE
  5
168
330
1F
100
AcDbEntity
  8
Graypants_Roest_150h
370
    -3
100
AcDbLine
 10
788.5000000000044
 20
-1111.558691100324
 30
0.0
 11
788.5000000000044
 21
-1119.147164112989
 31
0.0
  0
LINE
  5
169
330
1F
100
AcDbEntity
  8
Graypants_Roest_150h
370
    -3
100
AcDbLine
 10
791.5000000000044
 20
-1111.558691100316
 30
0.0
 11
804.2500000000044
 21
-1111.558691100324
 31
0.0
  0
LINE
  5
16A
330
1F
100
AcDbEntity
  8
Graypants_Roest_150h
370
    -3
100
AcDbLine
 10
804.2500000000044
 20
-1111.558691100324
 30
0.0
 11
804.2500000000044
 21
-1119.147164112989
 31
0.0
  0
LINE
  5
16B
330
1F
100
AcDbEntity
  8
Graypants_Roest_150h
370
    -3
100
AcDbLine
 10
807.2500000000044
 20
-1111.558691100316
 30
0.0
 11
820.0000000000044
 21
-1111.558691100324
 31
0.0
  0
LINE
  5
16C
330
1F
100
AcDbEntity
  8
Graypants_Roest_150h
370
    -3
100
AcDbLine
 10
820.0000000000044
 20
-1111.558691100324
 30
0.0
 11
820.0000000000044
 21
-1119.147164112989
 31
0.0
  0
LINE
  5
16D
330
1F
100
AcDbEntity
  8
Graypants_Roest_150h
370
    -3
100
AcDbLine
 10
823.0000000000044
 20
-1111.558691100316
 30
0.0
 11
835.7500000000044
 21
-1111.558691100324
 31
0.0
  0
LINE
  5
16E
330
1F
100
AcDbEntity
  8
Graypants_Roest_150h
370
    -3
100
AcDbLine
 10
835.7500000000044
 20
-1111.558691100324
 30
0.0
 11
835.7500000000044
 21
-1119.147164112989
 31
0.0
  0
LINE
  5
16F
330
1F
100
AcDbEntity
  8
Graypants_Roest_150h
370
    -3
100
AcDbLine
 10
838.7500000000044
 20
-1111.558691100316
 30
0.0
 11
851.5000000000044
 21
-1111.558691100324
 31
0.0
  0
LINE
  5
170
330
1F
100
AcDbEntity
  8
Graypants_Roest_150h
370
    -3
100
AcDbLine
 10
851.5000000000044
 20
-1111.558691100324
 30
0.0
 11
851.5000000000044
 21
-1119.147164112989
 31
0.0
  0
LINE
  5
171
330
1F
100
AcDbEntity
  8
Graypants_Roest_150h
370
    -3
100
AcDbLine
 10
854.5000000000044
 20
-1111.558691100316
 30
0.0
 11
867.2500000000044
 21
-1111.558691100324
 31
0.0
  0
LINE
  5
172
330
1F
100
AcDbEntity
  8
Graypants_Roest_150h
370
    -3
100
AcDbLine
 10
867.2500000000044
 20
-1111.558691100324
 30
0.0
 11
867.2500000000044
 21
-1119.147164112989
 31
0.0
  0
LINE
  5
173
330
1F
100
AcDbEntity
  8
Graypants_Roest_150h
370
    -3
100
AcDbLine
 10
870.2500000000044
 20
-1111.558691100316
 30
0.0
 11
883.0000000000044
 21
-1111.558691100324
 31
0.0
  0
LINE
  5
174
330
1F
100
AcDbEntity
  8
Graypants_Roest_150h
370
    -3
100
AcDbLine
 10
883.0000000000044
 20
-1111.558691100324
 30
0.0
 11
883.0000000000044
 21
-1119.147164112989
 31
0.0
  0
LINE
  5
175
330
1F
100
AcDbEntity
  8
Graypants_Roest_150h
370
    -3
100
AcDbLine
 10
886.0000000000044
 20
-1111.558691100315
 30
0.0
 11
898.7500000000044
 21
-1111.558691100324
 31
0.0
  0
LINE
  5
176
330
1F
100
AcDbEntity
  8
Graypants_Roest_150h
370
    -3
100
AcDbLine
 10
898.7500000000044
 20
-1111.558691100324
 30
0.0
 11
898.7500000000044
 21
-1119.147164112989
 31
0.0
  0
LINE
  5
177
330
1F
100
AcDbEntity
  8
Graypants_Roest_150h
370
    -3
100
AcDbLine
 10
901.7500000000044
 20
-1111.558691100315
 30
0.0
 11
914.5000000000044
 21
-1111.558691100324
 31
0.0
  0
LINE
  5
178
330
1F
100
AcDbEntity
  8
Graypants_Roest_150h
370
    -3
100
AcDbLine
 10
914.5000000000044
 20
-1111.558691100324
 30
0.0
 11
914.5000000000044
 21
-1119.147164112989
 31
0.0
  0
LINE
  5
179
330
1F
100
AcDbEntity
  8
Graypants_Roest_150h
370
    -3
100
AcDbLine
 10
917.5000000000044
 20
-1111.558691100315
 30
0.0
 11
930.2500000000044
 21
-1111.558691100324
 31
0.0
  0
LINE
  5
17A
330
1F
100
AcDbEntity
  8
Graypants_Roest_150h
370
    -3
100
AcDbLine
 10
930.2500000000044
 20
-1111.558691100324
 30
0.0
 11
930.2500000000044
 21
-1119.147164112989
 31
0.0
  0
LINE
  5
17B
330
1F
100
AcDbEntity
  8
Graypants_Roest_150h
370
    -3
100
AcDbLine
 10
933.2500000000044
 20
-1111.558691100315
 30
0.0
 11
946.0000000000044
 21
-1111.558691100324
 31
0.0
  0
LINE
  5
17C
330
1F
100
AcDbEntity
  8
Graypants_Roest_150h
370
    -3
100
AcDbLine
 10
946.0000000000044
 20
-1111.558691100324
 30
0.0
 11
946.0000000000044
 21
-1119.147164112989
 31
0.0
  0
LINE
  5
17D
330
1F
100
AcDbEntity
  8
Graypants_Roest_150h
370
    -3
100
AcDbLine
 10
949.0000000000044
 20
-1111.558691100315
 30
0.0
 11
961.7500000000044
 21
-1111.558691100324
 31
0.0
  0
LINE
  5
17E
330
1F
100
AcDbEntity
  8
Graypants_Roest_150h
370
    -3
100
AcDbLine
 10
961.7500000000044
 20
-1111.558691100324
 30
0.0
 11
961.7500000000044
 21
-1119.147164112989
 31
0.0
  0
LINE
  5
17F
330
1F
100
AcDbEntity
  8
Graypants_Roest_150h
370
    -3
100
AcDbLine
 10
964.7500000000044
 20
-1111.558691100315
 30
0.0
 11
977.5000000000044
 21
-1111.558691100324
 31
0.0
  0
LINE
  5
180
330
1F
100
AcDbEntity
  8
Graypants_Roest_150h
370
    -3
100
AcDbLine
 10
977.5000000000044
 20
-1111.558691100324
 30
0.0
 11
977.5000000000044
 21
-1119.147164112989
 31
0.0
  0
LINE
  5
181
330
1F
100
AcDbEntity
  8
Graypants_Roest_150h
370
    -3
100
AcDbLine
 10
980.5000000000044
 20
-1111.558691100315
 30
0.0
 11
993.2500000000044
 21
-1111.558691100324
 31
0.0
  0
LINE
  5
182
330
1F
100
AcDbEntity
  8
Graypants_Roest_150h
370
    -3
100
AcDbLine
 10
993.2500000000044
 20
-1111.558691100324
 30
0.0
 11
993.2500000000044
 21
-1119.147164112989
 31
0.0
  0
LINE
  5
183
330
1F
100
AcDbEntity
  8
Graypants_Roest_150h
370
    -3
100
AcDbLine
 10
996.2500000000044
 20
-1111.558691100315
 30
0.0
 11
1009.000000000004
 21
-1111.558691100324
 31
0.0
  0
LINE
  5
184
330
1F
100
AcDbEntity
  8
Graypants_Roest_150h
370
    -3
100
AcDbLine
 10
1009.000000000004
 20
-1111.558691100324
 30
0.0
 11
1009.000000000004
 21
-1119.147164112989
 31
0.0
  0
LINE
  5
185
330
1F
100
AcDbEntity
  8
Graypants_Roest_150h
370
    -3
100
AcDbLine
 10
1012.000000000004
 20
-1111.558691100315
 30
0.0
 11
1024.750000000005
 21
-1111.558691100324
 31
0.0
  0
LINE
  5
186
330
1F
100
AcDbEntity
  8
Graypants_Roest_150h
370
    -3
100
AcDbLine
 10
1024.750000000005
 20
-1111.558691100324
 30
0.0
 11
1024.750000000005
 21
-1119.147164112989
 31
0.0
  0
LINE
  5
187
330
1F
100
AcDbEntity
  8
Graypants_Roest_150h
370
    -3
100
AcDbLine
 10
1027.750000000005
 20
-1111.558691100315
 30
0.0
 11
1040.500000000005
 21
-1111.558691100324
 31
0.0
  0
LINE
  5
188
330
1F
100
AcDbEntity
  8
Graypants_Roest_150h
370
    -3
100
AcDbLine
 10
1040.500000000005
 20
-1111.558691100324
 30
0.0
 11
1040.500000000005
 21
-1119.147164112989
 31
0.0
  0
LINE
  5
189
330
1F
100
AcDbEntity
  8
Graypants_Roest_150h
370
    -3
100
AcDbLine
 10
1043.500000000005
 20
-1111.558691100314
 30
0.0
 11
1056.250000000005
 21
-1111.558691100324
 31
0.0
  0
LINE
  5
18A
330
1F
100
AcDbEntity
  8
Graypants_Roest_150h
370
    -3
100
AcDbLine
 10
1056.250000000005
 20
-1111.558691100324
 30
0.0
 11
1056.250000000005
 21
-1119.147164112989
 31
0.0
  0
LINE
  5
18B
330
1F
100
AcDbEntity
  8
Graypants_Roest_150h
370
    -3
100
AcDbLine
 10
1059.250000000005
 20
-1111.558691100314
 30
0.0
 11
1072.000000000005
 21
-1111.558691100324
 31
0.0
  0
LINE
  5
18C
330
1F
100
AcDbEntity
  8
Graypants_Roest_150h
370
    -3
100
AcDbLine
 10
1072.000000000005
 20
-1111.558691100324
 30
0.0
 11
1072.000000000005
 21
-1119.147164112989
 31
0.0
  0
LINE
  5
18D
330
1F
100
AcDbEntity
  8
Graypants_Roest_150h
370
    -3
100
AcDbLine
 10
1075.000000000005
 20
-1111.558691100314
 30
0.0
 11
1087.750000000005
 21
-1111.558691100324
 31
0.0
  0
LINE
  5
18E
330
1F
100
AcDbEntity
  8
Graypants_Roest_150h
370
    -3
100
AcDbLine
 10
1087.750000000005
 20
-1111.558691100324
 30
0.0
 11
1087.750000000005
 21
-1119.147164112989
 31
0.0
  0
LINE
  5
18F
330
1F
100
AcDbEntity
  8
Graypants_Roest_150h
370
    -3
100
AcDbLine
 10
1090.750000000004
 20
-1111.558691100314
 30
0.0
 11
1103.500000000005
 21
-1111.558691100325
 31
0.0
  0
LINE
  5
190
330
1F
100
AcDbEntity
  8
Graypants_Roest_150h
370
    -3
100
AcDbLine
 10
1103.500000000005
 20
-1111.558691100325
 30
0.0
 11
1103.500000000005
 21
-1119.147164112989
 31
0.0
  0
LINE
  5
191
330
1F
100
AcDbEntity
  8
Graypants_Roest_150h
370
    -3
100
AcDbLine
 10
1106.500000000005
 20
-1111.558691100314
 30
0.0
 11
1119.250000000005
 21
-1111.558691100325
 31
0.0
  0
LINE
  5
192
330
1F
100
AcDbEntity
  8
Graypants_Roest_150h
370
    -3
100
AcDbLine
 10
1119.250000000005
 20
-1111.558691100325
 30
0.0
 11
1119.250000000005
 21
-1119.147164112989
 31
0.0
  0
LINE
  5
193
330
1F
100
AcDbEntity
  8
Graypants_Roest_150h
370
    -3
100
AcDbLine
 10
1122.250000000005
 20
-1111.558691100314
 30
0.0
 11
1135.000000000005
 21
-1111.558691100325
 31
0.0
  0
LINE
  5
194
330
1F
100
AcDbEntity
  8
Graypants_Roest_150h
370
    -3
100
AcDbLine
 10
1135.000000000005
 20
-1111.558691100325
 30
0.0
 11
1135.000000000005
 21
-1119.147164112989
 31
0.0
  0
LINE
  5
195
330
1F
100
AcDbEntity
  8
Graypants_Roest_150h
370
    -3
100
AcDbLine
 10
1138.000000000005
 20
-1111.558691100314
 30
0.0
 11
1150.750000000005
 21
-1111.558691100325
 31
0.0
  0
LINE
  5
196
330
1F
100
AcDbEntity
  8
Graypants_Roest_150h
370
    -3
100
AcDbLine
 10
1150.750000000005
 20
-1111.558691100325
 30
0.0
 11
1150.750000000005
 21
-1119.147164112989
 31
0.0
  0
LINE
  5
197
330
1F
100
AcDbEntity
  8
Graypants_Roest_150h
370
    -3
100
AcDbLine
 10
1153.750000000005
 20
-1111.558691100314
 30
0.0
 11
1166.500000000005
 21
-1111.558691100325
 31
0.0
  0
LINE
  5
198
330
1F
100
AcDbEntity
  8
Graypants_Roest_150h
370
    -3
100
AcDbLine
 10
1166.500000000005
 20
-1111.558691100325
 30
0.0
 11
1166.500000000005
 21
-1119.147164112989
 31
0.0
  0
LINE
  5
199
330
1F
100
AcDbEntity
  8
Graypants_Roest_150h
370
    -3
100
AcDbLine
 10
1169.500000000005
 20
-1111.558691100314
 30
0.0
 11
1182.250000000005
 21
-1111.558691100325
 31
0.0
  0
LINE
  5
19A
330
1F
100
AcDbEntity
  8
Graypants_Roest_150h
370
    -3
100
AcDbLine
 10
1182.250000000005
 20
-1111.558691100325
 30
0.0
 11
1182.250000000005
 21
-1119.147164112989
 31
0.0
  0
LINE
  5
19B
330
1F
100
AcDbEntity
  8
Graypants_Roest_150h
370
    -3
100
AcDbLine
 10
1185.250000000005
 20
-1111.558691100314
 30
0.0
 11
1198.000000000005
 21
-1111.558691100325
 31
0.0
  0
LINE
  5
19C
330
1F
100
AcDbEntity
  8
Graypants_Roest_150h
370
    -3
100
AcDbLine
 10
1198.000000000005
 20
-1111.558691100325
 30
0.0
 11
1198.000000000005
 21
-1119.147164112989
 31
0.0
  0
LINE
  5
19D
330
1F
100
AcDbEntity
  8
Graypants_Roest_150h
370
    -3
100
AcDbLine
 10
1201.000000000005
 20
-1111.558691100314
 30
0.0
 11
1213.750000000005
 21
-1111.558691100325
 31
0.0
  0
LINE
  5
19E
330
1F
100
AcDbEntity
  8
Graypants_Roest_150h
370
    -3
100
AcDbLine
 10
1213.750000000005
 20
-1111.558691100325
 30
0.0
 11
1213.750000000005
 21
-1119.147164112989
 31
0.0
  0
LINE
  5
19F
330
1F
100
AcDbEntity
  8
Graypants_Roest_150h
370
    -3
100
AcDbLine
 10
1216.750000000005
 20
-1111.558691100314
 30
0.0
 11
1229.500000000005
 21
-1111.558691100325
 31
0.0
  0
LINE
  5
1A0
330
1F
100
AcDbEntity
  8
Graypants_Roest_150h
370
    -3
100
AcDbLine
 10
1229.500000000005
 20
-1111.558691100325
 30
0.0
 11
1229.500000000005
 21
-1119.147164112989
 31
0.0
  0
LINE
  5
1A1
330
1F
100
AcDbEntity
  8
Graypants_Roest_150h
370
    -3
100
AcDbLine
 10
1232.500000000005
 20
-1111.558691100313
 30
0.0
 11
1245.250000000005
 21
-1111.558691100325
 31
0.0
  0
LINE
  5
1A2
330
1F
100
AcDbEntity
  8
Graypants_Roest_150h
370
    -3
100
AcDbLine
 10
1245.250000000005
 20
-1111.558691100325
 30
0.0
 11
1245.250000000005
 21
-1119.147164112989
 31
0.0
  0
POLYLINE
  5
1A3
330
1F
100
AcDbEntity
  8
Graypants_Roest_150h
370
    -3
100
AcDb2dPolyline
 66
     1
 10
0.0
 20
0.0
 30
0.0
  0
VERTEX
  5
1A4
330
1A3
100
AcDbEntity
  8
Graypants_Roest_150h
370
    -3
100
AcDbVertex
100
AcDb2dVertex
 10
1264.000000000004
 20
-1112.619663980698
 30
0.0
  0
VERTEX
  5
1A5
330
1A3
100
AcDbEntity
  8
Graypants_Roest_150h
370
    -3
100
AcDbVertex
100
AcDb2dVertex
 10
1264.710075802582
 20
-1112.839666521145
 30
0.0
  0
VERTEX
  5
1A6
330
1A3
100
AcDbEntity
  8
Graypants_Roest_150h
370
    -3
100
AcDbVertex
100
AcDb2dVertex
 10
1265.402902597249
 20
-1113.072591299725
 30
0.0
  0
VERTEX
  5
1A7
330
1A3
100
AcDbEntity
  8
Graypants_Roest_150h
370
    -3
100
AcDbVertex
100
AcDb2dVertex
 10
1266.079192575064
 20
-1113.316937424472
 30
0.0
  0
VERTEX
  5
1A8
330
1A3
100
AcDbEntity
  8
Graypants_Roest_150h
370
    -3
100
AcDbVertex
100
AcDb2dVertex
 10
1266.739657927085
 20
-1113.571204003419
 30
0.0
  0
VERTEX
  5
1A9
330
1A3
100
AcDbEntity
  8
Graypants_Roest_150h
370
    -3
100
AcDbVertex
100
AcDb2dVertex
 10
1267.385379815796
 20
-1113.83422189056
 30
0.0
  0
VERTEX
  5
1AA
330
1A3
100
AcDbEntity
  8
Graypants_Roest_150h
370
    -3
100
AcDbVertex
100
AcDb2dVertex
 10
1268.015855345251
 20
-1114.104392781114
 30
0.0
  0
VERTEX
  5
1AB
330
1A3
100
AcDbEntity
  8
Graypants_Roest_150h
370
    -3
100
AcDbVertex
100
AcDb2dVertex
 10
1268.629420618866
 20
-1114.37957204495
 30
0.0
  0
VERTEX
  5
1AC
330
1A3
100
AcDbEntity
  8
Graypants_Roest_150h
370
    -3
100
AcDbVertex
100
AcDb2dVertex
 10
1269.224411740057
 20
-1114.657615051939
 30
0.0
  0
VERTEX
  5
1AD
330
1A3
100
AcDbEntity
  8
Graypants_Roest_150h
370
    -3
100
AcDbVertex
100
AcDb2dVertex
 10
1270.357183256871
 20
-1115.216111248963
 30
0.0
  0
VERTEX
  5
1AE
330
1A3
100
AcDbEntity
  8
Graypants_Roest_150h
370
    -3
100
AcDbVertex
100
AcDb2dVertex
 10
1271.416463932825
 20
-1115.77134817761
 30
0.0
  0
VERTEX
  5
1AF
330
1A3
100
AcDbEntity
  8
Graypants_Roest_150h
370
    -3
100
AcDbVertex
100
AcDb2dVertex
 10
1272.403875474163
 20
-1116.315690420666
 30
0.0
  0
VERTEX
  5
1B0
330
1A3
100
AcDbEntity
  8
Graypants_Roest_150h
370
    -3
100
AcDbVertex
100
AcDb2dVertex
 10
1273.315823082336
 20
-1116.840091093711
 30
0.0
  0
VERTEX
  5
1B1
330
1A3
100
AcDbEntity
  8
Graypants_Roest_150h
370
    -3
100
AcDbVertex
100
AcDb2dVertex
 10
1274.137668361434
 20
-1117.329474324083
 30
0.0
  0
VERTEX
  5
1B2
330
1A3
100
AcDbEntity
  8
Graypants_Roest_150h
370
    -3
100
AcDbVertex
100
AcDb2dVertex
 10
1275.502666921549
 20
-1118.17542970931
 30
0.0
  0
VERTEX
  5
1B3
330
1A3
100
AcDbEntity
  8
Graypants_Roest_150h
370
    -3
100
AcDbVertex
100
AcDb2dVertex
 10
1276.99999918499
 20
-1119.147163543525
 30
0.0
  0
VERTEX
  5
1B4
330
1A3
100
AcDbEntity
  8
Graypants_Roest_150h
370
    -3
100
AcDbVertex
100
AcDb2dVertex
 10
1277.000000061397
 20
-1119.147164131836
 30
0.0
  0
SEQEND
  5
1B5
330
1A3
100
AcDbEntity
  8
Graypants_Roest_150h
370
    -3
  0
LINE
  5
1B6
330
1F
100
AcDbEntity
  8
Graypants_Roest_150h
370
    -3
100
AcDbLine
 10
1261.000000000005
 20
-1111.910533572759
 30
0.0
 11
1261.000000000005
 21
-1119.147164112987
 31
0.0
  0
LINE
  5
1B7
330
1F
100
AcDbEntity
  8
Graypants_Roest_150h
370
    -3
100
AcDbLine
 10
221.5000000000044
 20
-1111.558691100311
 30
0.0
 11
221.5000000000044
 21
-1119.147164112987
 31
0.0
  0
LINE
  5
1B8
330
1F
100
AcDbEntity
  8
Graypants_Roest_150h
370
    -3
100
AcDbLine
 10
208.7500000000044
 20
-1111.558691100313
 30
0.0
 11
221.5000000000044
 21
-1111.558691100311
 31
0.0
  0
LINE
  5
1B9
330
1F
100
AcDbEntity
  8
Graypants_Roest_150h
370
    -3
100
AcDbLine
 10
237.2500000000044
 20
-1111.558691100311
 30
0.0
 11
237.2500000000044
 21
-1119.147164112987
 31
0.0
  0
LINE
  5
1BA
330
1F
100
AcDbEntity
  8
Graypants_Roest_150h
370
    -3
100
AcDbLine
 10
224.5000000000044
 20
-1111.558691100313
 30
0.0
 11
237.2500000000044
 21
-1111.558691100311
 31
0.0
  0
LINE
  5
1BB
330
1F
100
AcDbEntity
  8
Graypants_Roest_150h
370
    -3
100
AcDbLine
 10
253.0000000000044
 20
-1111.558691100311
 30
0.0
 11
253.0000000000044
 21
-1119.147164112987
 31
0.0
  0
LINE
  5
1BC
330
1F
100
AcDbEntity
  8
Graypants_Roest_150h
370
    -3
100
AcDbLine
 10
240.2500000000044
 20
-1111.558691100313
 30
0.0
 11
253.0000000000044
 21
-1111.558691100311
 31
0.0
  0
LINE
  5
1BD
330
1F
100
AcDbEntity
  8
Graypants_Roest_150h
370
    -3
100
AcDbLine
 10
268.7500000000044
 20
-1111.558691100311
 30
0.0
 11
268.7500000000044
 21
-1119.147164112986
 31
0.0
  0
LINE
  5
1BE
330
1F
100
AcDbEntity
  8
Graypants_Roest_150h
370
    -3
100
AcDbLine
 10
256.0000000000044
 20
-1111.558691100314
 30
0.0
 11
268.7500000000044
 21
-1111.558691100311
 31
0.0
  0
LINE
  5
1BF
330
1F
100
AcDbEntity
  8
Graypants_Roest_150h
370
    -3
100
AcDbLine
 10
284.5000000000044
 20
-1111.558691100311
 30
0.0
 11
284.5000000000044
 21
-1119.147164112986
 31
0.0
  0
LINE
  5
1C0
330
1F
100
AcDbEntity
  8
Graypants_Roest_150h
370
    -3
100
AcDbLine
 10
271.7500000000044
 20
-1111.558691100314
 30
0.0
 11
284.5000000000044
 21
-1111.558691100311
 31
0.0
  0
LINE
  5
1C1
330
1F
100
AcDbEntity
  8
Graypants_Roest_150h
370
    -3
100
AcDbLine
 10
300.2500000000044
 20
-1111.558691100311
 30
0.0
 11
300.2500000000044
 21
-1119.147164112986
 31
0.0
  0
LINE
  5
1C2
330
1F
100
AcDbEntity
  8
Graypants_Roest_150h
370
    -3
100
AcDbLine
 10
287.5000000000044
 20
-1111.558691100314
 30
0.0
 11
300.2500000000044
 21
-1111.558691100311
 31
0.0
  0
LINE
  5
1C3
330
1F
100
AcDbEntity
  8
Graypants_Roest_150h
370
    -3
100
AcDbLine
 10
316.0000000000044
 20
-1111.558691100311
 30
0.0
 11
316.0000000000044
 21
-1119.147164112986
 31
0.0
  0
LINE
  5
1C4
330
1F
100
AcDbEntity
  8
Graypants_Roest_150h
370
    -3
100
AcDbLine
 10
303.2500000000044
 20
-1111.558691100314
 30
0.0
 11
316.0000000000044
 21
-1111.558691100311
 31
0.0
  0
LINE
  5
1C5
330
1F
100
AcDbEntity
  8
Graypants_Roest_150h
370
    -3
100
AcDbLine
 10
331.7500000000044
 20
-1111.558691100311
 30
0.0
 11
331.7500000000044
 21
-1119.147164112986
 31
0.0
  0
LINE
  5
1C6
330
1F
100
AcDbEntity
  8
Graypants_Roest_150h
370
    -3
100
AcDbLine
 10
319.0000000000044
 20
-1111.558691100314
 30
0.0
 11
331.7500000000044
 21
-1111.558691100311
 31
0.0
  0
LINE
  5
1C7
330
1F
100
AcDbEntity
  8
Graypants_Roest_150h
370
    -3
100
AcDbLine
 10
347.5000000000044
 20
-1111.558691100311
 30
0.0
 11
347.5000000000044
 21
-1119.147164112986
 31
0.0
  0
LINE
  5
1C8
330
1F
100
AcDbEntity
  8
Graypants_Roest_150h
370
    -3
100
AcDbLine
 10
334.7500000000044
 20
-1111.558691100314
 30
0.0
 11
347.5000000000044
 21
-1111.558691100311
 31
0.0
  0
LINE
  5
1C9
330
1F
100
AcDbEntity
  8
Graypants_Roest_150h
370
    -3
100
AcDbLine
 10
363.2500000000044
 20
-1111.558691100311
 30
0.0
 11
363.2500000000044
 21
-1119.147164112986
 31
0.0
  0
LINE
  5
1CA
330
1F
100
AcDbEntity
  8
Graypants_Roest_150h
370
    -3
100
AcDbLine
 10
350.5000000000044
 20
-1111.558691100314
 30
0.0
 11
363.2500000000044
 21
-1111.558691100311
 31
0.0
  0
LINE
  5
1CB
330
1F
100
AcDbEntity
  8
Graypants_Roest_150h
370
    -3
100
AcDbLine
 10
379.0000000000044
 20
-1111.558691100311
 30
0.0
 11
379.0000000000044
 21
-1119.147164112986
 31
0.0
  0
LINE
  5
1CC
330
1F
100
AcDbEntity
  8
Graypants_Roest_150h
370
    -3
100
AcDbLine
 10
366.2500000000044
 20
-1111.558691100314
 30
0.0
 11
379.0000000000044
 21
-1111.558691100311
 31
0.0
  0
LINE
  5
1CD
330
1F
100
AcDbEntity
  8
Graypants_Roest_150h
370
    -3
100
AcDbLine
 10
394.7500000000044
 20
-1111.55869110031
 30
0.0
 11
394.7500000000044
 21
-1119.147164112986
 31
0.0
  0
LINE
  5
1CE
330
1F
100
AcDbEntity
  8
Graypants_Roest_150h
370
    -3
100
AcDbLine
 10
382.0000000000044
 20
-1111.558691100314
 30
0.0
 11
394.7500000000044
 21
-1111.55869110031
 31
0.0
  0
LINE
  5
1CF
330
1F
100
AcDbEntity
  8
Graypants_Roest_150h
370
    -3
100
AcDbLine
 10
410.5000000000044
 20
-1111.55869110031
 30
0.0
 11
410.5000000000044
 21
-1119.147164112986
 31
0.0
  0
LINE
  5
1D0
330
1F
100
AcDbEntity
  8
Graypants_Roest_150h
370
    -3
100
AcDbLine
 10
397.7500000000044
 20
-1111.558691100314
 30
0.0
 11
410.5000000000044
 21
-1111.55869110031
 31
0.0
  0
LINE
  5
1D1
330
1F
100
AcDbEntity
  8
Graypants_Roest_150h
370
    -3
100
AcDbLine
 10
426.2500000000044
 20
-1111.55869110031
 30
0.0
 11
426.2500000000044
 21
-1119.147164112986
 31
0.0
  0
LINE
  5
1D2
330
1F
100
AcDbEntity
  8
Graypants_Roest_150h
370
    -3
100
AcDbLine
 10
413.5000000000044
 20
-1111.558691100314
 30
0.0
 11
426.2500000000044
 21
-1111.55869110031
 31
0.0
  0
LINE
  5
1D3
330
1F
100
AcDbEntity
  8
Graypants_Roest_150h
370
    -3
100
AcDbLine
 10
442.0000000000044
 20
-1111.55869110031
 30
0.0
 11
442.0000000000044
 21
-1119.147164112986
 31
0.0
  0
LINE
  5
1D4
330
1F
100
AcDbEntity
  8
Graypants_Roest_150h
370
    -3
100
AcDbLine
 10
429.2500000000044
 20
-1111.558691100314
 30
0.0
 11
442.0000000000044
 21
-1111.55869110031
 31
0.0
  0
LINE
  5
1D5
330
1F
100
AcDbEntity
  8
Graypants_Roest_150h
370
    -3
100
AcDbLine
 10
457.7500000000044
 20
-1111.55869110031
 30
0.0
 11
457.7500000000044
 21
-1119.147164112986
 31
0.0
  0
LINE
  5
1D6
330
1F
100
AcDbEntity
  8
Graypants_Roest_150h
370
    -3
100
AcDbLine
 10
445.0000000000044
 20
-1111.558691100315
 30
0.0
 11
457.7500000000044
 21
-1111.55869110031
 31
0.0
  0
LINE
  5
1D7
330
1F
100
AcDbEntity
  8
Graypants_Roest_150h
370
    -3
100
AcDbLine
 10
473.5000000000044
 20
-1111.55869110031
 30
0.0
 11
473.5000000000044
 21
-1119.147164112986
 31
0.0
  0
LINE
  5
1D8
330
1F
100
AcDbEntity
  8
Graypants_Roest_150h
370
    -3
100
AcDbLine
 10
460.7500000000044
 20
-1111.558691100315
 30
0.0
 11
473.5000000000044
 21
-1111.55869110031
 31
0.0
  0
LINE
  5
1D9
330
1F
100
AcDbEntity
  8
Graypants_Roest_150h
370
    -3
100
AcDbLine
 10
489.2500000000044
 20
-1111.55869110031
 30
0.0
 11
489.2500000000044
 21
-1119.147164112986
 31
0.0
  0
LINE
  5
1DA
330
1F
100
AcDbEntity
  8
Graypants_Roest_150h
370
    -3
100
AcDbLine
 10
476.5000000000044
 20
-1111.558691100315
 30
0.0
 11
489.2500000000044
 21
-1111.55869110031
 31
0.0
  0
LINE
  5
1DB
330
1F
100
AcDbEntity
  8
Graypants_Roest_150h
370
    -3
100
AcDbLine
 10
505.0000000000044
 20
-1111.55869110031
 30
0.0
 11
505.0000000000044
 21
-1119.147164112986
 31
0.0
  0
LINE
  5
1DC
330
1F
100
AcDbEntity
  8
Graypants_Roest_150h
370
    -3
100
AcDbLine
 10
492.2500000000044
 20
-1111.558691100315
 30
0.0
 11
505.0000000000044
 21
-1111.55869110031
 31
0.0
  0
LINE
  5
1DD
330
1F
100
AcDbEntity
  8
Graypants_Roest_150h
370
    -3
100
AcDbLine
 10
520.7500000000044
 20
-1111.55869110031
 30
0.0
 11
520.7500000000044
 21
-1119.147164112986
 31
0.0
  0
LINE
  5
1DE
330
1F
100
AcDbEntity
  8
Graypants_Roest_150h
370
    -3
100
AcDbLine
 10
508.0000000000044
 20
-1111.558691100315
 30
0.0
 11
520.7500000000044
 21
-1111.55869110031
 31
0.0
  0
LINE
  5
1DF
330
1F
100
AcDbEntity
  8
Graypants_Roest_150h
370
    -3
100
AcDbLine
 10
536.5000000000044
 20
-1111.55869110031
 30
0.0
 11
536.5000000000044
 21
-1119.147164112986
 31
0.0
  0
LINE
  5
1E0
330
1F
100
AcDbEntity
  8
Graypants_Roest_150h
370
    -3
100
AcDbLine
 10
523.7500000000044
 20
-1111.558691100315
 30
0.0
 11
536.5000000000044
 21
-1111.55869110031
 31
0.0
  0
LINE
  5
1E1
330
1F
100
AcDbEntity
  8
Graypants_Roest_150h
370
    -3
100
AcDbLine
 10
552.2500000000044
 20
-1111.55869110031
 30
0.0
 11
552.2500000000044
 21
-1119.147164112986
 31
0.0
  0
LINE
  5
1E2
330
1F
100
AcDbEntity
  8
Graypants_Roest_150h
370
    -3
100
AcDbLine
 10
539.5000000000044
 20
-1111.558691100315
 30
0.0
 11
552.2500000000044
 21
-1111.55869110031
 31
0.0
  0
LINE
  5
1E3
330
1F
100
AcDbEntity
  8
Graypants_Roest_150h
370
    -3
100
AcDbLine
 10
568.0000000000044
 20
-1111.55869110031
 30
0.0
 11
568.0000000000044
 21
-1119.147164112986
 31
0.0
  0
LINE
  5
1E4
330
1F
100
AcDbEntity
  8
Graypants_Roest_150h
370
    -3
100
AcDbLine
 10
555.2500000000044
 20
-1111.558691100315
 30
0.0
 11
568.0000000000044
 21
-1111.55869110031
 31
0.0
  0
LINE
  5
1E5
330
1F
100
AcDbEntity
  8
Graypants_Roest_150h
370
    -3
100
AcDbLine
 10
583.7500000000044
 20
-1111.55869110031
 30
0.0
 11
583.7500000000044
 21
-1119.147164112986
 31
0.0
  0
LINE
  5
1E6
330
1F
100
AcDbEntity
  8
Graypants_Roest_150h
370
    -3
100
AcDbLine
 10
571.0000000000044
 20
-1111.558691100315
 30
0.0
 11
583.7500000000044
 21
-1111.55869110031
 31
0.0
  0
LINE
  5
1E7
330
1F
100
AcDbEntity
  8
Graypants_Roest_150h
370
    -3
100
AcDbLine
 10
599.5000000000044
 20
-1111.55869110031
 30
0.0
 11
599.5000000000044
 21
-1119.147164112986
 31
0.0
  0
LINE
  5
1E8
330
1F
100
AcDbEntity
  8
Graypants_Roest_150h
370
    -3
100
AcDbLine
 10
586.7500000000044
 20
-1111.558691100316
 30
0.0
 11
599.5000000000044
 21
-1111.55869110031
 31
0.0
  0
LINE
  5
1E9
330
1F
100
AcDbEntity
  8
Graypants_Roest_150h
370
    -3
100
AcDbLine
 10
615.2500000000044
 20
-1111.55869110031
 30
0.0
 11
615.2500000000044
 21
-1119.147164112986
 31
0.0
  0
LINE
  5
1EA
330
1F
100
AcDbEntity
  8
Graypants_Roest_150h
370
    -3
100
AcDbLine
 10
602.5000000000044
 20
-1111.558691100316
 30
0.0
 11
615.2500000000044
 21
-1111.55869110031
 31
0.0
  0
LINE
  5
1EB
330
1F
100
AcDbEntity
  8
Graypants_Roest_150h
370
    -3
100
AcDbLine
 10
631.0000000000044
 20
-1111.55869110031
 30
0.0
 11
631.0000000000044
 21
-1119.147164112986
 31
0.0
  0
LINE
  5
1EC
330
1F
100
AcDbEntity
  8
Graypants_Roest_150h
370
    -3
100
AcDbLine
 10
618.2500000000044
 20
-1111.558691100316
 30
0.0
 11
631.0000000000044
 21
-1111.55869110031
 31
0.0
  0
LINE
  5
1ED
330
1F
100
AcDbEntity
  8
Graypants_Roest_150h
370
    -3
100
AcDbLine
 10
646.7500000000044
 20
-1111.55869110031
 30
0.0
 11
646.7500000000044
 21
-1119.147164112986
 31
0.0
  0
LINE
  5
1EE
330
1F
100
AcDbEntity
  8
Graypants_Roest_150h
370
    -3
100
AcDbLine
 10
634.0000000000044
 20
-1111.558691100316
 30
0.0
 11
646.7500000000044
 21
-1111.55869110031
 31
0.0
  0
LINE
  5
1EF
330
1F
100
AcDbEntity
  8
Graypants_Roest_150h
370
    -3
100
AcDbLine
 10
662.5000000000044
 20
-1111.55869110031
 30
0.0
 11
662.5000000000044
 21
-1119.147164112986
 31
0.0
  0
LINE
  5
1F0
330
1F
100
AcDbEntity
  8
Graypants_Roest_150h
370
    -3
100
AcDbLine
 10
649.7500000000044
 20
-1111.558691100316
 30
0.0
 11
662.5000000000044
 21
-1111.55869110031
 31
0.0
  0
LINE
  5
1F1
330
1F
100
AcDbEntity
  8
Graypants_Roest_150h
370
    -3
100
AcDbLine
 10
678.2500000000044
 20
-1111.558691100309
 30
0.0
 11
678.2500000000044
 21
-1119.147164112986
 31
0.0
  0
LINE
  5
1F2
330
1F
100
AcDbEntity
  8
Graypants_Roest_150h
370
    -3
100
AcDbLine
 10
665.5000000000044
 20
-1111.558691100316
 30
0.0
 11
678.2500000000044
 21
-1111.558691100309
 31
0.0
  0
LINE
  5
1F3
330
1F
100
AcDbEntity
  8
Graypants_Roest_150h
370
    -3
100
AcDbLine
 10
694.0000000000044
 20
-1111.558691100309
 30
0.0
 11
694.0000000000044
 21
-1119.147164112986
 31
0.0
  0
LINE
  5
1F4
330
1F
100
AcDbEntity
  8
Graypants_Roest_150h
370
    -3
100
AcDbLine
 10
681.2500000000044
 20
-1111.558691100316
 30
0.0
 11
694.0000000000044
 21
-1111.558691100309
 31
0.0
  0
LINE
  5
1F5
330
1F
100
AcDbEntity
  8
Graypants_Roest_150h
370
    -3
100
AcDbLine
 10
709.7500000000044
 20
-1111.558691100309
 30
0.0
 11
709.7500000000044
 21
-1119.147164112985
 31
0.0
  0
LINE
  5
1F6
330
1F
100
AcDbEntity
  8
Graypants_Roest_150h
370
    -3
100
AcDbLine
 10
697.0000000000044
 20
-1111.558691100316
 30
0.0
 11
709.7500000000044
 21
-1111.558691100309
 31
0.0
  0
LINE
  5
1F7
330
1F
100
AcDbEntity
  8
Graypants_Roest_150h
370
    -3
100
AcDbLine
 10
205.7500000000044
 20
-1111.55869110028
 30
0.0
 11
205.7500000000044
 21
-1119.14716411298
 31
0.0
  0
LINE
  5
1F8
330
1F
100
AcDbEntity
  8
Graypants_Roest_150h
370
    -3
100
AcDbLine
 10
725.5000000000044
 20
-1111.558691100309
 30
0.0
 11
725.5000000000044
 21
-1119.147164112985
 31
0.0
  0
LINE
  5
1F9
330
1F
100
AcDbEntity
  8
Graypants_Roest_150h
370
    -3
100
AcDbLine
 10
712.7500000000044
 20
-1111.558691100316
 30
0.0
 11
725.5000000000044
 21
-1111.558691100309
 31
0.0
  0
LINE
  5
1FA
330
1F
100
AcDbEntity
  8
Graypants_Roest_150h
370
    -3
100
AcDbLine
 10
190.0000000000049
 20
-1112.619663980698
 30
0.0
 11
190.0000000000044
 21
-1119.147164112987
 31
0.0
  0
POLYLINE
  5
1FB
330
1F
100
AcDbEntity
  8
Graypants_Roest_150h
370
    -3
100
AcDb2dPolyline
 66
     1
 10
0.0
 20
0.0
 30
0.0
  0
VERTEX
  5
1FC
330
1FB
100
AcDbEntity
  8
Graypants_Roest_150h
370
    -3
100
AcDbVertex
100
AcDb2dVertex
 10
1248.250000000005
 20
-1111.558691100313
 30
0.0
  0
VERTEX
  5
1FD
330
1FB
100
AcDbEntity
  8
Graypants_Roest_150h
370
    -3
100
AcDbVertex
100
AcDb2dVertex
 10
1257.000000000005
 20
-1111.558691099795
 30
0.0
  0
VERTEX
  5
1FE
330
1FB
100
AcDbEntity
  8
Graypants_Roest_150h
370
    -3
100
AcDbVertex
100
AcDb2dVertex
 10
1257.803920172486
 20
-1111.573458392251
 30
0.0
  0
VERTEX
  5
1FF
330
1FB
100
AcDbEntity
  8
Graypants_Roest_150h
370
    -3
100
AcDbVertex
100
AcDb2dVertex
 10
1258.606844762249
 20
-1111.616094290288
 30
0.0
  0
VERTEX
  5
200
330
1FB
100
AcDbEntity
  8
Graypants_Roest_150h
370
    -3
100
AcDbVertex
100
AcDb2dVertex
 10
1259.407807970259
 20
-1111.686547509252
 30
0.0
  0
VERTEX
  5
201
330
1FB
100
AcDbEntity
  8
Graypants_Roest_150h
370
    -3
100
AcDbVertex
100
AcDb2dVertex
 10
1260.20584635673
 20
-1111.784733304386
 30
0.0
  0
VERTEX
  5
202
330
1FB
100
AcDbEntity
  8
Graypants_Roest_150h
370
    -3
100
AcDbVertex
100
AcDb2dVertex
 10
1261.000000000005
 20
-1111.910533572759
 30
0.0
  0
SEQEND
  5
203
330
1FB
100
AcDbEntity
  8
Graypants_Roest_150h
370
    -3
  0
POLYLINE
  5
204
330
1F
100
AcDbEntity
  8
Graypants_Roest_150h
370
    -3
100
AcDb2dPolyline
 66
     1
 10
0.0
 20
0.0
 30
0.0
  0
VERTEX
  5
205
330
204
100
AcDbEntity
  8
Graypants_Roest_150h
370
    -3
100
AcDbVertex
100
AcDb2dVertex
 10
193.0000000000044
 20
-1111.910533572759
 30
0.0
  0
VERTEX
  5
206
330
204
100
AcDbEntity
  8
Graypants_Roest_150h
370
    -3
100
AcDbVertex
100
AcDb2dVertex
 10
193.7941538682146
 20
-1111.784735132747
 30
0.0
  0
VERTEX
  5
207
330
204
100
AcDbEntity
  8
Graypants_Roest_150h
370
    -3
100
AcDbVertex
100
AcDb2dVertex
 10
194.5921923036855
 20
-1111.686550259097
 30
0.0
  0
VERTEX
  5
208
330
204
100
AcDbEntity
  8
Graypants_Roest_150h
370
    -3
100
AcDbVertex
100
AcDb2dVertex
 10
195.3931554480582
 20
-1111.616097045834
 30
0.0
  0
VERTEX
  5
209
330
204
100
AcDbEntity
  8
Graypants_Roest_150h
370
    -3
100
AcDbVertex
100
AcDb2dVertex
 10
196.1960799252157
 20
-1111.573460232117
 30
0.0
  0
VERTEX
  5
20A
330
204
100
AcDbEntity
  8
Graypants_Roest_150h
370
    -3
100
AcDbVertex
100
AcDb2dVertex
 10
197.0000000000044
 20
-1111.558691100316
 30
0.0
  0
VERTEX
  5
20B
330
204
100
AcDbEntity
  8
Graypants_Roest_150h
370
    -3
100
AcDbVertex
100
AcDb2dVertex
 10
205.7500000000044
 20
-1111.55869110028
 30
0.0
  0
SEQEND
  5
20C
330
204
100
AcDbEntity
  8
Graypants_Roest_150h
370
    -3
  0
LINE
  5
20D
330
1F
100
AcDbEntity
  8
Graypants_Roest_150h
370
    -3
100
AcDbLine
 10
-22.99999999999557
 20
-1058.847164112987
 30
0.0
 11
-19.99999999999568
 21
-1058.847164112987
 31
0.0
  0
LINE
  5
20E
330
1F
100
AcDbEntity
  8
Graypants_Roest_150h
370
    -3
100
AcDbLine
 10
-22.99999999999557
 20
-1058.847164112987
 30
0.0
 11
-22.99999999999557
 21
-1088.997164112987
 31
0.0
  0
LINE
  5
20F
330
1F
100
AcDbEntity
  8
Graypants_Roest_150h
370
    -3
100
AcDbLine
 10
-19.99999999999568
 20
-1119.147164112987
 30
0.0
 11
-22.99999999999557
 21
-1119.147164112987
 31
0.0
  0
LINE
  5
210
330
1F
100
AcDbEntity
  8
Graypants_Roest_150h
370
    -3
100
AcDbLine
 10
1474.000000000005
 20
-1058.847164112987
 30
0.0
 11
1477.000000000005
 21
-1058.847164112987
 31
0.0
  0
LINE
  5
211
330
1F
100
AcDbEntity
  8
Graypants_Roest_150h
370
    -3
100
AcDbLine
 10
1477.000000000005
 20
-1119.147164112987
 30
0.0
 11
1474.000000000005
 21
-1119.147164112987
 31
0.0
  0
LINE
  5
212
330
1F
100
AcDbEntity
  8
Graypants_Roest_150h
370
    -3
100
AcDbLine
 10
1477.000000000005
 20
-1119.147164112987
 30
0.0
 11
1477.000000000005
 21
-1088.997164112987
 31
0.0
  0
LINE
  5
213
330
1F
100
AcDbEntity
  8
Graypants_Roest_150h
370
    -3
100
AcDbLine
 10
-19.99999999999579
 20
-1058.847164112987
 30
0.0
 11
-17.00000000303737
 21
-1058.847164112987
 31
0.0
  0
LINE
  5
214
330
1F
100
AcDbEntity
  8
Graypants_Roest_150h
370
    -3
100
AcDbLine
 10
-13.00000000290106
 20
-1058.847164112987
 30
0.0
 11
-1.000000001656304
 21
-1058.847164112987
 31
0.0
  0
LINE
  5
215
330
1F
100
AcDbEntity
  8
Graypants_Roest_150h
370
    -3
100
AcDbLine
 10
0.9999999990099013
 20
-1058.847164112987
 30
0.0
 11
9.999999990944502
 21
-1058.847164112987
 31
0.0
  0
LINE
  5
216
330
1F
100
AcDbEntity
  8
Graypants_Roest_150h
370
    -3
100
AcDbLine
 10
19.99999999156194
 20
-1058.847164112987
 30
0.0
 11
1452.999999998344
 21
-1058.847164112987
 31
0.0
  0
LINE
  5
217
330
1F
100
AcDbEntity
  8
Graypants_Roest_150h
370
    -3
100
AcDbLine
 10
1454.99999999901
 20
-1058.847164112987
 30
0.0
 11
1466.999999996963
 21
-1058.847164112987
 31
0.0
  0
LINE
  5
218
330
1F
100
AcDbEntity
  8
Graypants_Roest_150h
370
    -3
100
AcDbLine
 10
1470.999999997099
 20
-1058.847164112987
 30
0.0
 11
1474.000000000005
 21
-1058.847164112987
 31
0.0
  0
LINE
  5
219
330
1F
100
AcDbEntity
  8
Graypants_Roest_150h
370
    -3
100
AcDbLine
 10
1474.000000000005
 20
-1119.147164112987
 30
0.0
 11
1277.000000061397
 21
-1119.147164112987
 31
0.0
  0
LINE
  5
21A
330
1F
100
AcDbEntity
  8
Graypants_Roest_150h
370
    -3
100
AcDbLine
 10
1264.000000000004
 20
-1119.147164112987
 30
0.0
 11
1261.000000000004
 21
-1119.147164112987
 31
0.0
  0
LINE
  5
21B
330
1F
100
AcDbEntity
  8
Graypants_Roest_150h
370
    -3
100
AcDbLine
 10
1248.250000000005
 20
-1119.147164112987
 30
0.0
 11
1245.250000000004
 21
-1119.147164112987
 31
0.0
  0
LINE
  5
21C
330
1F
100
AcDbEntity
  8
Graypants_Roest_150h
370
    -3
100
AcDbLine
 10
1232.500000000004
 20
-1119.147164112987
 30
0.0
 11
1229.500000000004
 21
-1119.147164112987
 31
0.0
  0
LINE
  5
21D
330
1F
100
AcDbEntity
  8
Graypants_Roest_150h
370
    -3
100
AcDbLine
 10
1216.750000000005
 20
-1119.147164112987
 30
0.0
 11
1213.750000000004
 21
-1119.147164112987
 31
0.0
  0
LINE
  5
21E
330
1F
100
AcDbEntity
  8
Graypants_Roest_150h
370
    -3
100
AcDbLine
 10
1201.000000000005
 20
-1119.147164112987
 30
0.0
 11
1198.000000000004
 21
-1119.147164112987
 31
0.0
  0
LINE
  5
21F
330
1F
100
AcDbEntity
  8
Graypants_Roest_150h
370
    -3
100
AcDbLine
 10
1185.250000000004
 20
-1119.147164112987
 30
0.0
 11
1182.250000000004
 21
-1119.147164112987
 31
0.0
  0
LINE
  5
220
330
1F
100
AcDbEntity
  8
Graypants_Roest_150h
370
    -3
100
AcDbLine
 10
1169.500000000005
 20
-1119.147164112987
 30
0.0
 11
1166.500000000004
 21
-1119.147164112987
 31
0.0
  0
LINE
  5
221
330
1F
100
AcDbEntity
  8
Graypants_Roest_150h
370
    -3
100
AcDbLine
 10
1153.750000000005
 20
-1119.147164112987
 30
0.0
 11
1150.750000000004
 21
-1119.147164112987
 31
0.0
  0
LINE
  5
222
330
1F
100
AcDbEntity
  8
Graypants_Roest_150h
370
    -3
100
AcDbLine
 10
1138.000000000005
 20
-1119.147164112987
 30
0.0
 11
1135.000000000004
 21
-1119.147164112987
 31
0.0
  0
LINE
  5
223
330
1F
100
AcDbEntity
  8
Graypants_Roest_150h
370
    -3
100
AcDbLine
 10
1122.250000000005
 20
-1119.147164112987
 30
0.0
 11
1119.250000000004
 21
-1119.147164112987
 31
0.0
  0
LINE
  5
224
330
1F
100
AcDbEntity
  8
Graypants_Roest_150h
370
    -3
100
AcDbLine
 10
1106.500000000005
 20
-1119.147164112987
 30
0.0
 11
1103.500000000004
 21
-1119.147164112987
 31
0.0
  0
LINE
  5
225
330
1F
100
AcDbEntity
  8
Graypants_Roest_150h
370
    -3
100
AcDbLine
 10
1090.750000000004
 20
-1119.147164112987
 30
0.0
 11
1087.750000000004
 21
-1119.147164112987
 31
0.0
  0
LINE
  5
226
330
1F
100
AcDbEntity
  8
Graypants_Roest_150h
370
    -3
100
AcDbLine
 10
1075.000000000005
 20
-1119.147164112987
 30
0.0
 11
1072.000000000004
 21
-1119.147164112987
 31
0.0
  0
LINE
  5
227
330
1F
100
AcDbEntity
  8
Graypants_Roest_150h
370
    -3
100
AcDbLine
 10
1059.250000000005
 20
-1119.147164112987
 30
0.0
 11
1056.250000000004
 21
-1119.147164112987
 31
0.0
  0
LINE
  5
228
330
1F
100
AcDbEntity
  8
Graypants_Roest_150h
370
    -3
100
AcDbLine
 10
1043.500000000004
 20
-1119.147164112987
 30
0.0
 11
1040.500000000004
 21
-1119.147164112987
 31
0.0
  0
LINE
  5
229
330
1F
100
AcDbEntity
  8
Graypants_Roest_150h
370
    -3
100
AcDbLine
 10
1027.750000000005
 20
-1119.147164112987
 30
0.0
 11
1024.750000000004
 21
-1119.147164112987
 31
0.0
  0
LINE
  5
22A
330
1F
100
AcDbEntity
  8
Graypants_Roest_150h
370
    -3
100
AcDbLine
 10
1012.000000000004
 20
-1119.147164112987
 30
0.0
 11
1009.000000000004
 21
-1119.147164112987
 31
0.0
  0
LINE
  5
22B
330
1F
100
AcDbEntity
  8
Graypants_Roest_150h
370
    -3
100
AcDbLine
 10
996.2500000000042
 20
-1119.147164112987
 30
0.0
 11
993.2500000000042
 21
-1119.147164112987
 31
0.0
  0
LINE
  5
22C
330
1F
100
AcDbEntity
  8
Graypants_Roest_150h
370
    -3
100
AcDbLine
 10
980.5000000000042
 20
-1119.147164112987
 30
0.0
 11
977.5000000000042
 21
-1119.147164112987
 31
0.0
  0
LINE
  5
22D
330
1F
100
AcDbEntity
  8
Graypants_Roest_150h
370
    -3
100
AcDbLine
 10
964.7500000000044
 20
-1119.147164112987
 30
0.0
 11
961.7500000000042
 21
-1119.147164112987
 31
0.0
  0
LINE
  5
22E
330
1F
100
AcDbEntity
  8
Graypants_Roest_150h
370
    -3
100
AcDbLine
 10
949.0000000000044
 20
-1119.147164112987
 30
0.0
 11
946.0000000000042
 21
-1119.147164112987
 31
0.0
  0
LINE
  5
22F
330
1F
100
AcDbEntity
  8
Graypants_Roest_150h
370
    -3
100
AcDbLine
 10
933.2500000000044
 20
-1119.147164112987
 30
0.0
 11
930.2500000000042
 21
-1119.147164112987
 31
0.0
  0
LINE
  5
230
330
1F
100
AcDbEntity
  8
Graypants_Roest_150h
370
    -3
100
AcDbLine
 10
917.5000000000044
 20
-1119.147164112987
 30
0.0
 11
914.5000000000042
 21
-1119.147164112987
 31
0.0
  0
LINE
  5
231
330
1F
100
AcDbEntity
  8
Graypants_Roest_150h
370
    -3
100
AcDbLine
 10
901.7500000000044
 20
-1119.147164112987
 30
0.0
 11
898.7500000000042
 21
-1119.147164112987
 31
0.0
  0
LINE
  5
232
330
1F
100
AcDbEntity
  8
Graypants_Roest_150h
370
    -3
100
AcDbLine
 10
886.0000000000044
 20
-1119.147164112987
 30
0.0
 11
883.0000000000042
 21
-1119.147164112987
 31
0.0
  0
LINE
  5
233
330
1F
100
AcDbEntity
  8
Graypants_Roest_150h
370
    -3
100
AcDbLine
 10
870.2500000000044
 20
-1119.147164112987
 30
0.0
 11
867.2500000000042
 21
-1119.147164112987
 31
0.0
  0
LINE
  5
234
330
1F
100
AcDbEntity
  8
Graypants_Roest_150h
370
    -3
100
AcDbLine
 10
854.5000000000044
 20
-1119.147164112987
 30
0.0
 11
851.5000000000044
 21
-1119.147164112987
 31
0.0
  0
LINE
  5
235
330
1F
100
AcDbEntity
  8
Graypants_Roest_150h
370
    -3
100
AcDbLine
 10
838.7500000000044
 20
-1119.147164112987
 30
0.0
 11
835.7500000000044
 21
-1119.147164112987
 31
0.0
  0
LINE
  5
236
330
1F
100
AcDbEntity
  8
Graypants_Roest_150h
370
    -3
100
AcDbLine
 10
823.0000000000044
 20
-1119.147164112987
 30
0.0
 11
820.0000000000044
 21
-1119.147164112987
 31
0.0
  0
LINE
  5
237
330
1F
100
AcDbEntity
  8
Graypants_Roest_150h
370
    -3
100
AcDbLine
 10
807.2500000000044
 20
-1119.147164112987
 30
0.0
 11
804.2500000000044
 21
-1119.147164112987
 31
0.0
  0
LINE
  5
238
330
1F
100
AcDbEntity
  8
Graypants_Roest_150h
370
    -3
100
AcDbLine
 10
791.5000000000044
 20
-1119.147164112987
 30
0.0
 11
788.5000000000044
 21
-1119.147164112987
 31
0.0
  0
LINE
  5
239
330
1F
100
AcDbEntity
  8
Graypants_Roest_150h
370
    -3
100
AcDbLine
 10
775.7500000000044
 20
-1119.147164112987
 30
0.0
 11
772.7500000000044
 21
-1119.147164112987
 31
0.0
  0
LINE
  5
23A
330
1F
100
AcDbEntity
  8
Graypants_Roest_150h
370
    -3
100
AcDbLine
 10
760.0000000000044
 20
-1119.147164112987
 30
0.0
 11
757.0000000000044
 21
-1119.147164112987
 31
0.0
  0
LINE
  5
23B
330
1F
100
AcDbEntity
  8
Graypants_Roest_150h
370
    -3
100
AcDbLine
 10
744.2500000000044
 20
-1119.147164112987
 30
0.0
 11
741.2500000000044
 21
-1119.147164112987
 31
0.0
  0
LINE
  5
23C
330
1F
100
AcDbEntity
  8
Graypants_Roest_150h
370
    -3
100
AcDbLine
 10
728.5000000000044
 20
-1119.147164112987
 30
0.0
 11
725.5000000000044
 21
-1119.147164112987
 31
0.0
  0
LINE
  5
23D
330
1F
100
AcDbEntity
  8
Graypants_Roest_150h
370
    -3
100
AcDbLine
 10
712.7500000000044
 20
-1119.147164112987
 30
0.0
 11
709.7500000000044
 21
-1119.147164112987
 31
0.0
  0
LINE
  5
23E
330
1F
100
AcDbEntity
  8
Graypants_Roest_150h
370
    -3
100
AcDbLine
 10
697.0000000000044
 20
-1119.147164112987
 30
0.0
 11
694.0000000000044
 21
-1119.147164112987
 31
0.0
  0
LINE
  5
23F
330
1F
100
AcDbEntity
  8
Graypants_Roest_150h
370
    -3
100
AcDbLine
 10
681.2500000000044
 20
-1119.147164112987
 30
0.0
 11
678.2500000000044
 21
-1119.147164112987
 31
0.0
  0
LINE
  5
240
330
1F
100
AcDbEntity
  8
Graypants_Roest_150h
370
    -3
100
AcDbLine
 10
665.5000000000044
 20
-1119.147164112987
 30
0.0
 11
662.5000000000044
 21
-1119.147164112987
 31
0.0
  0
LINE
  5
241
330
1F
100
AcDbEntity
  8
Graypants_Roest_150h
370
    -3
100
AcDbLine
 10
649.7500000000044
 20
-1119.147164112987
 30
0.0
 11
646.7500000000044
 21
-1119.147164112987
 31
0.0
  0
LINE
  5
242
330
1F
100
AcDbEntity
  8
Graypants_Roest_150h
370
    -3
100
AcDbLine
 10
634.0000000000044
 20
-1119.147164112987
 30
0.0
 11
631.0000000000044
 21
-1119.147164112987
 31
0.0
  0
LINE
  5
243
330
1F
100
AcDbEntity
  8
Graypants_Roest_150h
370
    -3
100
AcDbLine
 10
618.2500000000044
 20
-1119.147164112987
 30
0.0
 11
615.2500000000044
 21
-1119.147164112987
 31
0.0
  0
LINE
  5
244
330
1F
100
AcDbEntity
  8
Graypants_Roest_150h
370
    -3
100
AcDbLine
 10
602.5000000000044
 20
-1119.147164112987
 30
0.0
 11
599.5000000000044
 21
-1119.147164112987
 31
0.0
  0
LINE
  5
245
330
1F
100
AcDbEntity
  8
Graypants_Roest_150h
370
    -3
100
AcDbLine
 10
586.7500000000042
 20
-1119.147164112987
 30
0.0
 11
583.7500000000042
 21
-1119.147164112987
 31
0.0
  0
LINE
  5
246
330
1F
100
AcDbEntity
  8
Graypants_Roest_150h
370
    -3
100
AcDbLine
 10
571.0000000000047
 20
-1119.147164112987
 30
0.0
 11
568.0000000000042
 21
-1119.147164112987
 31
0.0
  0
LINE
  5
247
330
1F
100
AcDbEntity
  8
Graypants_Roest_150h
370
    -3
100
AcDbLine
 10
555.2500000000042
 20
-1119.147164112987
 30
0.0
 11
552.2500000000042
 21
-1119.147164112987
 31
0.0
  0
LINE
  5
248
330
1F
100
AcDbEntity
  8
Graypants_Roest_150h
370
    -3
100
AcDbLine
 10
539.5000000000042
 20
-1119.147164112987
 30
0.0
 11
536.5000000000042
 21
-1119.147164112987
 31
0.0
  0
LINE
  5
249
330
1F
100
AcDbEntity
  8
Graypants_Roest_150h
370
    -3
100
AcDbLine
 10
523.7500000000042
 20
-1119.147164112987
 30
0.0
 11
520.7500000000042
 21
-1119.147164112987
 31
0.0
  0
LINE
  5
24A
330
1F
100
AcDbEntity
  8
Graypants_Roest_150h
370
    -3
100
AcDbLine
 10
508.0000000000042
 20
-1119.147164112987
 30
0.0
 11
505.0000000000042
 21
-1119.147164112987
 31
0.0
  0
LINE
  5
24B
330
1F
100
AcDbEntity
  8
Graypants_Roest_150h
370
    -3
100
AcDbLine
 10
492.2500000000042
 20
-1119.147164112987
 30
0.0
 11
489.2500000000042
 21
-1119.147164112987
 31
0.0
  0
LINE
  5
24C
330
1F
100
AcDbEntity
  8
Graypants_Roest_150h
370
    -3
100
AcDbLine
 10
476.5000000000042
 20
-1119.147164112987
 30
0.0
 11
473.5000000000044
 21
-1119.147164112987
 31
0.0
  0
LINE
  5
24D
330
1F
100
AcDbEntity
  8
Graypants_Roest_150h
370
    -3
100
AcDbLine
 10
460.7500000000042
 20
-1119.147164112987
 30
0.0
 11
457.7500000000044
 21
-1119.147164112987
 31
0.0
  0
LINE
  5
24E
330
1F
100
AcDbEntity
  8
Graypants_Roest_150h
370
    -3
100
AcDbLine
 10
445.0000000000044
 20
-1119.147164112987
 30
0.0
 11
442.0000000000044
 21
-1119.147164112987
 31
0.0
  0
LINE
  5
24F
330
1F
100
AcDbEntity
  8
Graypants_Roest_150h
370
    -3
100
AcDbLine
 10
429.2500000000044
 20
-1119.147164112987
 30
0.0
 11
426.2500000000044
 21
-1119.147164112987
 31
0.0
  0
LINE
  5
250
330
1F
100
AcDbEntity
  8
Graypants_Roest_150h
370
    -3
100
AcDbLine
 10
413.5000000000047
 20
-1119.147164112987
 30
0.0
 11
410.5000000000044
 21
-1119.147164112987
 31
0.0
  0
LINE
  5
251
330
1F
100
AcDbEntity
  8
Graypants_Roest_150h
370
    -3
100
AcDbLine
 10
397.7500000000047
 20
-1119.147164112987
 30
0.0
 11
394.7500000000044
 21
-1119.147164112987
 31
0.0
  0
LINE
  5
252
330
1F
100
AcDbEntity
  8
Graypants_Roest_150h
370
    -3
100
AcDbLine
 10
382.0000000000044
 20
-1119.147164112987
 30
0.0
 11
379.0000000000044
 21
-1119.147164112987
 31
0.0
  0
LINE
  5
253
330
1F
100
AcDbEntity
  8
Graypants_Roest_150h
370
    -3
100
AcDbLine
 10
366.2500000000044
 20
-1119.147164112987
 30
0.0
 11
363.2500000000044
 21
-1119.147164112987
 31
0.0
  0
LINE
  5
254
330
1F
100
AcDbEntity
  8
Graypants_Roest_150h
370
    -3
100
AcDbLine
 10
350.5000000000044
 20
-1119.147164112987
 30
0.0
 11
347.5000000000044
 21
-1119.147164112987
 31
0.0
  0
LINE
  5
255
330
1F
100
AcDbEntity
  8
Graypants_Roest_150h
370
    -3
100
AcDbLine
 10
334.7500000000047
 20
-1119.147164112987
 30
0.0
 11
331.7500000000044
 21
-1119.147164112987
 31
0.0
  0
LINE
  5
256
330
1F
100
AcDbEntity
  8
Graypants_Roest_150h
370
    -3
100
AcDbLine
 10
319.0000000000047
 20
-1119.147164112987
 30
0.0
 11
316.0000000000042
 21
-1119.147164112987
 31
0.0
  0
LINE
  5
257
330
1F
100
AcDbEntity
  8
Graypants_Roest_150h
370
    -3
100
AcDbLine
 10
303.2500000000047
 20
-1119.147164112987
 30
0.0
 11
300.2500000000042
 21
-1119.147164112987
 31
0.0
  0
LINE
  5
258
330
1F
100
AcDbEntity
  8
Graypants_Roest_150h
370
    -3
100
AcDbLine
 10
287.5000000000047
 20
-1119.147164112987
 30
0.0
 11
284.5000000000044
 21
-1119.147164112987
 31
0.0
  0
LINE
  5
259
330
1F
100
AcDbEntity
  8
Graypants_Roest_150h
370
    -3
100
AcDbLine
 10
271.7500000000047
 20
-1119.147164112987
 30
0.0
 11
268.7500000000044
 21
-1119.147164112987
 31
0.0
  0
LINE
  5
25A
330
1F
100
AcDbEntity
  8
Graypants_Roest_150h
370
    -3
100
AcDbLine
 10
256.0000000000044
 20
-1119.147164112987
 30
0.0
 11
253.0000000000044
 21
-1119.147164112987
 31
0.0
  0
LINE
  5
25B
330
1F
100
AcDbEntity
  8
Graypants_Roest_150h
370
    -3
100
AcDbLine
 10
240.2500000000047
 20
-1119.147164112987
 30
0.0
 11
237.2500000000044
 21
-1119.147164112987
 31
0.0
  0
LINE
  5
25C
330
1F
100
AcDbEntity
  8
Graypants_Roest_150h
370
    -3
100
AcDbLine
 10
224.5000000000047
 20
-1119.147164112987
 30
0.0
 11
221.5000000000044
 21
-1119.147164112987
 31
0.0
  0
LINE
  5
25D
330
1F
100
AcDbEntity
  8
Graypants_Roest_150h
370
    -3
100
AcDbLine
 10
208.7500000000047
 20
-1119.147164112987
 30
0.0
 11
205.7500000000044
 21
-1119.147164112987
 31
0.0
  0
LINE
  5
25E
330
1F
100
AcDbEntity
  8
Graypants_Roest_150h
370
    -3
100
AcDbLine
 10
193.0000000000047
 20
-1119.147164112987
 30
0.0
 11
190.0000000000044
 21
-1119.147164112987
 31
0.0
  0
LINE
  5
25F
330
1F
100
AcDbEntity
  8
Graypants_Roest_150h
370
    -3
100
AcDbLine
 10
176.9999999386119
 20
-1119.147164112987
 30
0.0
 11
-19.99999999999557
 21
-1119.147164112987
 31
0.0
  0
LINE
  5
260
330
1F
100
AcDbEntity
  8
Graypants_Roest_150h
370
    -3
100
AcDbLine
 10
1264.000000000004
 20
-1119.147164112987
 30
0.0
 11
1264.000000000004
 21
-1112.619663980698
 31
0.0
  0
LINE
  5
261
330
1F
100
AcDbEntity
  8
Graypants_Roest_150h
370
    -3
100
AcDbLine
 10
1248.250000000005
 20
-1119.147164112987
 30
0.0
 11
1248.250000000005
 21
-1111.558691100313
 31
0.0
  0
LINE
  5
262
330
1F
100
AcDbEntity
  8
Graypants_Roest_150h
370
    -3
100
AcDbLine
 10
1232.500000000005
 20
-1119.147164112987
 30
0.0
 11
1232.500000000005
 21
-1111.558691100313
 31
0.0
  0
LINE
  5
263
330
1F
100
AcDbEntity
  8
Graypants_Roest_150h
370
    -3
100
AcDbLine
 10
1216.750000000005
 20
-1119.147164112987
 30
0.0
 11
1216.750000000005
 21
-1111.558691100314
 31
0.0
  0
LINE
  5
264
330
1F
100
AcDbEntity
  8
Graypants_Roest_150h
370
    -3
100
AcDbLine
 10
1201.000000000005
 20
-1119.147164112987
 30
0.0
 11
1201.000000000005
 21
-1111.558691100314
 31
0.0
  0
LINE
  5
265
330
1F
100
AcDbEntity
  8
Graypants_Roest_150h
370
    -3
100
AcDbLine
 10
1185.250000000005
 20
-1119.147164112987
 30
0.0
 11
1185.250000000005
 21
-1111.558691100314
 31
0.0
  0
LINE
  5
266
330
1F
100
AcDbEntity
  8
Graypants_Roest_150h
370
    -3
100
AcDbLine
 10
1169.500000000005
 20
-1119.147164112987
 30
0.0
 11
1169.500000000005
 21
-1111.558691100314
 31
0.0
  0
LINE
  5
267
330
1F
100
AcDbEntity
  8
Graypants_Roest_150h
370
    -3
100
AcDbLine
 10
1153.750000000005
 20
-1119.147164112987
 30
0.0
 11
1153.750000000005
 21
-1111.558691100314
 31
0.0
  0
LINE
  5
268
330
1F
100
AcDbEntity
  8
Graypants_Roest_150h
370
    -3
100
AcDbLine
 10
1138.000000000005
 20
-1119.147164112987
 30
0.0
 11
1138.000000000005
 21
-1111.558691100314
 31
0.0
  0
LINE
  5
269
330
1F
100
AcDbEntity
  8
Graypants_Roest_150h
370
    -3
100
AcDbLine
 10
1122.250000000005
 20
-1119.147164112987
 30
0.0
 11
1122.250000000005
 21
-1111.558691100314
 31
0.0
  0
LINE
  5
26A
330
1F
100
AcDbEntity
  8
Graypants_Roest_150h
370
    -3
100
AcDbLine
 10
1106.500000000005
 20
-1119.147164112987
 30
0.0
 11
1106.500000000005
 21
-1111.558691100314
 31
0.0
  0
LINE
  5
26B
330
1F
100
AcDbEntity
  8
Graypants_Roest_150h
370
    -3
100
AcDbLine
 10
1090.750000000005
 20
-1119.147164112987
 30
0.0
 11
1090.750000000005
 21
-1111.558691100314
 31
0.0
  0
LINE
  5
26C
330
1F
100
AcDbEntity
  8
Graypants_Roest_150h
370
    -3
100
AcDbLine
 10
1075.000000000005
 20
-1119.147164112987
 30
0.0
 11
1075.000000000005
 21
-1111.558691100314
 31
0.0
  0
LINE
  5
26D
330
1F
100
AcDbEntity
  8
Graypants_Roest_150h
370
    -3
100
AcDbLine
 10
1059.250000000005
 20
-1119.147164112987
 30
0.0
 11
1059.250000000005
 21
-1111.558691100314
 31
0.0
  0
LINE
  5
26E
330
1F
100
AcDbEntity
  8
Graypants_Roest_150h
370
    -3
100
AcDbLine
 10
1043.500000000005
 20
-1119.147164112987
 30
0.0
 11
1043.500000000005
 21
-1111.558691100314
 31
0.0
  0
LINE
  5
26F
330
1F
100
AcDbEntity
  8
Graypants_Roest_150h
370
    -3
100
AcDbLine
 10
1027.750000000005
 20
-1119.147164112987
 30
0.0
 11
1027.750000000005
 21
-1111.558691100315
 31
0.0
  0
LINE
  5
270
330
1F
100
AcDbEntity
  8
Graypants_Roest_150h
370
    -3
100
AcDbLine
 10
1012.000000000004
 20
-1119.147164112987
 30
0.0
 11
1012.000000000004
 21
-1111.558691100315
 31
0.0
  0
LINE
  5
271
330
1F
100
AcDbEntity
  8
Graypants_Roest_150h
370
    -3
100
AcDbLine
 10
996.2500000000044
 20
-1119.147164112987
 30
0.0
 11
996.2500000000044
 21
-1111.558691100315
 31
0.0
  0
LINE
  5
272
330
1F
100
AcDbEntity
  8
Graypants_Roest_150h
370
    -3
100
AcDbLine
 10
980.5000000000044
 20
-1119.147164112987
 30
0.0
 11
980.5000000000044
 21
-1111.558691100315
 31
0.0
  0
LINE
  5
273
330
1F
100
AcDbEntity
  8
Graypants_Roest_150h
370
    -3
100
AcDbLine
 10
964.7500000000044
 20
-1119.147164112987
 30
0.0
 11
964.7500000000044
 21
-1111.558691100315
 31
0.0
  0
LINE
  5
274
330
1F
100
AcDbEntity
  8
Graypants_Roest_150h
370
    -3
100
AcDbLine
 10
949.0000000000044
 20
-1119.147164112987
 30
0.0
 11
949.0000000000044
 21
-1111.558691100315
 31
0.0
  0
LINE
  5
275
330
1F
100
AcDbEntity
  8
Graypants_Roest_150h
370
    -3
100
AcDbLine
 10
933.2500000000044
 20
-1119.147164112987
 30
0.0
 11
933.2500000000044
 21
-1111.558691100315
 31
0.0
  0
LINE
  5
276
330
1F
100
AcDbEntity
  8
Graypants_Roest_150h
370
    -3
100
AcDbLine
 10
917.5000000000044
 20
-1119.147164112987
 30
0.0
 11
917.5000000000044
 21
-1111.558691100315
 31
0.0
  0
LINE
  5
277
330
1F
100
AcDbEntity
  8
Graypants_Roest_150h
370
    -3
100
AcDbLine
 10
901.7500000000044
 20
-1119.147164112987
 30
0.0
 11
901.7500000000044
 21
-1111.558691100315
 31
0.0
  0
LINE
  5
278
330
1F
100
AcDbEntity
  8
Graypants_Roest_150h
370
    -3
100
AcDbLine
 10
886.0000000000044
 20
-1119.147164112987
 30
0.0
 11
886.0000000000044
 21
-1111.558691100315
 31
0.0
  0
LINE
  5
279
330
1F
100
AcDbEntity
  8
Graypants_Roest_150h
370
    -3
100
AcDbLine
 10
870.2500000000044
 20
-1119.147164112987
 30
0.0
 11
870.2500000000044
 21
-1111.558691100316
 31
0.0
  0
LINE
  5
27A
330
1F
100
AcDbEntity
  8
Graypants_Roest_150h
370
    -3
100
AcDbLine
 10
854.5000000000044
 20
-1119.147164112987
 30
0.0
 11
854.5000000000044
 21
-1111.558691100316
 31
0.0
  0
LINE
  5
27B
330
1F
100
AcDbEntity
  8
Graypants_Roest_150h
370
    -3
100
AcDbLine
 10
838.7500000000044
 20
-1119.147164112987
 30
0.0
 11
838.7500000000044
 21
-1111.558691100316
 31
0.0
  0
LINE
  5
27C
330
1F
100
AcDbEntity
  8
Graypants_Roest_150h
370
    -3
100
AcDbLine
 10
823.0000000000044
 20
-1119.147164112987
 30
0.0
 11
823.0000000000044
 21
-1111.558691100316
 31
0.0
  0
LINE
  5
27D
330
1F
100
AcDbEntity
  8
Graypants_Roest_150h
370
    -3
100
AcDbLine
 10
807.2500000000044
 20
-1119.147164112987
 30
0.0
 11
807.2500000000044
 21
-1111.558691100316
 31
0.0
  0
LINE
  5
27E
330
1F
100
AcDbEntity
  8
Graypants_Roest_150h
370
    -3
100
AcDbLine
 10
791.5000000000044
 20
-1119.147164112987
 30
0.0
 11
791.5000000000044
 21
-1111.558691100316
 31
0.0
  0
LINE
  5
27F
330
1F
100
AcDbEntity
  8
Graypants_Roest_150h
370
    -3
100
AcDbLine
 10
775.7500000000044
 20
-1119.147164112987
 30
0.0
 11
775.7500000000044
 21
-1111.558691100316
 31
0.0
  0
LINE
  5
280
330
1F
100
AcDbEntity
  8
Graypants_Roest_150h
370
    -3
100
AcDbLine
 10
760.0000000000044
 20
-1119.147164112987
 30
0.0
 11
760.0000000000044
 21
-1111.558691100316
 31
0.0
  0
LINE
  5
281
330
1F
100
AcDbEntity
  8
Graypants_Roest_150h
370
    -3
100
AcDbLine
 10
744.2500000000044
 20
-1119.147164112987
 30
0.0
 11
744.2500000000044
 21
-1111.558691100316
 31
0.0
  0
LINE
  5
282
330
1F
100
AcDbEntity
  8
Graypants_Roest_150h
370
    -3
100
AcDbLine
 10
728.5000000000044
 20
-1119.147164112987
 30
0.0
 11
728.5000000000044
 21
-1111.558691100317
 31
0.0
  0
LINE
  5
283
330
1F
100
AcDbEntity
  8
Graypants_Roest_150h
370
    -3
100
AcDbLine
 10
712.7500000000044
 20
-1119.147164112987
 30
0.0
 11
712.7500000000044
 21
-1111.558691100316
 31
0.0
  0
LINE
  5
284
330
1F
100
AcDbEntity
  8
Graypants_Roest_150h
370
    -3
100
AcDbLine
 10
697.0000000000044
 20
-1119.147164112987
 30
0.0
 11
697.0000000000044
 21
-1111.558691100316
 31
0.0
  0
LINE
  5
285
330
1F
100
AcDbEntity
  8
Graypants_Roest_150h
370
    -3
100
AcDbLine
 10
681.2500000000044
 20
-1119.147164112987
 30
0.0
 11
681.2500000000044
 21
-1111.558691100316
 31
0.0
  0
LINE
  5
286
330
1F
100
AcDbEntity
  8
Graypants_Roest_150h
370
    -3
100
AcDbLine
 10
665.5000000000044
 20
-1119.147164112987
 30
0.0
 11
665.5000000000044
 21
-1111.558691100316
 31
0.0
  0
LINE
  5
287
330
1F
100
AcDbEntity
  8
Graypants_Roest_150h
370
    -3
100
AcDbLine
 10
649.7500000000044
 20
-1119.147164112987
 30
0.0
 11
649.7500000000044
 21
-1111.558691100316
 31
0.0
  0
LINE
  5
288
330
1F
100
AcDbEntity
  8
Graypants_Roest_150h
370
    -3
100
AcDbLine
 10
634.0000000000044
 20
-1119.147164112987
 30
0.0
 11
634.0000000000044
 21
-1111.558691100316
 31
0.0
  0
LINE
  5
289
330
1F
100
AcDbEntity
  8
Graypants_Roest_150h
370
    -3
100
AcDbLine
 10
618.2500000000044
 20
-1119.147164112987
 30
0.0
 11
618.2500000000044
 21
-1111.558691100316
 31
0.0
  0
LINE
  5
28A
330
1F
100
AcDbEntity
  8
Graypants_Roest_150h
370
    -3
100
AcDbLine
 10
602.5000000000044
 20
-1119.147164112987
 30
0.0
 11
602.5000000000044
 21
-1111.558691100316
 31
0.0
  0
LINE
  5
28B
330
1F
100
AcDbEntity
  8
Graypants_Roest_150h
370
    -3
100
AcDbLine
 10
586.7500000000044
 20
-1119.147164112987
 30
0.0
 11
586.7500000000044
 21
-1111.558691100316
 31
0.0
  0
LINE
  5
28C
330
1F
100
AcDbEntity
  8
Graypants_Roest_150h
370
    -3
100
AcDbLine
 10
571.0000000000044
 20
-1119.147164112987
 30
0.0
 11
571.0000000000044
 21
-1111.558691100315
 31
0.0
  0
LINE
  5
28D
330
1F
100
AcDbEntity
  8
Graypants_Roest_150h
370
    -3
100
AcDbLine
 10
555.2500000000044
 20
-1119.147164112987
 30
0.0
 11
555.2500000000044
 21
-1111.558691100315
 31
0.0
  0
LINE
  5
28E
330
1F
100
AcDbEntity
  8
Graypants_Roest_150h
370
    -3
100
AcDbLine
 10
539.5000000000044
 20
-1119.147164112987
 30
0.0
 11
539.5000000000044
 21
-1111.558691100315
 31
0.0
  0
LINE
  5
28F
330
1F
100
AcDbEntity
  8
Graypants_Roest_150h
370
    -3
100
AcDbLine
 10
523.7500000000044
 20
-1119.147164112987
 30
0.0
 11
523.7500000000044
 21
-1111.558691100315
 31
0.0
  0
LINE
  5
290
330
1F
100
AcDbEntity
  8
Graypants_Roest_150h
370
    -3
100
AcDbLine
 10
508.0000000000044
 20
-1119.147164112987
 30
0.0
 11
508.0000000000044
 21
-1111.558691100315
 31
0.0
  0
LINE
  5
291
330
1F
100
AcDbEntity
  8
Graypants_Roest_150h
370
    -3
100
AcDbLine
 10
492.2500000000044
 20
-1119.147164112987
 30
0.0
 11
492.2500000000044
 21
-1111.558691100315
 31
0.0
  0
LINE
  5
292
330
1F
100
AcDbEntity
  8
Graypants_Roest_150h
370
    -3
100
AcDbLine
 10
476.5000000000044
 20
-1119.147164112987
 30
0.0
 11
476.5000000000044
 21
-1111.558691100315
 31
0.0
  0
LINE
  5
293
330
1F
100
AcDbEntity
  8
Graypants_Roest_150h
370
    -3
100
AcDbLine
 10
460.7500000000044
 20
-1119.147164112987
 30
0.0
 11
460.7500000000044
 21
-1111.558691100315
 31
0.0
  0
LINE
  5
294
330
1F
100
AcDbEntity
  8
Graypants_Roest_150h
370
    -3
100
AcDbLine
 10
445.0000000000044
 20
-1119.147164112987
 30
0.0
 11
445.0000000000044
 21
-1111.558691100315
 31
0.0
  0
LINE
  5
295
330
1F
100
AcDbEntity
  8
Graypants_Roest_150h
370
    -3
100
AcDbLine
 10
429.2500000000044
 20
-1119.147164112987
 30
0.0
 11
429.2500000000044
 21
-1111.558691100314
 31
0.0
  0
LINE
  5
296
330
1F
100
AcDbEntity
  8
Graypants_Roest_150h
370
    -3
100
AcDbLine
 10
413.5000000000044
 20
-1119.147164112987
 30
0.0
 11
413.5000000000044
 21
-1111.558691100314
 31
0.0
  0
LINE
  5
297
330
1F
100
AcDbEntity
  8
Graypants_Roest_150h
370
    -3
100
AcDbLine
 10
397.7500000000044
 20
-1119.147164112987
 30
0.0
 11
397.7500000000044
 21
-1111.558691100314
 31
0.0
  0
LINE
  5
298
330
1F
100
AcDbEntity
  8
Graypants_Roest_150h
370
    -3
100
AcDbLine
 10
382.0000000000044
 20
-1119.147164112987
 30
0.0
 11
382.0000000000044
 21
-1111.558691100314
 31
0.0
  0
LINE
  5
299
330
1F
100
AcDbEntity
  8
Graypants_Roest_150h
370
    -3
100
AcDbLine
 10
366.2500000000044
 20
-1119.147164112987
 30
0.0
 11
366.2500000000044
 21
-1111.558691100314
 31
0.0
  0
LINE
  5
29A
330
1F
100
AcDbEntity
  8
Graypants_Roest_150h
370
    -3
100
AcDbLine
 10
350.5000000000044
 20
-1119.147164112987
 30
0.0
 11
350.5000000000044
 21
-1111.558691100314
 31
0.0
  0
LINE
  5
29B
330
1F
100
AcDbEntity
  8
Graypants_Roest_150h
370
    -3
100
AcDbLine
 10
334.7500000000044
 20
-1119.147164112987
 30
0.0
 11
334.7500000000044
 21
-1111.558691100314
 31
0.0
  0
LINE
  5
29C
330
1F
100
AcDbEntity
  8
Graypants_Roest_150h
370
    -3
100
AcDbLine
 10
319.0000000000044
 20
-1119.147164112987
 30
0.0
 11
319.0000000000044
 21
-1111.558691100314
 31
0.0
  0
LINE
  5
29D
330
1F
100
AcDbEntity
  8
Graypants_Roest_150h
370
    -3
100
AcDbLine
 10
303.2500000000044
 20
-1119.147164112987
 30
0.0
 11
303.2500000000044
 21
-1111.558691100314
 31
0.0
  0
LINE
  5
29E
330
1F
100
AcDbEntity
  8
Graypants_Roest_150h
370
    -3
100
AcDbLine
 10
287.5000000000044
 20
-1119.147164112987
 30
0.0
 11
287.5000000000044
 21
-1111.558691100314
 31
0.0
  0
LINE
  5
29F
330
1F
100
AcDbEntity
  8
Graypants_Roest_150h
370
    -3
100
AcDbLine
 10
271.7500000000044
 20
-1119.147164112987
 30
0.0
 11
271.7500000000044
 21
-1111.558691100314
 31
0.0
  0
LINE
  5
2A0
330
1F
100
AcDbEntity
  8
Graypants_Roest_150h
370
    -3
100
AcDbLine
 10
256.0000000000044
 20
-1119.147164112987
 30
0.0
 11
256.0000000000044
 21
-1111.558691100314
 31
0.0
  0
LINE
  5
2A1
330
1F
100
AcDbEntity
  8
Graypants_Roest_150h
370
    -3
100
AcDbLine
 10
240.2500000000044
 20
-1119.147164112987
 30
0.0
 11
240.2500000000044
 21
-1111.558691100313
 31
0.0
  0
LINE
  5
2A2
330
1F
100
AcDbEntity
  8
Graypants_Roest_150h
370
    -3
100
AcDbLine
 10
224.5000000000044
 20
-1119.147164112987
 30
0.0
 11
224.5000000000044
 21
-1111.558691100313
 31
0.0
  0
LINE
  5
2A3
330
1F
100
AcDbEntity
  8
Graypants_Roest_150h
370
    -3
100
AcDbLine
 10
208.7500000000044
 20
-1119.147164112987
 30
0.0
 11
208.7500000000044
 21
-1111.558691100313
 31
0.0
  0
LINE
  5
2A4
330
1F
100
AcDbEntity
  8
Graypants_Roest_150h
370
    -3
100
AcDbLine
 10
193.0000000000044
 20
-1119.147164112987
 30
0.0
 11
193.0000000000044
 21
-1111.910533572759
 31
0.0
  0
POLYLINE
  5
2A5
330
1F
100
AcDbEntity
  8
Graypants_Roest_150h
370
    -3
100
AcDb2dPolyline
 66
     1
 10
0.0
 20
0.0
 30
0.0
  0
VERTEX
  5
2A6
330
2A5
100
AcDbEntity
  8
Graypants_Roest_150h
370
    -3
100
AcDbVertex
100
AcDb2dVertex
 10
177.0000386245409
 20
-1119.147138491418
 30
0.0
  0
VERTEX
  5
2A7
330
2A5
100
AcDbEntity
  8
Graypants_Roest_150h
370
    -3
100
AcDbVertex
100
AcDb2dVertex
 10
177.9855934153851
 20
-1118.502590016797
 30
0.0
  0
VERTEX
  5
2A8
330
2A5
100
AcDbEntity
  8
Graypants_Roest_150h
370
    -3
100
AcDbVertex
100
AcDb2dVertex
 10
179.1525876115246
 20
-1117.764378593441
 30
0.0
  0
VERTEX
  5
2A9
330
2A5
100
AcDbEntity
  8
Graypants_Roest_150h
370
    -3
100
AcDbVertex
100
AcDb2dVertex
 10
179.8902851648489
 20
-1117.312616462196
 30
0.0
  0
VERTEX
  5
2AA
330
2A5
100
AcDbEntity
  8
Graypants_Roest_150h
370
    -3
100
AcDbVertex
100
AcDb2dVertex
 10
180.7144102093116
 20
-1116.822385313019
 30
0.0
  0
VERTEX
  5
2AB
330
2A5
100
AcDbEntity
  8
Graypants_Roest_150h
370
    -3
100
AcDbVertex
100
AcDb2dVertex
 10
181.6183309498306
 20
-1116.303125304121
 30
0.0
  0
VERTEX
  5
2AC
330
2A5
100
AcDbEntity
  8
Graypants_Roest_150h
370
    -3
100
AcDbVertex
100
AcDb2dVertex
 10
182.6015496318307
 20
-1115.761653142385
 30
0.0
  0
VERTEX
  5
2AD
330
2A5
100
AcDbEntity
  8
Graypants_Roest_150h
370
    -3
100
AcDbVertex
100
AcDb2dVertex
 10
183.6650593740009
 20
-1115.204856523786
 30
0.0
  0
VERTEX
  5
2AE
330
2A5
100
AcDbEntity
  8
Graypants_Roest_150h
370
    -3
100
AcDbVertex
100
AcDb2dVertex
 10
184.8058268198441
 20
-1114.643223450588
 30
0.0
  0
VERTEX
  5
2AF
330
2A5
100
AcDbEntity
  8
Graypants_Roest_150h
370
    -3
100
AcDbVertex
100
AcDb2dVertex
 10
185.3990553312401
 20
-1114.366482886191
 30
0.0
  0
VERTEX
  5
2B0
330
2A5
100
AcDbEntity
  8
Graypants_Roest_150h
370
    -3
100
AcDbVertex
100
AcDb2dVertex
 10
186.0073861175256
 20
-1114.094103361372
 30
0.0
  0
VERTEX
  5
2B1
330
2A5
100
AcDbEntity
  8
Graypants_Roest_150h
370
    -3
100
AcDbVertex
100
AcDb2dVertex
 10
186.6311860813511
 20
-1113.827241076186
 30
0.0
  0
VERTEX
  5
2B2
330
2A5
100
AcDbEntity
  8
Graypants_Roest_150h
370
    -3
100
AcDbVertex
100
AcDb2dVertex
 10
187.2708221253672
 20
-1113.567052230688
 30
0.0
  0
VERTEX
  5
2B3
330
2A5
100
AcDbEntity
  8
Graypants_Roest_150h
370
    -3
100
AcDbVertex
100
AcDb2dVertex
 10
187.9267193717351
 20
-1113.314721479223
 30
0.0
  0
VERTEX
  5
2B4
330
2A5
100
AcDbEntity
  8
Graypants_Roest_150h
370
    -3
100
AcDbVertex
100
AcDb2dVertex
 10
188.5996365535734
 20
-1113.071687931587
 30
0.0
  0
VERTEX
  5
2B5
330
2A5
100
AcDbEntity
  8
Graypants_Roest_150h
370
    -3
100
AcDbVertex
100
AcDb2dVertex
 10
189.2904409899679
 20
-1112.839489471004
 30
0.0
  0
VERTEX
  5
2B6
330
2A5
100
AcDbEntity
  8
Graypants_Roest_150h
370
    -3
100
AcDbVertex
100
AcDb2dVertex
 10
190.0000000000047
 20
-1112.619663980698
 30
0.0
  0
SEQEND
  5
2B7
330
2A5
100
AcDbEntity
  8
Graypants_Roest_150h
370
    -3
  0
ARC
  5
2B8
330
1F
100
AcDbEntity
  8
Graypants_Roest_150h
370
    -3
100
AcDbCircle
 10
14.99999999867339
 20
-1028.763571439736
 30
0.0
 40
30.15000079816854
210
0.0
220
0.0
230
-1.0
100
AcDbArc
 50
266.196492115231
 51
273.8035066440769
  0
ARC
  5
2B9
330
1F
100
AcDbEntity
  8
Graypants_Roest_150h
370
    -3
100
AcDbCircle
 10
-1469.000000001326
 20
-1028.763571439638
 30
0.0
 40
30.15000079826701
210
0.0
220
0.0
230
-1.0
100
AcDbArc
 50
266.1964921152434
 51
273.8035066440642
  0
LINE
  5
2BA
330
1F
100
AcDbEntity
  8
Graypants_Roest_150h
370
    -3
100
AcDbLine
 10
17.24999999987688
 20
-449.8637524242974
 30
0.0
 11
17.24999999987688
 21
-450.816252424464
 31
0.0
  0
LINE
  5
2BB
330
1F
100
AcDbEntity
  8
Graypants_Roest_150h
370
    -3
100
AcDbLine
 10
0.4999999999996408
 20
-449.8637524242973
 30
0.0
 11
0.4999999999996408
 21
-450.8162524245209
 31
0.0
  0
LINE
  5
2BC
330
1F
100
AcDbEntity
  8
Graypants_Roest_150h
370
    -3
100
AcDbLine
 10
17.24999999987688
 20
-450.816252424464
 30
0.0
 11
17.24999999987688
 21
-1059.179618201812
 31
0.0
  0
LINE
  5
2BD
330
1F
100
AcDbEntity
  8
Graypants_Roest_150h
370
    -3
100
AcDbLine
 10
12.74999999987688
 20
-450.8162524244792
 30
0.0
 11
12.74999999987688
 21
-449.8637524242974
 31
0.0
  0
LINE
  5
2BE
330
1F
100
AcDbEntity
  8
Graypants_Roest_150h
370
    -3
100
AcDbLine
 10
0.4999999999996408
 20
-450.8162524245209
 30
0.0
 11
0.4999999999996408
 21
-1058.85960284614
 31
0.0
  0
LINE
  5
2BF
330
1F
100
AcDbEntity
  8
Graypants_Roest_150h
370
    -3
100
AcDbLine
 10
-0.5000000000004537
 20
-450.8162524245212
 30
0.0
 11
-0.5000000000004536
 21
-449.8637524242974
 31
0.0
  0
LINE
  5
2C0
330
1F
100
AcDbEntity
  8
Graypants_Roest_150h
370
    -3
100
AcDbLine
 10
12.74999999987688
 20
-1059.179622238884
 30
0.0
 11
12.74999999987688
 21
-450.8162524244792
 31
0.0
  0
LINE
  5
2C1
330
1F
100
AcDbEntity
  8
Graypants_Roest_150h
370
    -3
100
AcDbLine
 10
-0.5000000000004536
 20
-1058.85960015719
 30
0.0
 11
-0.5000000000004536
 21
-450.8162524245211
 31
0.0
  0
ARC
  5
2C2
330
1F
100
AcDbEntity
  8
Graypants_Roest_150h
370
    -3
100
AcDbCircle
 10
-15.00000000792552
 20
-1029.114648273265
 30
0.0
 40
30.14999996867743
210
0.0
220
0.0
230
-1.0
100
AcDbArc
 50
260.4541112338912
 51
279.5458870416021
  0
ARC
  5
2C3
330
1F
100
AcDbEntity
  8
Graypants_Roest_150h
370
    -3
100
AcDbCircle
 10
-0.0000000012332251
 20
-1028.713725585562
 30
0.0
 40
30.15002682400428
210
0.0
220
0.0
230
-1.0
100
AcDbArc
 50
268.0992955688242
 51
271.900703775525
  0
ARC
  5
2C4
330
1F
100
AcDbEntity
  8
Graypants_Roest_150h
370
    -3
100
AcDbCircle
 10
-1454.000000001233
 20
-1028.713725585571
 30
0.0
 40
30.15002682399565
210
0.0
220
0.0
230
-1.0
100
AcDbArc
 50
268.0992955688234
 51
271.900703775525
  0
LINE
  5
2C5
330
1F
100
AcDbEntity
  8
Graypants_Roest_150h
370
    -3
100
AcDbLine
 10
1889.585002424301
 20
-449.8637524242974
 30
0.0
 11
1889.585002424301
 21
-450.816252424285
 31
0.0
  0
LINE
  5
2C6
330
1F
100
AcDbEntity
  8
Graypants_Roest_150h
370
    -3
100
AcDbLine
 10
1885.0850024243
 20
-1058.931024614643
 30
0.0
 11
1885.085002424301
 21
-450.8162524243005
 31
0.0
  0
LINE
  5
2C7
330
1F
100
AcDbEntity
  8
Graypants_Roest_150h
370
    -3
100
AcDbLine
 10
1889.585002424301
 20
-450.816252424285
 30
0.0
 11
1889.5850024243
 21
-1058.931236553705
 31
0.0
  0
LINE
  5
2C8
330
1F
100
AcDbEntity
  8
Graypants_Roest_150h
370
    -3
100
AcDbLine
 10
1885.085002424301
 20
-450.8162036228357
 30
0.0
 11
1885.085002424301
 21
-449.8637524242974
 31
0.0
  0
ARC
  5
2C9
330
1F
100
AcDbEntity
  8
Graypants_Roest_150h
370
    -3
100
AcDbCircle
 10
-1887.3350024243
 20
-1088.997164112987
 30
0.0
 40
30.15000000000009
210
0.0
220
0.0
230
-1.0
100
AcDbArc
 50
180.0000000000004
 51
359.9999999999996
  0
ARC
  5
2CA
330
1F
100
AcDbEntity
  8
Graypants_Roest_150h
370
    -3
100
AcDbCircle
 10
-1887.3350024243
 20
-1088.997164112987
 30
0.0
 40
30.15000000000032
210
0.0
220
0.0
230
-1.0
100
AcDbArc
 50
0.0000000000004321
 51
179.9999999999996
  0
LINE
  5
2CB
330
1F
100
AcDbEntity
  8
Graypants_Roest_150h
370
    -3
100
AcDbLine
 10
-22.99999999999557
 20
30.15000000000282
 30
0.0
 11
-22.99999999999557
 21
-30.14999999999736
 31
0.0
  0
LINE
  5
2CC
330
1F
100
AcDbEntity
  8
Graypants_Roest_150h
370
    -3
100
AcDbLine
 10
1477.000000000005
 20
-30.14999999999736
 30
0.0
 11
1477.000000000005
 21
30.15000000000259
 31
0.0
  0
LINE
  5
2CD
330
1F
100
AcDbEntity
  8
Graypants_Roest_150h
370
    -3
100
AcDbLine
 10
-19.99999999999557
 20
-30.14999999999736
 30
0.0
 11
-22.99999999999557
 21
-30.14999999999736
 31
0.0
  0
LINE
  5
2CE
330
1F
100
AcDbEntity
  8
Graypants_Roest_150h
370
    -3
100
AcDbLine
 10
-22.99999999999557
 20
30.15000000000282
 30
0.0
 11
-19.99999999999557
 21
30.15000000000282
 31
0.0
  0
LINE
  5
2CF
330
1F
100
AcDbEntity
  8
Graypants_Roest_150h
370
    -3
100
AcDbLine
 10
1474.000000000005
 20
30.15000000000259
 30
0.0
 11
1477.000000000005
 21
30.15000000000259
 31
0.0
  0
LINE
  5
2D0
330
1F
100
AcDbEntity
  8
Graypants_Roest_150h
370
    -3
100
AcDbLine
 10
1477.000000000005
 20
-30.14999999999736
 30
0.0
 11
1474.000000000005
 21
-30.14999999999736
 31
0.0
  0
LINE
  5
2D1
330
1F
100
AcDbEntity
  8
Graypants_Roest_150h
370
    -3
100
AcDbLine
 10
1474.000000000005
 20
-30.14999999999736
 30
0.0
 11
62.12683127339676
 21
-30.14999999999736
 31
0.0
  0
LINE
  5
2D2
330
1F
100
AcDbEntity
  8
Graypants_Roest_150h
370
    -3
100
AcDbLine
 10
-19.99999999999557
 20
30.15000000000259
 30
0.0
 11
62.12733335014616
 21
30.15000000000259
 31
0.0
  0
ARC
  5
2D3
330
1F
100
AcDbEntity
  8
Graypants_Roest_150h
370
    -3
100
AcDbCircle
 10
15.00000031539961
 20
-0.0000001603588649
 30
0.0
 40
2.000000353824686
210
0.0
220
0.0
230
-1.0
100
AcDbArc
 50
153.0000000087257
 51
153.0560311246326
  0
ARC
  5
2D4
330
1F
100
AcDbEntity
  8
Graypants_Roest_150h
370
    -3
100
AcDbCircle
 10
-1468.999996269162
 20
-0.0000018995232267
 30
0.0
 40
2.000004186571115
210
0.0
220
0.0
230
-1.0
100
AcDbArc
 50
153.0000000365774
 51
153.0560310450127
  0
CIRCLE
  5
2D5
330
1F
100
AcDbEntity
  8
Graypants_Roest_150h
370
    -3
100
AcDbCircle
 10
-0.0000002182052657
 20
0.0000003283640597
 30
0.0
 40
0.9999996716386925
210
0.0
220
0.0
230
-1.0
  0
ARC
  5
2D6
330
1F
100
AcDbEntity
  8
Graypants_Roest_150h
370
    -3
100
AcDbCircle
 10
-1454.000000000005
 20
-0.0000000000454747
 30
0.0
 40
7.999999999999773
210
0.0
220
0.0
230
-1.0
100
AcDbArc
 50
179.9999999999984
 51
0.0000000000016214
  0
ARC
  5
2D7
330
1F
100
AcDbEntity
  8
Graypants_Roest_150h
370
    -3
100
AcDbCircle
 10
-1454.000000000005
 20
-0.0000000000454747
 30
0.0
 40
8.000000000000227
210
0.0
220
0.0
230
-1.0
100
AcDbArc
 50
0.0000000000016284
 51
179.9999999999984
  0
ARC
  5
2D8
330
1F
100
AcDbEntity
  8
Graypants_Roest_150h
370
    -3
100
AcDbCircle
 10
-1453.999999999751
 20
-0.00000000004502
 30
0.0
 40
0.9999999999997726
210
0.0
220
0.0
230
-1.0
100
AcDbArc
 50
89.99999999998697
 51
270.000000000013
  0
ARC
  5
2D9
330
1F
100
AcDbEntity
  8
Graypants_Roest_150h
370
    -3
100
AcDbCircle
 10
-1453.99999999975
 20
-0.0000000000454747
 30
0.0
 40
0.9999999999997726
210
0.0
220
0.0
230
-1.0
100
AcDbArc
 50
269.999999999974
 51
90.00000000002606
  0
ARC
  5
2DA
330
1F
100
AcDbEntity
  8
Graypants_Roest_150h
370
    -3
100
AcDbCircle
 10
-1454.000000000005
 20
-0.0000000000454747
 30
0.0
 40
5.999999999999773
210
0.0
220
0.0
230
-1.0
100
AcDbArc
 50
179.9999999999978
 51
0.0000000000021727
  0
ARC
  5
2DB
330
1F
100
AcDbEntity
  8
Graypants_Roest_150h
370
    -3
100
AcDbCircle
 10
1454.000000000005
 20
-0.0000000000447926
 30
0.0
 40
5.999999999999773
100
AcDbArc
 50
359.9999999999957
 51
180.0000000000043
  0
ARC
  5
2DC
330
1F
100
AcDbEntity
  8
Graypants_Roest_150h
370
    -3
100
AcDbCircle
 10
0.0000000000004547
 20
0.0000000000001137
 30
0.0
 40
0.4999999999998798
210
0.0
220
0.0
230
-1.0
100
AcDbArc
 50
169.6244259178549
 51
349.6244259178548
  0
ARC
  5
2DD
330
1F
100
AcDbEntity
  8
Graypants_Roest_150h
370
    -3
100
AcDbCircle
 10
0.0000000000004585
 20
0.0000000000001338
 30
0.0
 40
0.5000000000001033
210
0.0
220
0.0
230
-1.0
100
AcDbArc
 50
349.6244259178572
 51
169.6244259178619
  0
CIRCLE
  5
2DE
330
1F
100
AcDbEntity
  8
Graypants_Roest_150h
370
    -3
100
AcDbCircle
 10
-14.99999999987688
 20
0.0000000000038654
 30
0.0
 40
2.25
210
0.0
220
0.0
230
-1.0
  0
ARC
  5
2DF
330
1F
100
AcDbEntity
  8
Graypants_Roest_150h
370
    -3
100
AcDbCircle
 10
-15.00038700502548
 20
-0.0001159457143807
 30
0.0
 40
4.999612987866028
210
0.0
220
0.0
230
-1.0
100
AcDbArc
 50
179.9986712476081
 51
243.0142292405484
  0
LINE
  5
2E0
330
1F
100
AcDbEntity
  8
Graypants_Roest_150h
370
    -3
100
AcDbLine
 10
62.12683127339676
 20
-30.14999999999736
 30
0.0
 11
-19.99999999999557
 21
-30.14999999999736
 31
0.0
  0
LINE
  5
2E1
330
1F
100
AcDbEntity
  8
Graypants_Roest_150h
370
    -3
100
AcDbLine
 10
62.12733335014616
 20
30.15000000000259
 30
0.0
 11
1474.000000000005
 21
30.15000000000259
 31
0.0
  0
LINE
  5
2E2
330
1F
100
AcDbEntity
  8
Graypants_Roest_150h
370
    -3
100
AcDbLine
 10
10.54513766059154
 20
-2.270405005333259
 30
0.0
 11
10.54474203684867
 21
-2.269628381975508
 31
0.0
  0
CIRCLE
  5
2E3
330
1F
100
AcDbEntity
  8
Graypants_Roest_150h
370
    -3
100
AcDbCircle
 10
14.99999999372625
 20
0.0000000113407928
 30
0.0
 40
1.999999988661936
210
0.0
220
0.0
230
-1.0
  0
ARC
  5
2E4
330
1F
100
AcDbEntity
  8
Graypants_Roest_150h
370
    -3
100
AcDbCircle
 10
-14.99987661013279
 20
-0.0000094454201266
 30
0.0
 40
4.999939510337422
210
0.0
220
0.0
230
-1.0
100
AcDbArc
 50
243.0095710813554
 51
332.9939484100349
  0
ARC
  5
2E5
330
1F
100
AcDbEntity
  8
Graypants_Roest_150h
370
    -3
100
AcDbCircle
 10
-14.99998264716024
 20
-0.0000459202640748
 30
0.0
 40
5.00001734459767
210
0.0
220
0.0
230
-1.0
100
AcDbArc
 50
333.0048601614354
 51
179.9994737848345
  0
ARC
  5
2E6
330
1F
100
AcDbEntity
  8
Graypants_Roest_150h
370
    -3
100
AcDbCircle
 10
-1453.999999999751
 20
-0.0000000000452474
 30
0.0
 40
0.4999999999997883
210
0.0
220
0.0
230
-1.0
100
AcDbArc
 50
169.6244259178397
 51
349.6244259178645
  0
ARC
  5
2E7
330
1F
100
AcDbEntity
  8
Graypants_Roest_150h
370
    -3
100
AcDbCircle
 10
-14.99998532552399
 20
-0.000007476606239
 30
0.0
 40
4.999983530607031
210
0.0
220
0.0
230
-1.0
100
AcDbArc
 50
332.9944939976251
 51
332.9999999956376
  0
ARC
  5
2E8
330
1F
100
AcDbEntity
  8
Graypants_Roest_150h
370
    -3
100
AcDbCircle
 10
1453.999999999749
 20
-0.0000000000443663
 30
0.0
 40
0.4999999999983566
100
AcDbArc
 50
116.9999999998639
 51
190.3755740822866
  0
ARC
  5
2E9
330
1F
100
AcDbEntity
  8
Graypants_Roest_150h
370
    -3
100
AcDbCircle
 10
-1453.99999999975
 20
-0.0000000000452206
 30
0.0
 40
0.5000000000001493
210
0.0
220
0.0
230
-1.0
100
AcDbArc
 50
63.00000000000689
 51
169.6244259178537
  0
CIRCLE
  5
2EA
330
1F
100
AcDbEntity
  8
Graypants_Roest_150h
370
    -3
100
AcDbCircle
 10
-1469.000000006273
 20
0.0000000113408155
 30
0.0
 40
1.999999988661913
210
0.0
220
0.0
230
-1.0
  0
ENDSEC
  0
SECTION
  2
OBJECTS
  0
DICTIONARY
  5
C
330
0
100
AcDbDictionary
281
     1
  3
ACAD_DETAILVIEWSTYLE
350
326
  3
ACAD_GROUP
350
D
  3
ACAD_LAYOUT
350
1A
  3
ACAD_MATERIAL
350
43
  3
ACAD_MLEADERSTYLE
350
6B
  3
ACAD_MLINESTYLE
350
17
  3
ACAD_PLOTSETTINGS
350
19
  3
ACAD_PLOTSTYLENAME
350
E
  3
ACAD_SCALELIST
350
47
  3
ACAD_SECTIONVIEWSTYLE
350
327
  3
ACAD_TABLESTYLE
350
69
  3
ACAD_VISUALSTYLE
350
2A
  3
AcDbVariableDictionary
350
2EB
  3
ACDB_RECOMPOSE_DATA
350
323
  0
SUN
  5
6D
330
29
100
AcDbSun
 90
        1
290
     0
 63
     7
421
 16777215
 40
1.0
291
     1
 91
  2455826
 92
 54000000
292
     0
 70
     2
 71
   256
280
     1
  0
DICTIONARY
  5
326
102
{ACAD_REACTORS
330
C
102
}
330
C
100
AcDbDictionary
281
     1
  0
DICTIONARY
  5
D
102
{ACAD_REACTORS
330
C
102
}
330
C
100
AcDbDictionary
281
     1
  0
DICTIONARY
  5
1A
102
{ACAD_REACTORS
330
C
102
}
330
C
100
AcDbDictionary
281
     1
  3
Layout1
350
1E
  3
Layout2
350
26
  3
Model
350
22
  0
DICTIONARY
  5
43
102
{ACAD_REACTORS
330
C
102
}
330
C
100
AcDbDictionary
281
     1
  3
ByBlock
350
45
  3
ByLayer
350
44
  3
Global
350
46
  0
DICTIONARY
  5
6B
102
{ACAD_REACTORS
330
C
102
}
330
C
100
AcDbDictionary
281
     1
  3
Standard
350
6C
  0
DICTIONARY
  5
17
102
{ACAD_REACTORS
330
C
102
}
330
C
100
AcDbDictionary
281
     1
  3
Standard
350
18
  0
DICTIONARY
  5
19
102
{ACAD_REACTORS
330
C
102
}
330
C
100
AcDbDictionary
281
     1
  0
ACDBDICTIONARYWDFLT
  5
E
102
{ACAD_REACTORS
330
C
102
}
330
C
100
AcDbDictionary
281
     1
  3
Normal
350
F
100
AcDbDictionaryWithDefault
340
F
  0
DICTIONARY
  5
47
102
{ACAD_REACTORS
330
C
102
}
330
C
100
AcDbDictionary
281
     1
  3
A0
350
48
  3
A1
350
49
  3
A2
350
4A
  3
A3
350
4B
  3
A4
350
4C
  3
A5
350
4D
  3
A6
350
4E
  3
A7
350
4F
  3
A8
350
50
  3
A9
350
51
  3
B0
350
52
  3
B1
350
53
  3
B2
350
54
  3
B3
350
55
  3
B4
350
56
  3
B5
350
57
  3
B6
350
58
  3
B7
350
59
  3
B8
350
5A
  3
B9
350
5B
  3
C0
350
5C
  3
C1
350
5D
  3
C2
350
5E
  3
C3
350
5F
  3
C4
350
60
  3
C5
350
61
  3
C6
350
62
  3
C7
350
63
  3
C8
350
64
  3
C9
350
65
  3
D0
350
66
  3
D1
350
67
  3
D2
350
68
  0
DICTIONARY
  5
327
102
{ACAD_REACTORS
330
C
102
}
330
C
100
AcDbDictionary
281
     1
  0
DICTIONARY
  5
69
102
{ACAD_REACTORS
330
C
102
}
330
C
100
AcDbDictionary
281
     1
  3
Standard
350
6A
  0
DICTIONARY
  5
2A
102
{ACAD_REACTORS
330
C
102
}
330
C
100
AcDbDictionary
281
     1
  3
2dWireframe
350
2F
  3
Basic
350
32
  3
Brighten
350
36
  3
ColorChange
350
3A
  3
Conceptual
350
34
  3
Dim
350
35
  3
EdgeColorOff
350
3D
  3
Facepattern
350
39
  3
Flat
350
2B
  3
FlatWithEdges
350
2C
  3
Gouraud
350
2D
  3
GouraudWithEdges
350
2E
  3
Hidden
350
31
  3
JitterOff
350
3B
  3
Linepattern
350
38
  3
OverhangOff
350
3C
  3
Realistic
350
33
  3
Shaded
350
42
  3
Shaded with edges
350
41
  3
Shades of Gray
350
3E
  3
Sketchy
350
3F
  3
Thicken
350
37
  3
Wireframe
350
30
  3
X-Ray
350
40
  0
DICTIONARY
  5
2EB
102
{ACAD_REACTORS
330
C
102
}
330
C
100
AcDbDictionary
281
     1
  3
CANNOSCALE
350
2EC
  3
CMLEADERSTYLE
350
325
  3
CTABLESTYLE
350
324
  3
XCLIPFRAME
350
2ED
  0
XRECORD
  5
323
102
{ACAD_REACTORS
330
C
102
}
330
C
100
AcDbXrecord
280
     1
 90
        1
330
6A
  0
LAYOUT
  5
1E
102
{ACAD_REACTORS
330
1A
102
}
330
1A
100
AcDbPlotSettings
  1

  2
none_device
  4

  6

 40
0.0
 41
0.0
 42
0.0
 43
0.0
 44
0.0
 45
0.0
 46
0.0
 47
0.0
 48
0.0
 49
0.0
140
0.0
141
0.0
142
1.0
143
1.0
 70
   688
 72
     0
 73
     0
 74
     5
  7

 75
    16
 76
     0
 77
     2
 78
   300
147
1.0
148
0.0
149
0.0
100
AcDbLayout
  1
Layout1
 70
     1
 71
     1
 10
0.0
 20
0.0
 11
12.0
 21
9.0
 12
0.0
 22
0.0
 32
0.0
 14
1.000000000000000E+20
 24
1.000000000000000E+20
 34
1.000000000000000E+20
 15
-1.000000000000000E+20
 25
-1.000000000000000E+20
 35
-1.000000000000000E+20
146
0.0
 13
0.0
 23
0.0
 33
0.0
 16
1.0
 26
0.0
 36
0.0
 17
0.0
 27
1.0
 37
0.0
 76
     0
330
1B
  0
LAYOUT
  5
26
102
{ACAD_REACTORS
330
1A
102
}
330
1A
100
AcDbPlotSettings
  1

  2
none_device
  4

  6

 40
0.0
 41
0.0
 42
0.0
 43
0.0
 44
0.0
 45
0.0
 46
0.0
 47
0.0
 48
0.0
 49
0.0
140
0.0
141
0.0
142
1.0
143
1.0
 70
   688
 72
     0
 73
     0
 74
     5
  7

 75
    16
 76
     0
 77
     2
 78
   300
147
1.0
148
0.0
149
0.0
100
AcDbLayout
  1
Layout2
 70
     1
 71
     2
 10
0.0
 20
0.0
 11
0.0
 21
0.0
 12
0.0
 22
0.0
 32
0.0
 14
0.0
 24
0.0
 34
0.0
 15
0.0
 25
0.0
 35
0.0
146
0.0
 13
0.0
 23
0.0
 33
0.0
 16
1.0
 26
0.0
 36
0.0
 17
0.0
 27
1.0
 37
0.0
 76
     0
330
23
  0
LAYOUT
  5
22
102
{ACAD_REACTORS
330
1A
102
}
330
1A
100
AcDbPlotSettings
  1

  2
none_device
  4
Letter_(8.50_x_11.00_Inches)
  6

 40
6.35
 41
6.35
 42
6.35000508
 43
6.35000508
 44
215.9
 45
279.4
 46
0.0
 47
0.0
 48
0.0
 49
0.0
140
0.0
141
0.0
142
1.0
143
1.0
 70
  1712
 72
     0
 73
     0
 74
     0
  7

 75
     0
 76
     0
 77
     2
 78
   300
147
1.0
148
0.0
149
0.0
100
AcDbLayout
  1
Model
 70
     1
 71
     0
 10
0.0
 20
0.0
 11
12.0
 21
9.0
 12
0.0
 22
0.0
 32
0.0
 14
1.000000000000000E+20
 24
1.000000000000000E+20
 34
1.000000000000000E+20
 15
-1.000000000000000E+20
 25
-1.000000000000000E+20
 35
-1.000000000000000E+20
146
0.0
 13
0.0
 23
0.0
 33
0.0
 16
1.0
 26
0.0
 36
0.0
 17
0.0
 27
1.0
 37
0.0
 76
     0
330
1F
331
29
  0
MATERIAL
  5
45
102
{ACAD_REACTORS
330
43
102
}
330
43
100
AcDbMaterial
  1
ByBlock
 72
     1
 94
      127
  0
MATERIAL
  5
44
102
{ACAD_REACTORS
330
43
102
}
330
43
100
AcDbMaterial
  1
ByLayer
 72
     1
 94
      127
  0
MATERIAL
  5
46
102
{ACAD_REACTORS
330
43
102
}
330
43
100
AcDbMaterial
  1
Global
 72
     1
 94
      127
  0
MLEADERSTYLE
  5
6C
102
{ACAD_REACTORS
330
6B
102
}
102
{ACAD_XDICTIONARY
360
321
102
}
330
6B
100
AcDbMLeaderStyle
170
     2
171
     1
172
     0
 90
        2
 40
0.0
 41
0.0
173
     1
 91
-1056964608
340
14
 92
       -2
290
     1
 42
0.09
291
     1
 43
0.36
  3
Standard
341
0
 44
0.18
300

342
11
174
     1
178
     6
175
     1
176
     0
 93
-1056964608
 45
0.18
292
     0
297
     0
 46
0.18
343
0
 94
-1056964608
 47
1.0
 49
1.0
140
1.0
293
     1
141
0.0
294
     1
177
     0
142
1.0
295
     0
296
     0
143
0.125
1001
ACAD_MLEADERVER
1070
     2
  0
MLINESTYLE
  5
18
102
{ACAD_REACTORS
330
17
102
}
330
17
100
AcDbMlineStyle
  2
Standard
 70
     0
  3

 62
   256
 51
90.0
 52
90.0
 71
     2
 49
0.5
 62
   256
  6
BYLAYER
 49
-0.5
 62
   256
  6
BYLAYER
  0
ACDBPLACEHOLDER
  5
F
102
{ACAD_REACTORS
330
E
102
}
330
E
  0
SCALE
  5
48
102
{ACAD_REACTORS
330
47
102
}
330
47
100
AcDbScale
 70
     0
300
1:1
140
1.0
141
1.0
290
     1
  0
SCALE
  5
49
102
{ACAD_REACTORS
330
47
102
}
330
47
100
AcDbScale
 70
     0
300
1:2
140
1.0
141
2.0
290
     0
  0
SCALE
  5
4A
102
{ACAD_REACTORS
330
47
102
}
330
47
100
AcDbScale
 70
     0
300
1:4
140
1.0
141
4.0
290
     0
  0
SCALE
  5
4B
102
{ACAD_REACTORS
330
47
102
}
330
47
100
AcDbScale
 70
     0
300
1:5
140
1.0
141
5.0
290
     0
  0
SCALE
  5
4C
102
{ACAD_REACTORS
330
47
102
}
330
47
100
AcDbScale
 70
     0
300
1:8
140
1.0
141
8.0
290
     0
  0
SCALE
  5
4D
102
{ACAD_REACTORS
330
47
102
}
330
47
100
AcDbScale
 70
     0
300
1:10
140
1.0
141
10.0
290
     0
  0
SCALE
  5
4E
102
{ACAD_REACTORS
330
47
102
}
330
47
100
AcDbScale
 70
     0
300
1:16
140
1.0
141
16.0
290
     0
  0
SCALE
  5
4F
102
{ACAD_REACTORS
330
47
102
}
330
47
100
AcDbScale
 70
     0
300
1:20
140
1.0
141
20.0
290
     0
  0
SCALE
  5
50
102
{ACAD_REACTORS
330
47
102
}
330
47
100
AcDbScale
 70
     0
300
1:30
140
1.0
141
30.0
290
     0
  0
SCALE
  5
51
102
{ACAD_REACTORS
330
47
102
}
330
47
100
AcDbScale
 70
     0
300
1:40
140
1.0
141
40.0
290
     0
  0
SCALE
  5
52
102
{ACAD_REACTORS
330
47
102
}
330
47
100
AcDbScale
 70
     0
300
1:50
140
1.0
141
50.0
290
     0
  0
SCALE
  5
53
102
{ACAD_REACTORS
330
47
102
}
330
47
100
AcDbScale
 70
     0
300
1:100
140
1.0
141
100.0
290
     0
  0
SCALE
  5
54
102
{ACAD_REACTORS
330
47
102
}
330
47
100
AcDbScale
 70
     0
300
2:1
140
2.0
141
1.0
290
     0
  0
SCALE
  5
55
102
{ACAD_REACTORS
330
47
102
}
330
47
100
AcDbScale
 70
     0
300
4:1
140
4.0
141
1.0
290
     0
  0
SCALE
  5
56
102
{ACAD_REACTORS
330
47
102
}
330
47
100
AcDbScale
 70
     0
300
8:1
140
8.0
141
1.0
290
     0
  0
SCALE
  5
57
102
{ACAD_REACTORS
330
47
102
}
330
47
100
AcDbScale
 70
     0
300
10:1
140
10.0
141
1.0
290
     0
  0
SCALE
  5
58
102
{ACAD_REACTORS
330
47
102
}
330
47
100
AcDbScale
 70
     0
300
100:1
140
100.0
141
1.0
290
     0
  0
SCALE
  5
59
102
{ACAD_REACTORS
330
47
102
}
330
47
100
AcDbScale
 70
     0
300
1/128" = 1'-0"
140
0.0078125
141
12.0
290
     0
  0
SCALE
  5
5A
102
{ACAD_REACTORS
330
47
102
}
330
47
100
AcDbScale
 70
     0
300
1/64" = 1'-0"
140
0.015625
141
12.0
290
     0
  0
SCALE
  5
5B
102
{ACAD_REACTORS
330
47
102
}
330
47
100
AcDbScale
 70
     0
300
1/32" = 1'-0"
140
0.03125
141
12.0
290
     0
  0
SCALE
  5
5C
102
{ACAD_REACTORS
330
47
102
}
330
47
100
AcDbScale
 70
     0
300
1/16" = 1'-0"
140
0.0625
141
12.0
290
     0
  0
SCALE
  5
5D
102
{ACAD_REACTORS
330
47
102
}
330
47
100
AcDbScale
 70
     0
300
3/32" = 1'-0"
140
0.09375
141
12.0
290
     0
  0
SCALE
  5
5E
102
{ACAD_REACTORS
330
47
102
}
330
47
100
AcDbScale
 70
     0
300
1/8" = 1'-0"
140
0.125
141
12.0
290
     0
  0
SCALE
  5
5F
102
{ACAD_REACTORS
330
47
102
}
330
47
100
AcDbScale
 70
     0
300
3/16" = 1'-0"
140
0.1875
141
12.0
290
     0
  0
SCALE
  5
60
102
{ACAD_REACTORS
330
47
102
}
330
47
100
AcDbScale
 70
     0
300
1/4" = 1'-0"
140
0.25
141
12.0
290
     0
  0
SCALE
  5
61
102
{ACAD_REACTORS
330
47
102
}
330
47
100
AcDbScale
 70
     0
300
3/8" = 1'-0"
140
0.375
141
12.0
290
     0
  0
SCALE
  5
62
102
{ACAD_REACTORS
330
47
102
}
330
47
100
AcDbScale
 70
     0
300
1/2" = 1'-0"
140
0.5
141
12.0
290
     0
  0
SCALE
  5
63
102
{ACAD_REACTORS
330
47
102
}
330
47
100
AcDbScale
 70
     0
300
3/4" = 1'-0"
140
0.75
141
12.0
290
     0
  0
SCALE
  5
64
102
{ACAD_REACTORS
330
47
102
}
330
47
100
AcDbScale
 70
     0
300
1" = 1'-0"
140
1.0
141
12.0
290
     0
  0
SCALE
  5
65
102
{ACAD_REACTORS
330
47
102
}
330
47
100
AcDbScale
 70
     0
300
1-1/2" = 1'-0"
140
1.5
141
12.0
290
     0
  0
SCALE
  5
66
102
{ACAD_REACTORS
330
47
102
}
330
47
100
AcDbScale
 70
     0
300
3" = 1'-0"
140
3.0
141
12.0
290
     0
  0
SCALE
  5
67
102
{ACAD_REACTORS
330
47
102
}
330
47
100
AcDbScale
 70
     0
300
6" = 1'-0"
140
6.0
141
12.0
290
     0
  0
SCALE
  5
68
102
{ACAD_REACTORS
330
47
102
}
330
47
100
AcDbScale
 70
     0
300
1'-0" = 1'-0"
140
12.0
141
12.0
290
     0
  0
TABLESTYLE
  5
6A
102
{ACAD_REACTORS
330
69
102
}
102
{ACAD_XDICTIONARY
360
31E
102
}
330
69
100
AcDbTableStyle
  3
Standard
 70
     0
 71
     0
 40
0.06
 41
0.06
280
     0
281
     0
  7
Standard
140
0.18
170
     2
 62
     0
 63
   257
283
     0
 90
        4
 91
        0
  1

274
    -2
284
     1
 64
     0
275
    -2
285
     1
 65
     0
276
    -2
286
     1
 66
     0
277
    -2
287
     1
 67
     0
278
    -2
288
     1
 68
     0
279
    -2
289
     1
 69
     0
  7
Standard
140
0.25
170
     5
 62
     0
 63
   257
283
     0
 90
        4
 91
        0
  1

274
    -2
284
     1
 64
     0
275
    -2
285
     1
 65
     0
276
    -2
286
     1
 66
     0
277
    -2
287
     1
 67
     0
278
    -2
288
     1
 68
     0
279
    -2
289
     1
 69
     0
  7
Standard
140
0.18
170
     5
 62
     0
 63
   257
283
     0
 90
        4
 91
        0
  1

274
    -2
284
     1
 64
     0
275
    -2
285
     1
 65
     0
276
    -2
286
     1
 66
     0
277
    -2
287
     1
 67
     0
278
    -2
288
     1
 68
     0
279
    -2
289
     1
 69
     0
  0
VISUALSTYLE
  5
2F
102
{ACAD_REACTORS
330
2A
102
}
102
{ACAD_XDICTIONARY
360
2F6
102
}
330
2A
100
AcDbVisualStyle
  2
2dWireframe
 70
     4
 71
     0
 72
     2
 73
     0
 90
        0
 40
0.6
 41
30.0
 62
     5
 63
     7
421
 16777215
 74
     1
 91
        4
 64
     7
 65
   257
 75
     1
175
     1
 42
1.0
 92
        0
 66
   257
 43
1.0
 76
     1
 77
     6
 78
     2
 67
     7
 79
     5
170
     0
171
     0
290
     0
174
     0
 93
        1
 44
0.0
173
     0
291
     0
 45
0.0
  0
VISUALSTYLE
  5
32
102
{ACAD_REACTORS
330
2A
102
}
102
{ACAD_XDICTIONARY
360
2FC
102
}
330
2A
100
AcDbVisualStyle
  2
Basic
 70
     7
 71
     1
 72
     0
 73
     1
 90
        0
 40
0.6
 41
30.0
 62
     5
 63
     7
421
 16777215
 74
     0
 91
        4
 64
     7
 65
   257
 75
     1
175
     1
 42
1.0
 92
        8
 66
     7
 43
1.0
 76
     1
 77
     6
 78
     2
 67
     7
 79
     5
170
     0
171
     0
290
     0
174
     0
 93
        1
 44
0.0
173
     0
291
     1
 45
0.0
  0
VISUALSTYLE
  5
36
102
{ACAD_REACTORS
330
2A
102
}
102
{ACAD_XDICTIONARY
360
304
102
}
330
2A
100
AcDbVisualStyle
  2
Brighten
 70
    12
 71
     2
 72
     2
 73
     0
 90
        0
 40
0.6
 41
30.0
 62
     5
 63
     7
421
 16777215
 74
     1
 91
        4
 64
     7
 65
   257
 75
     1
175
     1
 42
1.0
 92
        8
 66
     7
 43
1.0
 76
     1
 77
     6
 78
     2
 67
     7
 79
     5
170
     0
171
     0
290
     0
174
     0
 93
        1
 44
50.0
173
     0
291
     1
 45
0.0
  0
VISUALSTYLE
  5
3A
102
{ACAD_REACTORS
330
2A
102
}
102
{ACAD_XDICTIONARY
360
30C
102
}
330
2A
100
AcDbVisualStyle
  2
ColorChange
 70
    16
 71
     2
 72
     2
 73
     3
 90
        0
 40
0.6
 41
30.0
 62
     5
 63
     8
421
  8421504
 74
     1
 91
        4
 64
     7
 65
   257
 75
     1
175
     1
 42
1.0
 92
        8
 66
     8
424
  8421504
 43
1.0
 76
     1
 77
     6
 78
     2
 67
     7
 79
     5
170
     0
171
     0
290
     0
174
     0
 93
        1
 44
0.0
173
     0
291
     1
 45
0.0
  0
VISUALSTYLE
  5
34
102
{ACAD_REACTORS
330
2A
102
}
102
{ACAD_XDICTIONARY
360
300
102
}
330
2A
100
AcDbVisualStyle
  2
Conceptual
 70
     9
 71
     3
 72
     2
 73
     0
 90
        0
 40
0.6
 41
30.0
 62
     5
 63
     7
421
 16777215
 74
     2
 91
        2
 64
     7
 65
   257
 75
     1
175
     1
 42
179.0
 92
        8
 66
     7
 43
1.0
 76
     1
 77
     6
 78
     2
 67
     7
 79
     3
170
     0
171
     0
290
     0
174
     0
 93
        1
 44
0.0
173
     0
291
     0
 45
0.0
  0
VISUALSTYLE
  5
35
102
{ACAD_REACTORS
330
2A
102
}
102
{ACAD_XDICTIONARY
360
302
102
}
330
2A
100
AcDbVisualStyle
  2
Dim
 70
    11
 71
     2
 72
     2
 73
     0
 90
        0
 40
0.6
 41
30.0
 62
     5
 63
     7
421
 16777215
 74
     1
 91
        4
 64
     7
 65
   257
 75
     1
175
     1
 42
1.0
 92
        8
 66
     7
 43
1.0
 76
     1
 77
     6
 78
     2
 67
     7
 79
     5
170
     0
171
     0
290
     0
174
     0
 93
        1
 44
-50.0
173
     0
291
     1
 45
0.0
  0
VISUALSTYLE
  5
3D
102
{ACAD_REACTORS
330
2A
102
}
102
{ACAD_XDICTIONARY
360
312
102
}
330
2A
100
AcDbVisualStyle
  2
EdgeColorOff
 70
    22
 71
     2
 72
     2
 73
     0
 90
        0
 40
0.6
 41
30.0
 62
     5
 63
     7
421
 16777215
 74
     1
 91
        4
 64
     7
 65
   257
 75
     1
175
     1
 42
1.0
 92
        8
 66
     7
 43
1.0
 76
     1
 77
     6
 78
     2
 67
     7
 79
     5
170
     0
171
     0
290
     0
174
     0
 93
        1
 44
0.0
173
     0
291
     1
 45
0.0
  0
VISUALSTYLE
  5
39
102
{ACAD_REACTORS
330
2A
102
}
102
{ACAD_XDICTIONARY
360
30A
102
}
330
2A
100
AcDbVisualStyle
  2
Facepattern
 70
    15
 71
     2
 72
     2
 73
     0
 90
        0
 40
0.6
 41
30.0
 62
     5
 63
     7
421
 16777215
 74
     1
 91
        4
 64
     7
 65
   257
 75
     1
175
     1
 42
1.0
 92
        8
 66
     7
 43
1.0
 76
     1
 77
     6
 78
     2
 67
     7
 79
     5
170
     0
171
     0
290
     0
174
     0
 93
        1
 44
0.0
173
     0
291
     1
 45
0.0
  0
VISUALSTYLE
  5
2B
102
{ACAD_REACTORS
330
2A
102
}
102
{ACAD_XDICTIONARY
360
2EE
102
}
330
2A
100
AcDbVisualStyle
  2
Flat
 70
     0
 71
     2
 72
     1
 73
     1
 90
        2
 40
0.6
 41
30.0
 62
     5
 63
     7
421
 16777215
 74
     0
 91
        0
 64
     7
 65
   257
 75
     1
175
     1
 42
1.0
 92
        8
 66
     7
 43
1.0
 76
     1
 77
     6
 78
     2
 67
     7
 79
     5
170
     0
171
     0
290
     0
174
     0
 93
       13
 44
0.0
173
     0
291
     1
 45
0.0
  0
VISUALSTYLE
  5
2C
102
{ACAD_REACTORS
330
2A
102
}
102
{ACAD_XDICTIONARY
360
2F0
102
}
330
2A
100
AcDbVisualStyle
  2
FlatWithEdges
 70
     1
 71
     2
 72
     1
 73
     1
 90
        2
 40
0.6
 41
30.0
 62
     5
 63
     7
421
 16777215
 74
     1
 91
        0
 64
     7
 65
   257
 75
     1
175
     1
 42
1.0
 92
        0
 66
   257
 43
1.0
 76
     1
 77
     6
 78
     2
 67
     7
 79
     5
170
     0
171
     0
290
     0
174
     0
 93
       13
 44
0.0
173
     0
291
     1
 45
0.0
  0
VISUALSTYLE
  5
2D
102
{ACAD_REACTORS
330
2A
102
}
102
{ACAD_XDICTIONARY
360
2F2
102
}
330
2A
100
AcDbVisualStyle
  2
Gouraud
 70
     2
 71
     2
 72
     2
 73
     1
 90
        2
 40
0.6
 41
30.0
 62
     5
 63
     7
421
 16777215
 74
     0
 91
        0
 64
     7
 65
   257
 75
     1
175
     1
 42
1.0
 92
        0
 66
     7
 43
1.0
 76
     1
 77
     6
 78
     2
 67
     7
 79
     5
170
     0
171
     0
290
     0
174
     0
 93
       13
 44
0.0
173
     0
291
     1
 45
0.0
  0
VISUALSTYLE
  5
2E
102
{ACAD_REACTORS
330
2A
102
}
102
{ACAD_XDICTIONARY
360
2F4
102
}
330
2A
100
AcDbVisualStyle
  2
GouraudWithEdges
 70
     3
 71
     2
 72
     2
 73
     1
 90
        2
 40
0.6
 41
30.0
 62
     5
 63
     7
421
 16777215
 74
     1
 91
        0
 64
     7
 65
   257
 75
     1
175
     1
 42
1.0
 92
        0
 66
   257
 43
1.0
 76
     1
 77
     6
 78
     2
 67
     7
 79
     5
170
     0
171
     0
290
     0
174
     0
 93
       13
 44
0.0
173
     0
291
     1
 45
0.0
  0
VISUALSTYLE
  5
31
102
{ACAD_REACTORS
330
2A
102
}
102
{ACAD_XDICTIONARY
360
2FA
102
}
330
2A
100
AcDbVisualStyle
  2
Hidden
 70
     6
 71
     1
 72
     2
 73
     2
 90
        0
 40
0.6
 41
30.0
 62
     5
 63
     7
421
 16777215
 74
     2
 91
        2
 64
     7
 65
   257
 75
     2
175
     1
 42
40.0
 92
        0
 66
   257
 43
1.0
 76
     1
 77
     6
 78
     2
 67
     7
 79
     3
170
     0
171
     0
290
     0
174
     0
 93
        1
 44
0.0
173
     0
291
     0
 45
0.0
  0
VISUALSTYLE
  5
3B
102
{ACAD_REACTORS
330
2A
102
}
102
{ACAD_XDICTIONARY
360
30E
102
}
330
2A
100
AcDbVisualStyle
  2
JitterOff
 70
    20
 71
     2
 72
     2
 73
     0
 90
        0
 40
0.6
 41
30.0
 62
     5
 63
     7
421
 16777215
 74
     1
 91
        4
 64
     7
 65
   257
 75
     1
175
     1
 42
1.0
 92
       10
 66
     7
 43
1.0
 76
     1
 77
     6
 78
     2
 67
     7
 79
     5
170
     0
171
     0
290
     0
174
     0
 93
        1
 44
0.0
173
     0
291
     1
 45
0.0
  0
VISUALSTYLE
  5
38
102
{ACAD_REACTORS
330
2A
102
}
102
{ACAD_XDICTIONARY
360
308
102
}
330
2A
100
AcDbVisualStyle
  2
Linepattern
 70
    14
 71
     2
 72
     2
 73
     0
 90
        0
 40
0.6
 41
30.0
 62
     5
 63
     7
421
 16777215
 74
     1
 91
        4
 64
     7
 65
   257
 75
     7
175
     7
 42
1.0
 92
        8
 66
     7
 43
1.0
 76
     1
 77
     6
 78
     2
 67
     7
 79
     5
170
     0
171
     0
290
     0
174
     0
 93
        1
 44
0.0
173
     0
291
     1
 45
0.0
  0
VISUALSTYLE
  5
3C
102
{ACAD_REACTORS
330
2A
102
}
102
{ACAD_XDICTIONARY
360
310
102
}
330
2A
100
AcDbVisualStyle
  2
OverhangOff
 70
    21
 71
     2
 72
     2
 73
     0
 90
        0
 40
0.6
 41
30.0
 62
     5
 63
     7
421
 16777215
 74
     1
 91
        4
 64
     7
 65
   257
 75
     1
175
     1
 42
1.0
 92
        9
 66
     7
 43
1.0
 76
     1
 77
     6
 78
     2
 67
     7
 79
     5
170
     0
171
     0
290
     0
174
     0
 93
        1
 44
0.0
173
     0
291
     1
 45
0.0
  0
VISUALSTYLE
  5
33
102
{ACAD_REACTORS
330
2A
102
}
102
{ACAD_XDICTIONARY
360
2FE
102
}
330
2A
100
AcDbVisualStyle
  2
Realistic
 70
     8
 71
     2
 72
     3
 73
     0
 90
        2
 40
0.6
 41
30.0
 62
     5
 63
     7
421
 16777215
 74
     0
 91
        0
 64
     7
 65
   257
 75
     1
175
     1
 42
1.0
 92
        8
 66
   257
 43
1.0
 76
     1
 77
     6
 78
     2
 67
     7
 79
     3
170
     0
171
     0
290
     0
174
     0
 93
       13
 44
0.0
173
     0
291
     0
 45
0.0
  0
VISUALSTYLE
  5
42
102
{ACAD_REACTORS
330
2A
102
}
102
{ACAD_XDICTIONARY
360
31C
102
}
330
2A
100
AcDbVisualStyle
  2
Shaded
 70
    27
 71
     2
 72
     2
 73
     1
 90
        2
 40
0.6
 41
30.0
 62
     5
 63
     7
421
 16777215
 74
     0
 91
        4
 64
     7
 65
   257
 75
     1
175
     1
 42
1.0
 92
        8
 66
   257
 43
1.0
 76
     1
 77
     6
 78
     2
 67
     8
425
  7895160
 79
     3
170
     0
171
     0
290
     0
174
     0
 93
        5
 44
0.0
173
     0
291
     0
 45
0.0
  0
VISUALSTYLE
  5
41
102
{ACAD_REACTORS
330
2A
102
}
102
{ACAD_XDICTIONARY
360
31A
102
}
330
2A
100
AcDbVisualStyle
  2
Shaded with edges
 70
    26
 71
     2
 72
     2
 73
     1
 90
        2
 40
0.6
 41
30.0
 62
     5
 63
     7
421
 16777215
 74
     1
 91
       10
 64
     7
 65
   257
 75
     2
175
     1
 42
1.0
 92
        8
 66
   257
 43
1.0
 76
     1
 77
     6
 78
     2
 67
     7
 79
     3
170
     0
171
     0
290
     0
174
     0
 93
        5
 44
0.0
173
     0
291
     0
 45
0.0
  0
VISUALSTYLE
  5
3E
102
{ACAD_REACTORS
330
2A
102
}
102
{ACAD_XDICTIONARY
360
314
102
}
330
2A
100
AcDbVisualStyle
  2
Shades of Gray
 70
    23
 71
     2
 72
     2
 73
     3
 90
        0
 40
0.6
 41
30.0
 62
     5
 63
     7
421
 16777215
 74
     2
 91
        2
 64
     7
 65
     7
 75
     1
175
     1
 42
40.0
 92
        8
 66
     7
 43
1.0
 76
     1
 77
     6
 78
     2
 67
     7
 79
     3
170
     0
171
     0
290
     0
174
     0
 93
        1
 44
0.0
173
     0
291
     0
 45
0.0
  0
VISUALSTYLE
  5
3F
102
{ACAD_REACTORS
330
2A
102
}
102
{ACAD_XDICTIONARY
360
316
102
}
330
2A
100
AcDbVisualStyle
  2
Sketchy
 70
    24
 71
     1
 72
     2
 73
     2
 90
        0
 40
0.6
 41
30.0
 62
     5
 63
     7
421
 16777215
 74
     2
 91
        2
 64
     7
 65
     7
 75
     1
175
     1
 42
40.0
 92
       11
 66
     7
 43
1.0
 76
     1
 77
     6
 78
     2
 67
     7
 79
     6
170
     0
171
     0
290
     0
174
     0
 93
        1
 44
0.0
173
     0
291
     0
 45
0.0
  0
VISUALSTYLE
  5
37
102
{ACAD_REACTORS
330
2A
102
}
102
{ACAD_XDICTIONARY
360
306
102
}
330
2A
100
AcDbVisualStyle
  2
Thicken
 70
    13
 71
     2
 72
     2
 73
     0
 90
        0
 40
0.6
 41
30.0
 62
     5
 63
     7
421
 16777215
 74
     1
 91
        4
 64
     7
 65
   257
 75
     1
175
     1
 42
1.0
 92
       12
 66
     7
 43
1.0
 76
     1
 77
     6
 78
     2
 67
     7
 79
     5
170
     0
171
     0
290
     0
174
     0
 93
        1
 44
0.0
173
     0
291
     1
 45
0.0
  0
VISUALSTYLE
  5
30
102
{ACAD_REACTORS
330
2A
102
}
102
{ACAD_XDICTIONARY
360
2F8
102
}
330
2A
100
AcDbVisualStyle
  2
Wireframe
 70
     5
 71
     0
 72
     2
 73
     0
 90
        0
 40
0.6
 41
30.0
 62
     5
 63
     7
421
 16777215
 74
     1
 91
        4
 64
     7
 65
   257
 75
     1
175
     1
 42
1.0
 92
        0
 66
   257
 43
1.0
 76
     1
 77
     6
 78
     2
 67
     7
 79
     3
170
     0
171
     0
290
     0
174
     0
 93
        1
 44
0.0
173
     0
291
     0
 45
0.0
  0
VISUALSTYLE
  5
40
102
{ACAD_REACTORS
330
2A
102
}
102
{ACAD_XDICTIONARY
360
318
102
}
330
2A
100
AcDbVisualStyle
  2
X-Ray
 70
    25
 71
     2
 72
     2
 73
     1
 90
        1
 40
0.5
 41
30.0
 62
     5
 63
     7
421
 16777215
 74
     1
 91
        0
 64
     7
 65
   257
 75
     1
175
     1
 42
1.0
 92
        8
 66
     7
 43
1.0
 76
     1
 77
     6
 78
     2
 67
     7
 79
     3
170
     0
171
     0
290
     0
174
     0
 93
       13
 44
0.0
173
     0
291
     0
 45
0.0
  0
DICTIONARYVAR
  5
2EC
102
{ACAD_REACTORS
330
2EB
102
}
330
2EB
100
DictionaryVariables
280
     0
  1
1:1
  0
DICTIONARYVAR
  5
325
102
{ACAD_REACTORS
330
2EB
102
}
330
2EB
100
DictionaryVariables
280
     0
  1
Standard
  0
DICTIONARYVAR
  5
324
102
{ACAD_REACTORS
330
2EB
102
}
330
2EB
100
DictionaryVariables
280
     0
  1
Standard
  0
DICTIONARYVAR
  5
2ED
102
{ACAD_REACTORS
330
2EB
102
}
330
2EB
100
DictionaryVariables
280
     0
  1
2
  0
DICTIONARY
  5
321
330
6C
100
AcDbDictionary
280
     1
281
     1
  3
ACAD_XREC_ROUNDTRIP
360
322
  0
DICTIONARY
  5
31E
330
6A
100
AcDbDictionary
280
     1
281
     1
  3
ACAD_ROUNDTRIP_2008_TABLESTYLE_CELLSTYLEMAP
360
31F
  0
DICTIONARY
  5
2F6
330
2F
100
AcDbDictionary
280
     1
281
     1
  3
ACAD_XREC_ROUNDTRIP
360
2F7
  0
DICTIONARY
  5
2FC
330
32
100
AcDbDictionary
280
     1
281
     1
  3
ACAD_XREC_ROUNDTRIP
360
2FD
  0
DICTIONARY
  5
304
330
36
100
AcDbDictionary
280
     1
281
     1
  3
ACAD_XREC_ROUNDTRIP
360
305
  0
DICTIONARY
  5
30C
330
3A
100
AcDbDictionary
280
     1
281
     1
  3
ACAD_XREC_ROUNDTRIP
360
30D
  0
DICTIONARY
  5
300
330
34
100
AcDbDictionary
280
     1
281
     1
  3
ACAD_XREC_ROUNDTRIP
360
301
  0
DICTIONARY
  5
302
330
35
100
AcDbDictionary
280
     1
281
     1
  3
ACAD_XREC_ROUNDTRIP
360
303
  0
DICTIONARY
  5
312
330
3D
100
AcDbDictionary
280
     1
281
     1
  3
ACAD_XREC_ROUNDTRIP
360
313
  0
DICTIONARY
  5
30A
330
39
100
AcDbDictionary
280
     1
281
     1
  3
ACAD_XREC_ROUNDTRIP
360
30B
  0
DICTIONARY
  5
2EE
330
2B
100
AcDbDictionary
280
     1
281
     1
  3
ACAD_XREC_ROUNDTRIP
360
2EF
  0
DICTIONARY
  5
2F0
330
2C
100
AcDbDictionary
280
     1
281
     1
  3
ACAD_XREC_ROUNDTRIP
360
2F1
  0
DICTIONARY
  5
2F2
330
2D
100
AcDbDictionary
280
     1
281
     1
  3
ACAD_XREC_ROUNDTRIP
360
2F3
  0
DICTIONARY
  5
2F4
330
2E
100
AcDbDictionary
280
     1
281
     1
  3
ACAD_XREC_ROUNDTRIP
360
2F5
  0
DICTIONARY
  5
2FA
330
31
100
AcDbDictionary
280
     1
281
     1
  3
ACAD_XREC_ROUNDTRIP
360
2FB
  0
DICTIONARY
  5
30E
330
3B
100
AcDbDictionary
280
     1
281
     1
  3
ACAD_XREC_ROUNDTRIP
360
30F
  0
DICTIONARY
  5
308
330
38
100
AcDbDictionary
280
     1
281
     1
  3
ACAD_XREC_ROUNDTRIP
360
309
  0
DICTIONARY
  5
310
330
3C
100
AcDbDictionary
280
     1
281
     1
  3
ACAD_XREC_ROUNDTRIP
360
311
  0
DICTIONARY
  5
2FE
330
33
100
AcDbDictionary
280
     1
281
     1
  3
ACAD_XREC_ROUNDTRIP
360
2FF
  0
DICTIONARY
  5
31C
330
42
100
AcDbDictionary
280
     1
281
     1
  3
ACAD_XREC_ROUNDTRIP
360
31D
  0
DICTIONARY
  5
31A
330
41
100
AcDbDictionary
280
     1
281
     1
  3
ACAD_XREC_ROUNDTRIP
360
31B
  0
DICTIONARY
  5
314
330
3E
100
AcDbDictionary
280
     1
281
     1
  3
ACAD_XREC_ROUNDTRIP
360
315
  0
DICTIONARY
  5
316
330
3F
100
AcDbDictionary
280
     1
281
     1
  3
ACAD_XREC_ROUNDTRIP
360
317
  0
DICTIONARY
  5
306
330
37
100
AcDbDictionary
280
     1
281
     1
  3
ACAD_XREC_ROUNDTRIP
360
307
  0
DICTIONARY
  5
2F8
330
30
100
AcDbDictionary
280
     1
281
     1
  3
ACAD_XREC_ROUNDTRIP
360
2F9
  0
DICTIONARY
  5
318
330
40
100
AcDbDictionary
280
     1
281
     1
  3
ACAD_XREC_ROUNDTRIP
360
319
  0
XRECORD
  5
322
102
{ACAD_REACTORS
330
321
102
}
330
321
100
AcDbXrecord
280
     1
102
ACAD_ROUNDTRIP_2010_MLEADER_STYLE
  0
CELLSTYLEMAP
  5
31F
102
{ACAD_REACTORS
330
31E
102
}
330
31E
100
AcDbCellStyleMap
 90
        3
300
CELLSTYLE
  1
TABLEFORMAT_BEGIN
 90
        5
170
     1
 91
        0
 92
    32768
 62
   257
 93
        1
300
CONTENTFORMAT
  1
CONTENTFORMAT_BEGIN
 90
        0
 91
        0
 92
        4
 93
        0
300

 40
0.0
140
1.0
 94
        5
 62
     0
340
11
144
0.25
309
CONTENTFORMAT_END
171
     1
301
MARGIN
  1
CELLMARGIN_BEGIN
 40
0.06
 40
0.06
 40
0.06
 40
0.06
 40
0.06
 40
0.06
309
CELLMARGIN_END
 94
        6
 95
        1
302
GRIDFORMAT
  1
GRIDFORMAT_BEGIN
 90
        0
 91
        1
 62
     0
 92
       -2
340
14
 93
        0
 40
0.045
309
GRIDFORMAT_END
 95
        2
302
GRIDFORMAT
  1
GRIDFORMAT_BEGIN
 90
        0
 91
        1
 62
     0
 92
       -2
340
14
 93
        0
 40
0.045
309
GRIDFORMAT_END
 95
        4
302
GRIDFORMAT
  1
GRIDFORMAT_BEGIN
 90
        0
 91
        1
 62
     0
 92
       -2
340
14
 93
        0
 40
0.045
309
GRIDFORMAT_END
 95
        8
302
GRIDFORMAT
  1
GRIDFORMAT_BEGIN
 90
        0
 91
        1
 62
     0
 92
       -2
340
14
 93
        0
 40
0.045
309
GRIDFORMAT_END
 95
       16
302
GRIDFORMAT
  1
GRIDFORMAT_BEGIN
 90
        0
 91
        1
 62
     0
 92
       -2
340
14
 93
        0
 40
0.045
309
GRIDFORMAT_END
 95
       32
302
GRIDFORMAT
  1
GRIDFORMAT_BEGIN
 90
        0
 91
        1
 62
     0
 92
       -2
340
14
 93
        0
 40
0.045
309
GRIDFORMAT_END
309
TABLEFORMAT_END
  1
CELLSTYLE_BEGIN
 90
        1
 91
        1
300
_TITLE
309
CELLSTYLE_END
300
CELLSTYLE
  1
TABLEFORMAT_BEGIN
 90
        5
170
     1
 91
        0
 92
        0
 62
   257
 93
        1
300
CONTENTFORMAT
  1
CONTENTFORMAT_BEGIN
 90
        0
 91
        0
 92
        4
 93
        0
300

 40
0.0
140
1.0
 94
        5
 62
     0
340
11
144
0.18
309
CONTENTFORMAT_END
171
     1
301
MARGIN
  1
CELLMARGIN_BEGIN
 40
0.06
 40
0.06
 40
0.06
 40
0.06
 40
0.06
 40
0.06
309
CELLMARGIN_END
 94
        6
 95
        1
302
GRIDFORMAT
  1
GRIDFORMAT_BEGIN
 90
        0
 91
        1
 62
     0
 92
       -2
340
14
 93
        0
 40
0.045
309
GRIDFORMAT_END
 95
        2
302
GRIDFORMAT
  1
GRIDFORMAT_BEGIN
 90
        0
 91
        1
 62
     0
 92
       -2
340
14
 93
        0
 40
0.045
309
GRIDFORMAT_END
 95
        4
302
GRIDFORMAT
  1
GRIDFORMAT_BEGIN
 90
        0
 91
        1
 62
     0
 92
       -2
340
14
 93
        0
 40
0.045
309
GRIDFORMAT_END
 95
        8
302
GRIDFORMAT
  1
GRIDFORMAT_BEGIN
 90
        0
 91
        1
 62
     0
 92
       -2
340
14
 93
        0
 40
0.045
309
GRIDFORMAT_END
 95
       16
302
GRIDFORMAT
  1
GRIDFORMAT_BEGIN
 90
        0
 91
        1
 62
     0
 92
       -2
340
14
 93
        0
 40
0.045
309
GRIDFORMAT_END
 95
       32
302
GRIDFORMAT
  1
GRIDFORMAT_BEGIN
 90
        0
 91
        1
 62
     0
 92
       -2
340
14
 93
        0
 40
0.045
309
GRIDFORMAT_END
309
TABLEFORMAT_END
  1
CELLSTYLE_BEGIN
 90
        2
 91
        1
300
_HEADER
309
CELLSTYLE_END
300
CELLSTYLE
  1
TABLEFORMAT_BEGIN
 90
        5
170
     1
 91
        0
 92
        0
 62
   257
 93
        1
300
CONTENTFORMAT
  1
CONTENTFORMAT_BEGIN
 90
        0
 91
        0
 92
        4
 93
        0
300

 40
0.0
140
1.0
 94
        2
 62
     0
340
11
144
0.18
309
CONTENTFORMAT_END
171
     1
301
MARGIN
  1
CELLMARGIN_BEGIN
 40
0.06
 40
0.06
 40
0.06
 40
0.06
 40
0.06
 40
0.06
309
CELLMARGIN_END
 94
        6
 95
        1
302
GRIDFORMAT
  1
GRIDFORMAT_BEGIN
 90
        0
 91
        1
 62
     0
 92
       -2
340
14
 93
        0
 40
0.045
309
GRIDFORMAT_END
 95
        2
302
GRIDFORMAT
  1
GRIDFORMAT_BEGIN
 90
        0
 91
        1
 62
     0
 92
       -2
340
14
 93
        0
 40
0.045
309
GRIDFORMAT_END
 95
        4
302
GRIDFORMAT
  1
GRIDFORMAT_BEGIN
 90
        0
 91
        1
 62
     0
 92
       -2
340
14
 93
        0
 40
0.045
309
GRIDFORMAT_END
 95
        8
302
GRIDFORMAT
  1
GRIDFORMAT_BEGIN
 90
        0
 91
        1
 62
     0
 92
       -2
340
14
 93
        0
 40
0.045
309
GRIDFORMAT_END
 95
       16
302
GRIDFORMAT
  1
GRIDFORMAT_BEGIN
 90
        0
 91
        1
 62
     0
 92
       -2
340
14
 93
        0
 40
0.045
309
GRIDFORMAT_END
 95
       32
302
GRIDFORMAT
  1
GRIDFORMAT_BEGIN
 90
        0
 91
        1
 62
     0
 92
       -2
340
14
 93
        0
 40
0.045
309
GRIDFORMAT_END
309
TABLEFORMAT_END
  1
CELLSTYLE_BEGIN
 90
        3
 91
        2
300
_DATA
309
CELLSTYLE_END
  0
XRECORD
  5
2F7
102
{ACAD_REACTORS
330
2F6
102
}
330
2F6
100
AcDbXrecord
280
     1
102
RTVSPropertyOp0
 70
     1
102
RTVSPropertyOp1
 70
     1
102
RTVSPropertyOp2
 70
     1
102
RTVSPropertyOp3
 70
     1
102
RTVSPropertyOp4
 70
     1
102
RTVSPropertyOp5
 70
     1
102
RTVSPropertyOp6
 70
     1
102
RTVSPropertyOp7
 70
     1
102
RTVSPropertyOp8
 70
     1
102
RTVSPropertyOp9
 70
     1
102
RTVSPropertyOp10
 70
     1
102
RTVSPropertyOp11
 70
     1
102
RTVSPropertyOp12
 70
     1
102
RTVSPropertyOp13
 70
     1
102
RTVSPropertyOp14
 70
     1
102
RTVSPropertyOp15
 70
     1
102
RTVSPropertyOp16
 70
     1
102
RTVSPropertyOp17
 70
     1
102
RTVSPropertyOp18
 70
     1
102
RTVSPropertyOp19
 70
     1
102
RTVSPropertyOp20
 70
     1
102
RTVSPropertyOp21
 70
     1
102
RTVSPropertyOp22
 70
     1
102
RTVSPropertyOp23
 70
     1
102
RTVSPropertyOp24
 70
     1
102
RTVSPropertyOp25
 70
     1
102
RTVSPropertyOp26
 70
     1
102
RTVSPropertyOp27
 70
     1
102
RTVSPropertyOp28
 70
     1
102
RTVSPropertyOp29
 70
     1
102
RTVSPropertyOp30
 70
     1
102
RTVSPropertyOp31
 70
     1
102
RTVSPropertyOp32
 70
     1
102
RTVSPropertyOp33
 70
     1
102
RTVSPropertyOp34
 70
     1
102
RTVSPropertyOp35
 70
     1
102
RTVSPropertyOp36
 70
     1
102
RTVSPropertyOp37
 70
     1
102
RTVSPropertyOp38
 70
     1
102
RTVSPropertyOp39
 70
     1
102
RTVSPropertyOp40
 70
     1
102
RTVSPropertyOp41
 70
     1
102
RTVSPropertyOp42
 70
     1
102
RTVSPropertyOp43
 70
     1
102
RTVSPropertyOp44
 70
     1
102
RTVSPropertyOp45
 70
     1
102
RTVSPropertyOp46
 70
     1
102
RTVSPropertyOp47
 70
     1
102
RTVSPropertyOp48
 70
     1
102
RTVSPropertyOp49
 70
     1
102
RTVSPropertyOp50
 70
     1
102
RTVSPropertyOp51
 70
     0
102
RTVSPropertyOp52
 70
     0
102
RTVSPropertyOp53
 70
     1
102
RTVSPropertyOp54
 70
     1
102
RTVSPropertyOp55
 70
     1
102
RTVSPropertyOp56
 70
     1
102
RTVSPropertyOp57
 70
     1
102
RTVSPost2010Prop28
280
     1
102
RTVSPost2010PropOp28
 70
     1
102
RTVSPost2010Prop29
280
     1
102
RTVSPost2010PropOp29
 70
     1
102
RTVSPost2010Prop30
280
     0
102
RTVSPost2010PropOp30
 70
     1
102
RTVSPost2010Prop31
280
     0
102
RTVSPost2010PropOp31
 70
     1
102
RTVSPost2010Prop32
280
     0
102
RTVSPost2010PropOp32
 70
     1
102
RTVSPost2010Prop33
280
     0
102
RTVSPost2010PropOp33
 70
     1
102
RTVSPost2010Prop34
280
     0
102
RTVSPost2010PropOp34
 70
     1
102
RTVSPost2010Prop35
280
     0
102
RTVSPost2010PropOp35
 70
     1
102
RTVSPost2010Prop36
280
     0
102
RTVSPost2010PropOp36
 70
     1
102
RTVSPost2010Prop37
 90
       50
102
RTVSPost2010PropOp37
 70
     1
102
RTVSPost2010Prop38
140
0.0
102
RTVSPost2010PropOp38
 70
     1
102
RTVSPost2010Prop39
140
1.0
102
RTVSPost2010PropOp39
 70
     1
102
RTVSPost2010Prop40
 90
        0
102
RTVSPost2010PropOp40
 70
     1
102
RTVSPost2010Prop41ColorIndex
 90
      178
102
RTVSPost2010Prop41ColorRGB
 90
        0
102
RTVSPost2010PropOp41
 70
     1
102
RTVSPost2010Prop42
 90
       50
102
RTVSPost2010PropOp42
 70
     1
102
RTVSPost2010Prop43
 90
        3
102
RTVSPost2010PropOp43
 70
     1
102
RTVSPost2010Prop44ColorIndex
 90
        5
102
RTVSPost2010Prop44ColorRGB
 90
      255
102
RTVSPost2010PropOp44
 70
     1
102
RTVSPost2010Prop45
280
     0
102
RTVSPost2010PropOp45
 70
     1
102
RTVSPost2010Prop46
 90
       50
102
RTVSPost2010PropOp46
 70
     1
102
RTVSPost2010Prop47
 90
       50
102
RTVSPost2010PropOp47
 70
     1
102
RTVSPost2010Prop48
 90
       50
102
RTVSPost2010PropOp48
 70
     1
102
RTVSPost2010Prop49
280
     0
102
RTVSPost2010PropOp49
 70
     1
102
RTVSPost2010Prop50
 90
       50
102
RTVSPost2010PropOp50
 70
     1
102
RTVSPost2010Prop51ColorIndex
 90
      256
102
RTVSPost2010Prop51ColorRGB
 90
-16777216
102
RTVSPost2010PropOp51
 70
     0
102
RTVSPost2010Prop52
140
1.0
102
RTVSPost2010PropOp52
 70
     0
102
RTVSPost2010Prop53
 90
        2
102
RTVSPost2010PropOp53
 70
     1
102
RTVSPost2010Prop54
  1
strokes_ogs.tif
102
RTVSPost2010PropOp54
 70
     1
102
RTVSPost2010Prop55
280
     0
102
RTVSPost2010PropOp55
 70
     1
102
RTVSPost2010Prop56
140
1.0
102
RTVSPost2010PropOp56
 70
     1
102
RTVSPost2010Prop57
140
1.0
102
RTVSPost2010PropOp57
 70
     1
  0
XRECORD
  5
2FD
102
{ACAD_REACTORS
330
2FC
102
}
330
2FC
100
AcDbXrecord
280
     1
102
RTVSPropertyOp0
 70
     1
102
RTVSPropertyOp1
 70
     1
102
RTVSPropertyOp2
 70
     1
102
RTVSPropertyOp3
 70
     1
102
RTVSPropertyOp4
 70
     1
102
RTVSPropertyOp5
 70
     1
102
RTVSPropertyOp6
 70
     1
102
RTVSPropertyOp7
 70
     1
102
RTVSPropertyOp8
 70
     1
102
RTVSPropertyOp9
 70
     1
102
RTVSPropertyOp10
 70
     1
102
RTVSPropertyOp11
 70
     1
102
RTVSPropertyOp12
 70
     1
102
RTVSPropertyOp13
 70
     1
102
RTVSPropertyOp14
 70
     1
102
RTVSPropertyOp15
 70
     1
102
RTVSPropertyOp16
 70
     1
102
RTVSPropertyOp17
 70
     1
102
RTVSPropertyOp18
 70
     1
102
RTVSPropertyOp19
 70
     1
102
RTVSPropertyOp20
 70
     1
102
RTVSPropertyOp21
 70
     1
102
RTVSPropertyOp22
 70
     1
102
RTVSPropertyOp23
 70
     1
102
RTVSPropertyOp24
 70
     1
102
RTVSPropertyOp25
 70
     1
102
RTVSPropertyOp26
 70
     1
102
RTVSPropertyOp27
 70
     1
102
RTVSPropertyOp28
 70
     1
102
RTVSPropertyOp29
 70
     1
102
RTVSPropertyOp30
 70
     1
102
RTVSPropertyOp31
 70
     1
102
RTVSPropertyOp32
 70
     1
102
RTVSPropertyOp33
 70
     1
102
RTVSPropertyOp34
 70
     1
102
RTVSPropertyOp35
 70
     1
102
RTVSPropertyOp36
 70
     1
102
RTVSPropertyOp37
 70
     1
102
RTVSPropertyOp38
 70
     1
102
RTVSPropertyOp39
 70
     1
102
RTVSPropertyOp40
 70
     1
102
RTVSPropertyOp41
 70
     1
102
RTVSPropertyOp42
 70
     1
102
RTVSPropertyOp43
 70
     1
102
RTVSPropertyOp44
 70
     1
102
RTVSPropertyOp45
 70
     1
102
RTVSPropertyOp46
 70
     1
102
RTVSPropertyOp47
 70
     1
102
RTVSPropertyOp48
 70
     1
102
RTVSPropertyOp49
 70
     1
102
RTVSPropertyOp50
 70
     1
102
RTVSPropertyOp51
 70
     0
102
RTVSPropertyOp52
 70
     0
102
RTVSPropertyOp53
 70
     1
102
RTVSPropertyOp54
 70
     1
102
RTVSPropertyOp55
 70
     1
102
RTVSPropertyOp56
 70
     1
102
RTVSPropertyOp57
 70
     1
102
RTVSPost2010Prop28
280
     0
102
RTVSPost2010PropOp28
 70
     1
102
RTVSPost2010Prop29
280
     1
102
RTVSPost2010PropOp29
 70
     1
102
RTVSPost2010Prop30
280
     1
102
RTVSPost2010PropOp30
 70
     1
102
RTVSPost2010Prop31
280
     0
102
RTVSPost2010PropOp31
 70
     1
102
RTVSPost2010Prop32
280
     0
102
RTVSPost2010PropOp32
 70
     1
102
RTVSPost2010Prop33
280
     0
102
RTVSPost2010PropOp33
 70
     1
102
RTVSPost2010Prop34
280
     0
102
RTVSPost2010PropOp34
 70
     1
102
RTVSPost2010Prop35
280
     0
102
RTVSPost2010PropOp35
 70
     1
102
RTVSPost2010Prop36
280
     0
102
RTVSPost2010PropOp36
 70
     1
102
RTVSPost2010Prop37
 90
       50
102
RTVSPost2010PropOp37
 70
     1
102
RTVSPost2010Prop38
140
0.0
102
RTVSPost2010PropOp38
 70
     1
102
RTVSPost2010Prop39
140
1.0
102
RTVSPost2010PropOp39
 70
     1
102
RTVSPost2010Prop40
 90
        0
102
RTVSPost2010PropOp40
 70
     1
102
RTVSPost2010Prop41ColorIndex
 90
      178
102
RTVSPost2010Prop41ColorRGB
 90
        0
102
RTVSPost2010PropOp41
 70
     1
102
RTVSPost2010Prop42
 90
       50
102
RTVSPost2010PropOp42
 70
     1
102
RTVSPost2010Prop43
 90
        3
102
RTVSPost2010PropOp43
 70
     1
102
RTVSPost2010Prop44ColorIndex
 90
        5
102
RTVSPost2010Prop44ColorRGB
 90
      255
102
RTVSPost2010PropOp44
 70
     1
102
RTVSPost2010Prop45
280
     0
102
RTVSPost2010PropOp45
 70
     1
102
RTVSPost2010Prop46
 90
       50
102
RTVSPost2010PropOp46
 70
     1
102
RTVSPost2010Prop47
 90
       50
102
RTVSPost2010PropOp47
 70
     1
102
RTVSPost2010Prop48
 90
       50
102
RTVSPost2010PropOp48
 70
     1
102
RTVSPost2010Prop49
280
     0
102
RTVSPost2010PropOp49
 70
     1
102
RTVSPost2010Prop50
 90
       50
102
RTVSPost2010PropOp50
 70
     1
102
RTVSPost2010Prop51ColorIndex
 90
      256
102
RTVSPost2010Prop51ColorRGB
 90
-16777216
102
RTVSPost2010PropOp51
 70
     0
102
RTVSPost2010Prop52
140
1.0
102
RTVSPost2010PropOp52
 70
     0
102
RTVSPost2010Prop53
 90
        2
102
RTVSPost2010PropOp53
 70
     1
102
RTVSPost2010Prop54
  1
strokes_ogs.tif
102
RTVSPost2010PropOp54
 70
     1
102
RTVSPost2010Prop55
280
     0
102
RTVSPost2010PropOp55
 70
     1
102
RTVSPost2010Prop56
140
1.0
102
RTVSPost2010PropOp56
 70
     1
102
RTVSPost2010Prop57
140
1.0
102
RTVSPost2010PropOp57
 70
     1
  0
XRECORD
  5
305
102
{ACAD_REACTORS
330
304
102
}
330
304
100
AcDbXrecord
280
     1
102
RTVSPropertyOp0
 70
     1
102
RTVSPropertyOp1
 70
     1
102
RTVSPropertyOp2
 70
     1
102
RTVSPropertyOp3
 70
     1
102
RTVSPropertyOp4
 70
     1
102
RTVSPropertyOp5
 70
     1
102
RTVSPropertyOp6
 70
     1
102
RTVSPropertyOp7
 70
     1
102
RTVSPropertyOp8
 70
     1
102
RTVSPropertyOp9
 70
     1
102
RTVSPropertyOp10
 70
     1
102
RTVSPropertyOp11
 70
     1
102
RTVSPropertyOp12
 70
     1
102
RTVSPropertyOp13
 70
     1
102
RTVSPropertyOp14
 70
     1
102
RTVSPropertyOp15
 70
     1
102
RTVSPropertyOp16
 70
     1
102
RTVSPropertyOp17
 70
     1
102
RTVSPropertyOp18
 70
     1
102
RTVSPropertyOp19
 70
     1
102
RTVSPropertyOp20
 70
     1
102
RTVSPropertyOp21
 70
     1
102
RTVSPropertyOp22
 70
     1
102
RTVSPropertyOp23
 70
     1
102
RTVSPropertyOp24
 70
     1
102
RTVSPropertyOp25
 70
     1
102
RTVSPropertyOp26
 70
     1
102
RTVSPropertyOp27
 70
     1
102
RTVSPropertyOp28
 70
     1
102
RTVSPropertyOp29
 70
     1
102
RTVSPropertyOp30
 70
     1
102
RTVSPropertyOp31
 70
     1
102
RTVSPropertyOp32
 70
     1
102
RTVSPropertyOp33
 70
     1
102
RTVSPropertyOp34
 70
     1
102
RTVSPropertyOp35
 70
     1
102
RTVSPropertyOp36
 70
     1
102
RTVSPropertyOp37
 70
     1
102
RTVSPropertyOp38
 70
     1
102
RTVSPropertyOp39
 70
     1
102
RTVSPropertyOp40
 70
     1
102
RTVSPropertyOp41
 70
     1
102
RTVSPropertyOp42
 70
     1
102
RTVSPropertyOp43
 70
     1
102
RTVSPropertyOp44
 70
     1
102
RTVSPropertyOp45
 70
     1
102
RTVSPropertyOp46
 70
     1
102
RTVSPropertyOp47
 70
     1
102
RTVSPropertyOp48
 70
     1
102
RTVSPropertyOp49
 70
     1
102
RTVSPropertyOp50
 70
     1
102
RTVSPropertyOp51
 70
     0
102
RTVSPropertyOp52
 70
     0
102
RTVSPropertyOp53
 70
     1
102
RTVSPropertyOp54
 70
     1
102
RTVSPropertyOp55
 70
     1
102
RTVSPropertyOp56
 70
     1
102
RTVSPropertyOp57
 70
     1
102
RTVSPost2010Prop28
280
     0
102
RTVSPost2010PropOp28
 70
     1
102
RTVSPost2010Prop29
280
     1
102
RTVSPost2010PropOp29
 70
     1
102
RTVSPost2010Prop30
280
     1
102
RTVSPost2010PropOp30
 70
     1
102
RTVSPost2010Prop31
280
     0
102
RTVSPost2010PropOp31
 70
     1
102
RTVSPost2010Prop32
280
     0
102
RTVSPost2010PropOp32
 70
     1
102
RTVSPost2010Prop33
280
     0
102
RTVSPost2010PropOp33
 70
     1
102
RTVSPost2010Prop34
280
     0
102
RTVSPost2010PropOp34
 70
     1
102
RTVSPost2010Prop35
280
     0
102
RTVSPost2010PropOp35
 70
     1
102
RTVSPost2010Prop36
280
     0
102
RTVSPost2010PropOp36
 70
     1
102
RTVSPost2010Prop37
 90
       50
102
RTVSPost2010PropOp37
 70
     1
102
RTVSPost2010Prop38
140
0.0
102
RTVSPost2010PropOp38
 70
     1
102
RTVSPost2010Prop39
140
1.0
102
RTVSPost2010PropOp39
 70
     1
102
RTVSPost2010Prop40
 90
        0
102
RTVSPost2010PropOp40
 70
     1
102
RTVSPost2010Prop41ColorIndex
 90
      178
102
RTVSPost2010Prop41ColorRGB
 90
        0
102
RTVSPost2010PropOp41
 70
     1
102
RTVSPost2010Prop42
 90
       50
102
RTVSPost2010PropOp42
 70
     1
102
RTVSPost2010Prop43
 90
        3
102
RTVSPost2010PropOp43
 70
     1
102
RTVSPost2010Prop44ColorIndex
 90
        5
102
RTVSPost2010Prop44ColorRGB
 90
      255
102
RTVSPost2010PropOp44
 70
     1
102
RTVSPost2010Prop45
280
     0
102
RTVSPost2010PropOp45
 70
     1
102
RTVSPost2010Prop46
 90
       50
102
RTVSPost2010PropOp46
 70
     1
102
RTVSPost2010Prop47
 90
       50
102
RTVSPost2010PropOp47
 70
     1
102
RTVSPost2010Prop48
 90
       50
102
RTVSPost2010PropOp48
 70
     1
102
RTVSPost2010Prop49
280
     0
102
RTVSPost2010PropOp49
 70
     1
102
RTVSPost2010Prop50
 90
       50
102
RTVSPost2010PropOp50
 70
     1
102
RTVSPost2010Prop51ColorIndex
 90
      256
102
RTVSPost2010Prop51ColorRGB
 90
-16777216
102
RTVSPost2010PropOp51
 70
     0
102
RTVSPost2010Prop52
140
1.0
102
RTVSPost2010PropOp52
 70
     0
102
RTVSPost2010Prop53
 90
        2
102
RTVSPost2010PropOp53
 70
     1
102
RTVSPost2010Prop54
  1
strokes_ogs.tif
102
RTVSPost2010PropOp54
 70
     1
102
RTVSPost2010Prop55
280
     0
102
RTVSPost2010PropOp55
 70
     1
102
RTVSPost2010Prop56
140
1.0
102
RTVSPost2010PropOp56
 70
     1
102
RTVSPost2010Prop57
140
1.0
102
RTVSPost2010PropOp57
 70
     1
  0
XRECORD
  5
30D
102
{ACAD_REACTORS
330
30C
102
}
330
30C
100
AcDbXrecord
280
     1
102
RTVSPropertyOp0
 70
     1
102
RTVSPropertyOp1
 70
     1
102
RTVSPropertyOp2
 70
     1
102
RTVSPropertyOp3
 70
     1
102
RTVSPropertyOp4
 70
     1
102
RTVSPropertyOp5
 70
     1
102
RTVSPropertyOp6
 70
     1
102
RTVSPropertyOp7
 70
     1
102
RTVSPropertyOp8
 70
     1
102
RTVSPropertyOp9
 70
     1
102
RTVSPropertyOp10
 70
     1
102
RTVSPropertyOp11
 70
     1
102
RTVSPropertyOp12
 70
     1
102
RTVSPropertyOp13
 70
     1
102
RTVSPropertyOp14
 70
     1
102
RTVSPropertyOp15
 70
     1
102
RTVSPropertyOp16
 70
     1
102
RTVSPropertyOp17
 70
     1
102
RTVSPropertyOp18
 70
     1
102
RTVSPropertyOp19
 70
     1
102
RTVSPropertyOp20
 70
     1
102
RTVSPropertyOp21
 70
     1
102
RTVSPropertyOp22
 70
     1
102
RTVSPropertyOp23
 70
     1
102
RTVSPropertyOp24
 70
     1
102
RTVSPropertyOp25
 70
     1
102
RTVSPropertyOp26
 70
     1
102
RTVSPropertyOp27
 70
     1
102
RTVSPropertyOp28
 70
     1
102
RTVSPropertyOp29
 70
     1
102
RTVSPropertyOp30
 70
     1
102
RTVSPropertyOp31
 70
     1
102
RTVSPropertyOp32
 70
     1
102
RTVSPropertyOp33
 70
     1
102
RTVSPropertyOp34
 70
     1
102
RTVSPropertyOp35
 70
     1
102
RTVSPropertyOp36
 70
     1
102
RTVSPropertyOp37
 70
     1
102
RTVSPropertyOp38
 70
     1
102
RTVSPropertyOp39
 70
     1
102
RTVSPropertyOp40
 70
     1
102
RTVSPropertyOp41
 70
     1
102
RTVSPropertyOp42
 70
     1
102
RTVSPropertyOp43
 70
     1
102
RTVSPropertyOp44
 70
     1
102
RTVSPropertyOp45
 70
     1
102
RTVSPropertyOp46
 70
     1
102
RTVSPropertyOp47
 70
     1
102
RTVSPropertyOp48
 70
     1
102
RTVSPropertyOp49
 70
     1
102
RTVSPropertyOp50
 70
     1
102
RTVSPropertyOp51
 70
     0
102
RTVSPropertyOp52
 70
     0
102
RTVSPropertyOp53
 70
     1
102
RTVSPropertyOp54
 70
     1
102
RTVSPropertyOp55
 70
     1
102
RTVSPropertyOp56
 70
     1
102
RTVSPropertyOp57
 70
     1
102
RTVSPost2010Prop28
280
     0
102
RTVSPost2010PropOp28
 70
     1
102
RTVSPost2010Prop29
280
     1
102
RTVSPost2010PropOp29
 70
     1
102
RTVSPost2010Prop30
280
     1
102
RTVSPost2010PropOp30
 70
     1
102
RTVSPost2010Prop31
280
     0
102
RTVSPost2010PropOp31
 70
     1
102
RTVSPost2010Prop32
280
     0
102
RTVSPost2010PropOp32
 70
     1
102
RTVSPost2010Prop33
280
     0
102
RTVSPost2010PropOp33
 70
     1
102
RTVSPost2010Prop34
280
     0
102
RTVSPost2010PropOp34
 70
     1
102
RTVSPost2010Prop35
280
     0
102
RTVSPost2010PropOp35
 70
     1
102
RTVSPost2010Prop36
280
     0
102
RTVSPost2010PropOp36
 70
     1
102
RTVSPost2010Prop37
 90
       50
102
RTVSPost2010PropOp37
 70
     1
102
RTVSPost2010Prop38
140
0.0
102
RTVSPost2010PropOp38
 70
     1
102
RTVSPost2010Prop39
140
1.0
102
RTVSPost2010PropOp39
 70
     1
102
RTVSPost2010Prop40
 90
        0
102
RTVSPost2010PropOp40
 70
     1
102
RTVSPost2010Prop41ColorIndex
 90
      178
102
RTVSPost2010Prop41ColorRGB
 90
        0
102
RTVSPost2010PropOp41
 70
     1
102
RTVSPost2010Prop42
 90
       50
102
RTVSPost2010PropOp42
 70
     1
102
RTVSPost2010Prop43
 90
        3
102
RTVSPost2010PropOp43
 70
     1
102
RTVSPost2010Prop44ColorIndex
 90
        5
102
RTVSPost2010Prop44ColorRGB
 90
      255
102
RTVSPost2010PropOp44
 70
     1
102
RTVSPost2010Prop45
280
     0
102
RTVSPost2010PropOp45
 70
     1
102
RTVSPost2010Prop46
 90
       50
102
RTVSPost2010PropOp46
 70
     1
102
RTVSPost2010Prop47
 90
       50
102
RTVSPost2010PropOp47
 70
     1
102
RTVSPost2010Prop48
 90
       50
102
RTVSPost2010PropOp48
 70
     1
102
RTVSPost2010Prop49
280
     0
102
RTVSPost2010PropOp49
 70
     1
102
RTVSPost2010Prop50
 90
       50
102
RTVSPost2010PropOp50
 70
     1
102
RTVSPost2010Prop51ColorIndex
 90
      256
102
RTVSPost2010Prop51ColorRGB
 90
-16777216
102
RTVSPost2010PropOp51
 70
     0
102
RTVSPost2010Prop52
140
1.0
102
RTVSPost2010PropOp52
 70
     0
102
RTVSPost2010Prop53
 90
        2
102
RTVSPost2010PropOp53
 70
     1
102
RTVSPost2010Prop54
  1
strokes_ogs.tif
102
RTVSPost2010PropOp54
 70
     1
102
RTVSPost2010Prop55
280
     0
102
RTVSPost2010PropOp55
 70
     1
102
RTVSPost2010Prop56
140
1.0
102
RTVSPost2010PropOp56
 70
     1
102
RTVSPost2010Prop57
140
1.0
102
RTVSPost2010PropOp57
 70
     1
  0
XRECORD
  5
301
102
{ACAD_REACTORS
330
300
102
}
330
300
100
AcDbXrecord
280
     1
102
RTVSPropertyOp0
 70
     1
102
RTVSPropertyOp1
 70
     1
102
RTVSPropertyOp2
 70
     1
102
RTVSPropertyOp3
 70
     1
102
RTVSPropertyOp4
 70
     1
102
RTVSPropertyOp5
 70
     1
102
RTVSPropertyOp6
 70
     1
102
RTVSPropertyOp7
 70
     1
102
RTVSPropertyOp8
 70
     1
102
RTVSPropertyOp9
 70
     1
102
RTVSPropertyOp10
 70
     1
102
RTVSPropertyOp11
 70
     1
102
RTVSPropertyOp12
 70
     1
102
RTVSPropertyOp13
 70
     1
102
RTVSPropertyOp14
 70
     1
102
RTVSPropertyOp15
 70
     1
102
RTVSPropertyOp16
 70
     1
102
RTVSPropertyOp17
 70
     1
102
RTVSPropertyOp18
 70
     1
102
RTVSPropertyOp19
 70
     1
102
RTVSPropertyOp20
 70
     1
102
RTVSPropertyOp21
 70
     1
102
RTVSPropertyOp22
 70
     1
102
RTVSPropertyOp23
 70
     1
102
RTVSPropertyOp24
 70
     1
102
RTVSPropertyOp25
 70
     1
102
RTVSPropertyOp26
 70
     1
102
RTVSPropertyOp27
 70
     1
102
RTVSPropertyOp28
 70
     1
102
RTVSPropertyOp29
 70
     1
102
RTVSPropertyOp30
 70
     1
102
RTVSPropertyOp31
 70
     1
102
RTVSPropertyOp32
 70
     1
102
RTVSPropertyOp33
 70
     1
102
RTVSPropertyOp34
 70
     1
102
RTVSPropertyOp35
 70
     1
102
RTVSPropertyOp36
 70
     1
102
RTVSPropertyOp37
 70
     1
102
RTVSPropertyOp38
 70
     1
102
RTVSPropertyOp39
 70
     1
102
RTVSPropertyOp40
 70
     1
102
RTVSPropertyOp41
 70
     1
102
RTVSPropertyOp42
 70
     1
102
RTVSPropertyOp43
 70
     1
102
RTVSPropertyOp44
 70
     1
102
RTVSPropertyOp45
 70
     1
102
RTVSPropertyOp46
 70
     1
102
RTVSPropertyOp47
 70
     1
102
RTVSPropertyOp48
 70
     1
102
RTVSPropertyOp49
 70
     1
102
RTVSPropertyOp50
 70
     1
102
RTVSPropertyOp51
 70
     0
102
RTVSPropertyOp52
 70
     0
102
RTVSPropertyOp53
 70
     1
102
RTVSPropertyOp54
 70
     1
102
RTVSPropertyOp55
 70
     1
102
RTVSPropertyOp56
 70
     1
102
RTVSPropertyOp57
 70
     1
102
RTVSPost2010Prop28
280
     0
102
RTVSPost2010PropOp28
 70
     1
102
RTVSPost2010Prop29
280
     1
102
RTVSPost2010PropOp29
 70
     1
102
RTVSPost2010Prop30
280
     1
102
RTVSPost2010PropOp30
 70
     1
102
RTVSPost2010Prop31
280
     0
102
RTVSPost2010PropOp31
 70
     1
102
RTVSPost2010Prop32
280
     0
102
RTVSPost2010PropOp32
 70
     1
102
RTVSPost2010Prop33
280
     0
102
RTVSPost2010PropOp33
 70
     1
102
RTVSPost2010Prop34
280
     0
102
RTVSPost2010PropOp34
 70
     1
102
RTVSPost2010Prop35
280
     0
102
RTVSPost2010PropOp35
 70
     1
102
RTVSPost2010Prop36
280
     0
102
RTVSPost2010PropOp36
 70
     1
102
RTVSPost2010Prop37
 90
       50
102
RTVSPost2010PropOp37
 70
     1
102
RTVSPost2010Prop38
140
0.0
102
RTVSPost2010PropOp38
 70
     1
102
RTVSPost2010Prop39
140
1.0
102
RTVSPost2010PropOp39
 70
     1
102
RTVSPost2010Prop40
 90
        0
102
RTVSPost2010PropOp40
 70
     1
102
RTVSPost2010Prop41ColorIndex
 90
      178
102
RTVSPost2010Prop41ColorRGB
 90
        0
102
RTVSPost2010PropOp41
 70
     1
102
RTVSPost2010Prop42
 90
       50
102
RTVSPost2010PropOp42
 70
     1
102
RTVSPost2010Prop43
 90
        3
102
RTVSPost2010PropOp43
 70
     1
102
RTVSPost2010Prop44ColorIndex
 90
        5
102
RTVSPost2010Prop44ColorRGB
 90
      255
102
RTVSPost2010PropOp44
 70
     1
102
RTVSPost2010Prop45
280
     0
102
RTVSPost2010PropOp45
 70
     1
102
RTVSPost2010Prop46
 90
       50
102
RTVSPost2010PropOp46
 70
     1
102
RTVSPost2010Prop47
 90
       50
102
RTVSPost2010PropOp47
 70
     1
102
RTVSPost2010Prop48
 90
       50
102
RTVSPost2010PropOp48
 70
     1
102
RTVSPost2010Prop49
280
     0
102
RTVSPost2010PropOp49
 70
     1
102
RTVSPost2010Prop50
 90
       50
102
RTVSPost2010PropOp50
 70
     1
102
RTVSPost2010Prop51ColorIndex
 90
      256
102
RTVSPost2010Prop51ColorRGB
 90
-16777216
102
RTVSPost2010PropOp51
 70
     0
102
RTVSPost2010Prop52
140
1.0
102
RTVSPost2010PropOp52
 70
     0
102
RTVSPost2010Prop53
 90
        2
102
RTVSPost2010PropOp53
 70
     1
102
RTVSPost2010Prop54
  1
strokes_ogs.tif
102
RTVSPost2010PropOp54
 70
     1
102
RTVSPost2010Prop55
280
     0
102
RTVSPost2010PropOp55
 70
     1
102
RTVSPost2010Prop56
140
1.0
102
RTVSPost2010PropOp56
 70
     1
102
RTVSPost2010Prop57
140
1.0
102
RTVSPost2010PropOp57
 70
     1
  0
XRECORD
  5
303
102
{ACAD_REACTORS
330
302
102
}
330
302
100
AcDbXrecord
280
     1
102
RTVSPropertyOp0
 70
     1
102
RTVSPropertyOp1
 70
     1
102
RTVSPropertyOp2
 70
     1
102
RTVSPropertyOp3
 70
     1
102
RTVSPropertyOp4
 70
     1
102
RTVSPropertyOp5
 70
     1
102
RTVSPropertyOp6
 70
     1
102
RTVSPropertyOp7
 70
     1
102
RTVSPropertyOp8
 70
     1
102
RTVSPropertyOp9
 70
     1
102
RTVSPropertyOp10
 70
     1
102
RTVSPropertyOp11
 70
     1
102
RTVSPropertyOp12
 70
     1
102
RTVSPropertyOp13
 70
     1
102
RTVSPropertyOp14
 70
     1
102
RTVSPropertyOp15
 70
     1
102
RTVSPropertyOp16
 70
     1
102
RTVSPropertyOp17
 70
     1
102
RTVSPropertyOp18
 70
     1
102
RTVSPropertyOp19
 70
     1
102
RTVSPropertyOp20
 70
     1
102
RTVSPropertyOp21
 70
     1
102
RTVSPropertyOp22
 70
     1
102
RTVSPropertyOp23
 70
     1
102
RTVSPropertyOp24
 70
     1
102
RTVSPropertyOp25
 70
     1
102
RTVSPropertyOp26
 70
     1
102
RTVSPropertyOp27
 70
     1
102
RTVSPropertyOp28
 70
     1
102
RTVSPropertyOp29
 70
     1
102
RTVSPropertyOp30
 70
     1
102
RTVSPropertyOp31
 70
     1
102
RTVSPropertyOp32
 70
     1
102
RTVSPropertyOp33
 70
     1
102
RTVSPropertyOp34
 70
     1
102
RTVSPropertyOp35
 70
     1
102
RTVSPropertyOp36
 70
     1
102
RTVSPropertyOp37
 70
     1
102
RTVSPropertyOp38
 70
     1
102
RTVSPropertyOp39
 70
     1
102
RTVSPropertyOp40
 70
     1
102
RTVSPropertyOp41
 70
     1
102
RTVSPropertyOp42
 70
     1
102
RTVSPropertyOp43
 70
     1
102
RTVSPropertyOp44
 70
     1
102
RTVSPropertyOp45
 70
     1
102
RTVSPropertyOp46
 70
     1
102
RTVSPropertyOp47
 70
     1
102
RTVSPropertyOp48
 70
     1
102
RTVSPropertyOp49
 70
     1
102
RTVSPropertyOp50
 70
     1
102
RTVSPropertyOp51
 70
     0
102
RTVSPropertyOp52
 70
     0
102
RTVSPropertyOp53
 70
     1
102
RTVSPropertyOp54
 70
     1
102
RTVSPropertyOp55
 70
     1
102
RTVSPropertyOp56
 70
     1
102
RTVSPropertyOp57
 70
     1
102
RTVSPost2010Prop28
280
     0
102
RTVSPost2010PropOp28
 70
     1
102
RTVSPost2010Prop29
280
     1
102
RTVSPost2010PropOp29
 70
     1
102
RTVSPost2010Prop30
280
     1
102
RTVSPost2010PropOp30
 70
     1
102
RTVSPost2010Prop31
280
     0
102
RTVSPost2010PropOp31
 70
     1
102
RTVSPost2010Prop32
280
     0
102
RTVSPost2010PropOp32
 70
     1
102
RTVSPost2010Prop33
280
     0
102
RTVSPost2010PropOp33
 70
     1
102
RTVSPost2010Prop34
280
     0
102
RTVSPost2010PropOp34
 70
     1
102
RTVSPost2010Prop35
280
     0
102
RTVSPost2010PropOp35
 70
     1
102
RTVSPost2010Prop36
280
     0
102
RTVSPost2010PropOp36
 70
     1
102
RTVSPost2010Prop37
 90
       50
102
RTVSPost2010PropOp37
 70
     1
102
RTVSPost2010Prop38
140
0.0
102
RTVSPost2010PropOp38
 70
     1
102
RTVSPost2010Prop39
140
1.0
102
RTVSPost2010PropOp39
 70
     1
102
RTVSPost2010Prop40
 90
        0
102
RTVSPost2010PropOp40
 70
     1
102
RTVSPost2010Prop41ColorIndex
 90
      178
102
RTVSPost2010Prop41ColorRGB
 90
        0
102
RTVSPost2010PropOp41
 70
     1
102
RTVSPost2010Prop42
 90
       50
102
RTVSPost2010PropOp42
 70
     1
102
RTVSPost2010Prop43
 90
        3
102
RTVSPost2010PropOp43
 70
     1
102
RTVSPost2010Prop44ColorIndex
 90
        5
102
RTVSPost2010Prop44ColorRGB
 90
      255
102
RTVSPost2010PropOp44
 70
     1
102
RTVSPost2010Prop45
280
     0
102
RTVSPost2010PropOp45
 70
     1
102
RTVSPost2010Prop46
 90
       50
102
RTVSPost2010PropOp46
 70
     1
102
RTVSPost2010Prop47
 90
       50
102
RTVSPost2010PropOp47
 70
     1
102
RTVSPost2010Prop48
 90
       50
102
RTVSPost2010PropOp48
 70
     1
102
RTVSPost2010Prop49
280
     0
102
RTVSPost2010PropOp49
 70
     1
102
RTVSPost2010Prop50
 90
       50
102
RTVSPost2010PropOp50
 70
     1
102
RTVSPost2010Prop51ColorIndex
 90
      256
102
RTVSPost2010Prop51ColorRGB
 90
-16777216
102
RTVSPost2010PropOp51
 70
     0
102
RTVSPost2010Prop52
140
1.0
102
RTVSPost2010PropOp52
 70
     0
102
RTVSPost2010Prop53
 90
        2
102
RTVSPost2010PropOp53
 70
     1
102
RTVSPost2010Prop54
  1
strokes_ogs.tif
102
RTVSPost2010PropOp54
 70
     1
102
RTVSPost2010Prop55
280
     0
102
RTVSPost2010PropOp55
 70
     1
102
RTVSPost2010Prop56
140
1.0
102
RTVSPost2010PropOp56
 70
     1
102
RTVSPost2010Prop57
140
1.0
102
RTVSPost2010PropOp57
 70
     1
  0
XRECORD
  5
313
102
{ACAD_REACTORS
330
312
102
}
330
312
100
AcDbXrecord
280
     1
102
RTVSPropertyOp0
 70
     0
102
RTVSPropertyOp1
 70
     0
102
RTVSPropertyOp2
 70
     0
102
RTVSPropertyOp3
 70
     0
102
RTVSPropertyOp4
 70
     0
102
RTVSPropertyOp5
 70
     0
102
RTVSPropertyOp6
 70
     0
102
RTVSPropertyOp7
 70
     0
102
RTVSPropertyOp8
 70
     0
102
RTVSPropertyOp9
 70
     0
102
RTVSPropertyOp10
 70
     0
102
RTVSPropertyOp11
 70
     0
102
RTVSPropertyOp12
 70
     0
102
RTVSPropertyOp13
 70
     0
102
RTVSPropertyOp14
 70
     2
102
RTVSPropertyOp15
 70
     0
102
RTVSPropertyOp16
 70
     0
102
RTVSPropertyOp17
 70
     0
102
RTVSPropertyOp18
 70
     0
102
RTVSPropertyOp19
 70
     0
102
RTVSPropertyOp20
 70
     0
102
RTVSPropertyOp21
 70
     0
102
RTVSPropertyOp22
 70
     0
102
RTVSPropertyOp23
 70
     0
102
RTVSPropertyOp24
 70
     0
102
RTVSPropertyOp25
 70
     0
102
RTVSPropertyOp26
 70
     0
102
RTVSPropertyOp27
 70
     0
102
RTVSPropertyOp28
 70
     0
102
RTVSPropertyOp29
 70
     0
102
RTVSPropertyOp30
 70
     0
102
RTVSPropertyOp31
 70
     0
102
RTVSPropertyOp32
 70
     0
102
RTVSPropertyOp33
 70
     0
102
RTVSPropertyOp34
 70
     0
102
RTVSPropertyOp35
 70
     0
102
RTVSPropertyOp36
 70
     0
102
RTVSPropertyOp37
 70
     0
102
RTVSPropertyOp38
 70
     0
102
RTVSPropertyOp39
 70
     0
102
RTVSPropertyOp40
 70
     0
102
RTVSPropertyOp41
 70
     0
102
RTVSPropertyOp42
 70
     0
102
RTVSPropertyOp43
 70
     0
102
RTVSPropertyOp44
 70
     0
102
RTVSPropertyOp45
 70
     0
102
RTVSPropertyOp46
 70
     0
102
RTVSPropertyOp47
 70
     0
102
RTVSPropertyOp48
 70
     0
102
RTVSPropertyOp49
 70
     0
102
RTVSPropertyOp50
 70
     0
102
RTVSPropertyOp51
 70
     0
102
RTVSPropertyOp52
 70
     0
102
RTVSPropertyOp53
 70
     0
102
RTVSPropertyOp54
 70
     0
102
RTVSPropertyOp55
 70
     0
102
RTVSPropertyOp56
 70
     0
102
RTVSPropertyOp57
 70
     0
102
RTVSPost2010Prop28
280
     0
102
RTVSPost2010PropOp28
 70
     0
102
RTVSPost2010Prop29
280
     1
102
RTVSPost2010PropOp29
 70
     0
102
RTVSPost2010Prop30
280
     1
102
RTVSPost2010PropOp30
 70
     0
102
RTVSPost2010Prop31
280
     0
102
RTVSPost2010PropOp31
 70
     0
102
RTVSPost2010Prop32
280
     0
102
RTVSPost2010PropOp32
 70
     0
102
RTVSPost2010Prop33
280
     0
102
RTVSPost2010PropOp33
 70
     0
102
RTVSPost2010Prop34
280
     0
102
RTVSPost2010PropOp34
 70
     0
102
RTVSPost2010Prop35
280
     0
102
RTVSPost2010PropOp35
 70
     0
102
RTVSPost2010Prop36
280
     0
102
RTVSPost2010PropOp36
 70
     0
102
RTVSPost2010Prop37
 90
       50
102
RTVSPost2010PropOp37
 70
     0
102
RTVSPost2010Prop38
140
0.0
102
RTVSPost2010PropOp38
 70
     0
102
RTVSPost2010Prop39
140
1.0
102
RTVSPost2010PropOp39
 70
     0
102
RTVSPost2010Prop40
 90
        0
102
RTVSPost2010PropOp40
 70
     0
102
RTVSPost2010Prop41ColorIndex
 90
      178
102
RTVSPost2010Prop41ColorRGB
 90
        0
102
RTVSPost2010PropOp41
 70
     0
102
RTVSPost2010Prop42
 90
       50
102
RTVSPost2010PropOp42
 70
     0
102
RTVSPost2010Prop43
 90
        3
102
RTVSPost2010PropOp43
 70
     0
102
RTVSPost2010Prop44ColorIndex
 90
        5
102
RTVSPost2010Prop44ColorRGB
 90
      255
102
RTVSPost2010PropOp44
 70
     0
102
RTVSPost2010Prop45
280
     0
102
RTVSPost2010PropOp45
 70
     0
102
RTVSPost2010Prop46
 90
       50
102
RTVSPost2010PropOp46
 70
     0
102
RTVSPost2010Prop47
 90
       50
102
RTVSPost2010PropOp47
 70
     0
102
RTVSPost2010Prop48
 90
       50
102
RTVSPost2010PropOp48
 70
     0
102
RTVSPost2010Prop49
280
     0
102
RTVSPost2010PropOp49
 70
     0
102
RTVSPost2010Prop50
 90
       50
102
RTVSPost2010PropOp50
 70
     0
102
RTVSPost2010Prop51ColorIndex
 90
      256
102
RTVSPost2010Prop51ColorRGB
 90
-16777216
102
RTVSPost2010PropOp51
 70
     0
102
RTVSPost2010Prop52
140
1.0
102
RTVSPost2010PropOp52
 70
     0
102
RTVSPost2010Prop53
 90
        2
102
RTVSPost2010PropOp53
 70
     0
102
RTVSPost2010Prop54
  1
strokes_ogs.tif
102
RTVSPost2010PropOp54
 70
     0
102
RTVSPost2010Prop55
280
     0
102
RTVSPost2010PropOp55
 70
     0
102
RTVSPost2010Prop56
140
1.0
102
RTVSPost2010PropOp56
 70
     0
102
RTVSPost2010Prop57
140
1.0
102
RTVSPost2010PropOp57
 70
     0
  0
XRECORD
  5
30B
102
{ACAD_REACTORS
330
30A
102
}
330
30A
100
AcDbXrecord
280
     1
102
RTVSPropertyOp0
 70
     1
102
RTVSPropertyOp1
 70
     1
102
RTVSPropertyOp2
 70
     1
102
RTVSPropertyOp3
 70
     1
102
RTVSPropertyOp4
 70
     1
102
RTVSPropertyOp5
 70
     1
102
RTVSPropertyOp6
 70
     1
102
RTVSPropertyOp7
 70
     1
102
RTVSPropertyOp8
 70
     1
102
RTVSPropertyOp9
 70
     1
102
RTVSPropertyOp10
 70
     1
102
RTVSPropertyOp11
 70
     1
102
RTVSPropertyOp12
 70
     1
102
RTVSPropertyOp13
 70
     1
102
RTVSPropertyOp14
 70
     1
102
RTVSPropertyOp15
 70
     1
102
RTVSPropertyOp16
 70
     1
102
RTVSPropertyOp17
 70
     1
102
RTVSPropertyOp18
 70
     1
102
RTVSPropertyOp19
 70
     1
102
RTVSPropertyOp20
 70
     1
102
RTVSPropertyOp21
 70
     1
102
RTVSPropertyOp22
 70
     1
102
RTVSPropertyOp23
 70
     1
102
RTVSPropertyOp24
 70
     1
102
RTVSPropertyOp25
 70
     1
102
RTVSPropertyOp26
 70
     1
102
RTVSPropertyOp27
 70
     1
102
RTVSPropertyOp28
 70
     1
102
RTVSPropertyOp29
 70
     1
102
RTVSPropertyOp30
 70
     1
102
RTVSPropertyOp31
 70
     1
102
RTVSPropertyOp32
 70
     1
102
RTVSPropertyOp33
 70
     1
102
RTVSPropertyOp34
 70
     1
102
RTVSPropertyOp35
 70
     1
102
RTVSPropertyOp36
 70
     1
102
RTVSPropertyOp37
 70
     1
102
RTVSPropertyOp38
 70
     1
102
RTVSPropertyOp39
 70
     1
102
RTVSPropertyOp40
 70
     1
102
RTVSPropertyOp41
 70
     1
102
RTVSPropertyOp42
 70
     1
102
RTVSPropertyOp43
 70
     1
102
RTVSPropertyOp44
 70
     1
102
RTVSPropertyOp45
 70
     1
102
RTVSPropertyOp46
 70
     1
102
RTVSPropertyOp47
 70
     1
102
RTVSPropertyOp48
 70
     1
102
RTVSPropertyOp49
 70
     1
102
RTVSPropertyOp50
 70
     1
102
RTVSPropertyOp51
 70
     0
102
RTVSPropertyOp52
 70
     0
102
RTVSPropertyOp53
 70
     1
102
RTVSPropertyOp54
 70
     1
102
RTVSPropertyOp55
 70
     1
102
RTVSPropertyOp56
 70
     1
102
RTVSPropertyOp57
 70
     1
102
RTVSPost2010Prop28
280
     0
102
RTVSPost2010PropOp28
 70
     1
102
RTVSPost2010Prop29
280
     1
102
RTVSPost2010PropOp29
 70
     1
102
RTVSPost2010Prop30
280
     1
102
RTVSPost2010PropOp30
 70
     1
102
RTVSPost2010Prop31
280
     0
102
RTVSPost2010PropOp31
 70
     1
102
RTVSPost2010Prop32
280
     0
102
RTVSPost2010PropOp32
 70
     1
102
RTVSPost2010Prop33
280
     0
102
RTVSPost2010PropOp33
 70
     1
102
RTVSPost2010Prop34
280
     0
102
RTVSPost2010PropOp34
 70
     1
102
RTVSPost2010Prop35
280
     0
102
RTVSPost2010PropOp35
 70
     1
102
RTVSPost2010Prop36
280
     0
102
RTVSPost2010PropOp36
 70
     1
102
RTVSPost2010Prop37
 90
       50
102
RTVSPost2010PropOp37
 70
     1
102
RTVSPost2010Prop38
140
0.0
102
RTVSPost2010PropOp38
 70
     1
102
RTVSPost2010Prop39
140
1.0
102
RTVSPost2010PropOp39
 70
     1
102
RTVSPost2010Prop40
 90
        0
102
RTVSPost2010PropOp40
 70
     1
102
RTVSPost2010Prop41ColorIndex
 90
      178
102
RTVSPost2010Prop41ColorRGB
 90
        0
102
RTVSPost2010PropOp41
 70
     1
102
RTVSPost2010Prop42
 90
       50
102
RTVSPost2010PropOp42
 70
     1
102
RTVSPost2010Prop43
 90
        3
102
RTVSPost2010PropOp43
 70
     1
102
RTVSPost2010Prop44ColorIndex
 90
        5
102
RTVSPost2010Prop44ColorRGB
 90
      255
102
RTVSPost2010PropOp44
 70
     1
102
RTVSPost2010Prop45
280
     0
102
RTVSPost2010PropOp45
 70
     1
102
RTVSPost2010Prop46
 90
       50
102
RTVSPost2010PropOp46
 70
     1
102
RTVSPost2010Prop47
 90
       50
102
RTVSPost2010PropOp47
 70
     1
102
RTVSPost2010Prop48
 90
       50
102
RTVSPost2010PropOp48
 70
     1
102
RTVSPost2010Prop49
280
     0
102
RTVSPost2010PropOp49
 70
     1
102
RTVSPost2010Prop50
 90
       50
102
RTVSPost2010PropOp50
 70
     1
102
RTVSPost2010Prop51ColorIndex
 90
      256
102
RTVSPost2010Prop51ColorRGB
 90
-16777216
102
RTVSPost2010PropOp51
 70
     0
102
RTVSPost2010Prop52
140
1.0
102
RTVSPost2010PropOp52
 70
     0
102
RTVSPost2010Prop53
 90
        2
102
RTVSPost2010PropOp53
 70
     1
102
RTVSPost2010Prop54
  1
strokes_ogs.tif
102
RTVSPost2010PropOp54
 70
     1
102
RTVSPost2010Prop55
280
     0
102
RTVSPost2010PropOp55
 70
     1
102
RTVSPost2010Prop56
140
1.0
102
RTVSPost2010PropOp56
 70
     1
102
RTVSPost2010Prop57
140
1.0
102
RTVSPost2010PropOp57
 70
     1
  0
XRECORD
  5
2EF
102
{ACAD_REACTORS
330
2EE
102
}
330
2EE
100
AcDbXrecord
280
     1
102
RTVSPropertyOp0
 70
     1
102
RTVSPropertyOp1
 70
     1
102
RTVSPropertyOp2
 70
     1
102
RTVSPropertyOp3
 70
     1
102
RTVSPropertyOp4
 70
     1
102
RTVSPropertyOp5
 70
     1
102
RTVSPropertyOp6
 70
     1
102
RTVSPropertyOp7
 70
     1
102
RTVSPropertyOp8
 70
     1
102
RTVSPropertyOp9
 70
     1
102
RTVSPropertyOp10
 70
     1
102
RTVSPropertyOp11
 70
     1
102
RTVSPropertyOp12
 70
     1
102
RTVSPropertyOp13
 70
     1
102
RTVSPropertyOp14
 70
     1
102
RTVSPropertyOp15
 70
     1
102
RTVSPropertyOp16
 70
     1
102
RTVSPropertyOp17
 70
     1
102
RTVSPropertyOp18
 70
     1
102
RTVSPropertyOp19
 70
     1
102
RTVSPropertyOp20
 70
     1
102
RTVSPropertyOp21
 70
     1
102
RTVSPropertyOp22
 70
     1
102
RTVSPropertyOp23
 70
     1
102
RTVSPropertyOp24
 70
     1
102
RTVSPropertyOp25
 70
     1
102
RTVSPropertyOp26
 70
     1
102
RTVSPropertyOp27
 70
     1
102
RTVSPropertyOp28
 70
     1
102
RTVSPropertyOp29
 70
     1
102
RTVSPropertyOp30
 70
     1
102
RTVSPropertyOp31
 70
     1
102
RTVSPropertyOp32
 70
     1
102
RTVSPropertyOp33
 70
     1
102
RTVSPropertyOp34
 70
     1
102
RTVSPropertyOp35
 70
     1
102
RTVSPropertyOp36
 70
     1
102
RTVSPropertyOp37
 70
     1
102
RTVSPropertyOp38
 70
     1
102
RTVSPropertyOp39
 70
     1
102
RTVSPropertyOp40
 70
     1
102
RTVSPropertyOp41
 70
     1
102
RTVSPropertyOp42
 70
     1
102
RTVSPropertyOp43
 70
     1
102
RTVSPropertyOp44
 70
     1
102
RTVSPropertyOp45
 70
     1
102
RTVSPropertyOp46
 70
     1
102
RTVSPropertyOp47
 70
     1
102
RTVSPropertyOp48
 70
     1
102
RTVSPropertyOp49
 70
     1
102
RTVSPropertyOp50
 70
     1
102
RTVSPropertyOp51
 70
     0
102
RTVSPropertyOp52
 70
     0
102
RTVSPropertyOp53
 70
     1
102
RTVSPropertyOp54
 70
     1
102
RTVSPropertyOp55
 70
     1
102
RTVSPropertyOp56
 70
     1
102
RTVSPropertyOp57
 70
     1
102
RTVSPost2010Prop28
280
     0
102
RTVSPost2010PropOp28
 70
     1
102
RTVSPost2010Prop29
280
     1
102
RTVSPost2010PropOp29
 70
     1
102
RTVSPost2010Prop30
280
     1
102
RTVSPost2010PropOp30
 70
     1
102
RTVSPost2010Prop31
280
     0
102
RTVSPost2010PropOp31
 70
     1
102
RTVSPost2010Prop32
280
     0
102
RTVSPost2010PropOp32
 70
     1
102
RTVSPost2010Prop33
280
     0
102
RTVSPost2010PropOp33
 70
     1
102
RTVSPost2010Prop34
280
     0
102
RTVSPost2010PropOp34
 70
     1
102
RTVSPost2010Prop35
280
     0
102
RTVSPost2010PropOp35
 70
     1
102
RTVSPost2010Prop36
280
     0
102
RTVSPost2010PropOp36
 70
     1
102
RTVSPost2010Prop37
 90
       50
102
RTVSPost2010PropOp37
 70
     1
102
RTVSPost2010Prop38
140
0.0
102
RTVSPost2010PropOp38
 70
     1
102
RTVSPost2010Prop39
140
1.0
102
RTVSPost2010PropOp39
 70
     1
102
RTVSPost2010Prop40
 90
        0
102
RTVSPost2010PropOp40
 70
     1
102
RTVSPost2010Prop41ColorIndex
 90
      178
102
RTVSPost2010Prop41ColorRGB
 90
        0
102
RTVSPost2010PropOp41
 70
     1
102
RTVSPost2010Prop42
 90
       50
102
RTVSPost2010PropOp42
 70
     1
102
RTVSPost2010Prop43
 90
        3
102
RTVSPost2010PropOp43
 70
     1
102
RTVSPost2010Prop44ColorIndex
 90
        5
102
RTVSPost2010Prop44ColorRGB
 90
      255
102
RTVSPost2010PropOp44
 70
     1
102
RTVSPost2010Prop45
280
     0
102
RTVSPost2010PropOp45
 70
     1
102
RTVSPost2010Prop46
 90
       50
102
RTVSPost2010PropOp46
 70
     1
102
RTVSPost2010Prop47
 90
       50
102
RTVSPost2010PropOp47
 70
     1
102
RTVSPost2010Prop48
 90
       50
102
RTVSPost2010PropOp48
 70
     1
102
RTVSPost2010Prop49
280
     0
102
RTVSPost2010PropOp49
 70
     1
102
RTVSPost2010Prop50
 90
       50
102
RTVSPost2010PropOp50
 70
     1
102
RTVSPost2010Prop51ColorIndex
 90
      256
102
RTVSPost2010Prop51ColorRGB
 90
-16777216
102
RTVSPost2010PropOp51
 70
     0
102
RTVSPost2010Prop52
140
1.0
102
RTVSPost2010PropOp52
 70
     0
102
RTVSPost2010Prop53
 90
        2
102
RTVSPost2010PropOp53
 70
     1
102
RTVSPost2010Prop54
  1
strokes_ogs.tif
102
RTVSPost2010PropOp54
 70
     1
102
RTVSPost2010Prop55
280
     0
102
RTVSPost2010PropOp55
 70
     1
102
RTVSPost2010Prop56
140
1.0
102
RTVSPost2010PropOp56
 70
     1
102
RTVSPost2010Prop57
140
1.0
102
RTVSPost2010PropOp57
 70
     1
  0
XRECORD
  5
2F1
102
{ACAD_REACTORS
330
2F0
102
}
330
2F0
100
AcDbXrecord
280
     1
102
RTVSPropertyOp0
 70
     1
102
RTVSPropertyOp1
 70
     1
102
RTVSPropertyOp2
 70
     1
102
RTVSPropertyOp3
 70
     1
102
RTVSPropertyOp4
 70
     1
102
RTVSPropertyOp5
 70
     1
102
RTVSPropertyOp6
 70
     1
102
RTVSPropertyOp7
 70
     1
102
RTVSPropertyOp8
 70
     1
102
RTVSPropertyOp9
 70
     1
102
RTVSPropertyOp10
 70
     1
102
RTVSPropertyOp11
 70
     1
102
RTVSPropertyOp12
 70
     1
102
RTVSPropertyOp13
 70
     1
102
RTVSPropertyOp14
 70
     1
102
RTVSPropertyOp15
 70
     1
102
RTVSPropertyOp16
 70
     1
102
RTVSPropertyOp17
 70
     1
102
RTVSPropertyOp18
 70
     1
102
RTVSPropertyOp19
 70
     1
102
RTVSPropertyOp20
 70
     1
102
RTVSPropertyOp21
 70
     1
102
RTVSPropertyOp22
 70
     1
102
RTVSPropertyOp23
 70
     1
102
RTVSPropertyOp24
 70
     1
102
RTVSPropertyOp25
 70
     1
102
RTVSPropertyOp26
 70
     1
102
RTVSPropertyOp27
 70
     1
102
RTVSPropertyOp28
 70
     1
102
RTVSPropertyOp29
 70
     1
102
RTVSPropertyOp30
 70
     1
102
RTVSPropertyOp31
 70
     1
102
RTVSPropertyOp32
 70
     1
102
RTVSPropertyOp33
 70
     1
102
RTVSPropertyOp34
 70
     1
102
RTVSPropertyOp35
 70
     1
102
RTVSPropertyOp36
 70
     1
102
RTVSPropertyOp37
 70
     1
102
RTVSPropertyOp38
 70
     1
102
RTVSPropertyOp39
 70
     1
102
RTVSPropertyOp40
 70
     1
102
RTVSPropertyOp41
 70
     1
102
RTVSPropertyOp42
 70
     1
102
RTVSPropertyOp43
 70
     1
102
RTVSPropertyOp44
 70
     1
102
RTVSPropertyOp45
 70
     1
102
RTVSPropertyOp46
 70
     1
102
RTVSPropertyOp47
 70
     1
102
RTVSPropertyOp48
 70
     1
102
RTVSPropertyOp49
 70
     1
102
RTVSPropertyOp50
 70
     1
102
RTVSPropertyOp51
 70
     0
102
RTVSPropertyOp52
 70
     0
102
RTVSPropertyOp53
 70
     1
102
RTVSPropertyOp54
 70
     1
102
RTVSPropertyOp55
 70
     1
102
RTVSPropertyOp56
 70
     1
102
RTVSPropertyOp57
 70
     1
102
RTVSPost2010Prop28
280
     0
102
RTVSPost2010PropOp28
 70
     1
102
RTVSPost2010Prop29
280
     1
102
RTVSPost2010PropOp29
 70
     1
102
RTVSPost2010Prop30
280
     1
102
RTVSPost2010PropOp30
 70
     1
102
RTVSPost2010Prop31
280
     0
102
RTVSPost2010PropOp31
 70
     1
102
RTVSPost2010Prop32
280
     0
102
RTVSPost2010PropOp32
 70
     1
102
RTVSPost2010Prop33
280
     0
102
RTVSPost2010PropOp33
 70
     1
102
RTVSPost2010Prop34
280
     0
102
RTVSPost2010PropOp34
 70
     1
102
RTVSPost2010Prop35
280
     0
102
RTVSPost2010PropOp35
 70
     1
102
RTVSPost2010Prop36
280
     0
102
RTVSPost2010PropOp36
 70
     1
102
RTVSPost2010Prop37
 90
       50
102
RTVSPost2010PropOp37
 70
     1
102
RTVSPost2010Prop38
140
0.0
102
RTVSPost2010PropOp38
 70
     1
102
RTVSPost2010Prop39
140
1.0
102
RTVSPost2010PropOp39
 70
     1
102
RTVSPost2010Prop40
 90
        0
102
RTVSPost2010PropOp40
 70
     1
102
RTVSPost2010Prop41ColorIndex
 90
      178
102
RTVSPost2010Prop41ColorRGB
 90
        0
102
RTVSPost2010PropOp41
 70
     1
102
RTVSPost2010Prop42
 90
       50
102
RTVSPost2010PropOp42
 70
     1
102
RTVSPost2010Prop43
 90
        3
102
RTVSPost2010PropOp43
 70
     1
102
RTVSPost2010Prop44ColorIndex
 90
        5
102
RTVSPost2010Prop44ColorRGB
 90
      255
102
RTVSPost2010PropOp44
 70
     1
102
RTVSPost2010Prop45
280
     0
102
RTVSPost2010PropOp45
 70
     1
102
RTVSPost2010Prop46
 90
       50
102
RTVSPost2010PropOp46
 70
     1
102
RTVSPost2010Prop47
 90
       50
102
RTVSPost2010PropOp47
 70
     1
102
RTVSPost2010Prop48
 90
       50
102
RTVSPost2010PropOp48
 70
     1
102
RTVSPost2010Prop49
280
     0
102
RTVSPost2010PropOp49
 70
     1
102
RTVSPost2010Prop50
 90
       50
102
RTVSPost2010PropOp50
 70
     1
102
RTVSPost2010Prop51ColorIndex
 90
      256
102
RTVSPost2010Prop51ColorRGB
 90
-16777216
102
RTVSPost2010PropOp51
 70
     0
102
RTVSPost2010Prop52
140
1.0
102
RTVSPost2010PropOp52
 70
     0
102
RTVSPost2010Prop53
 90
        2
102
RTVSPost2010PropOp53
 70
     1
102
RTVSPost2010Prop54
  1
strokes_ogs.tif
102
RTVSPost2010PropOp54
 70
     1
102
RTVSPost2010Prop55
280
     0
102
RTVSPost2010PropOp55
 70
     1
102
RTVSPost2010Prop56
140
1.0
102
RTVSPost2010PropOp56
 70
     1
102
RTVSPost2010Prop57
140
1.0
102
RTVSPost2010PropOp57
 70
     1
  0
XRECORD
  5
2F3
102
{ACAD_REACTORS
330
2F2
102
}
330
2F2
100
AcDbXrecord
280
     1
102
RTVSPropertyOp0
 70
     1
102
RTVSPropertyOp1
 70
     1
102
RTVSPropertyOp2
 70
     1
102
RTVSPropertyOp3
 70
     1
102
RTVSPropertyOp4
 70
     1
102
RTVSPropertyOp5
 70
     1
102
RTVSPropertyOp6
 70
     1
102
RTVSPropertyOp7
 70
     1
102
RTVSPropertyOp8
 70
     1
102
RTVSPropertyOp9
 70
     1
102
RTVSPropertyOp10
 70
     1
102
RTVSPropertyOp11
 70
     1
102
RTVSPropertyOp12
 70
     1
102
RTVSPropertyOp13
 70
     1
102
RTVSPropertyOp14
 70
     1
102
RTVSPropertyOp15
 70
     1
102
RTVSPropertyOp16
 70
     1
102
RTVSPropertyOp17
 70
     1
102
RTVSPropertyOp18
 70
     1
102
RTVSPropertyOp19
 70
     1
102
RTVSPropertyOp20
 70
     1
102
RTVSPropertyOp21
 70
     1
102
RTVSPropertyOp22
 70
     1
102
RTVSPropertyOp23
 70
     1
102
RTVSPropertyOp24
 70
     1
102
RTVSPropertyOp25
 70
     1
102
RTVSPropertyOp26
 70
     1
102
RTVSPropertyOp27
 70
     1
102
RTVSPropertyOp28
 70
     1
102
RTVSPropertyOp29
 70
     1
102
RTVSPropertyOp30
 70
     1
102
RTVSPropertyOp31
 70
     1
102
RTVSPropertyOp32
 70
     1
102
RTVSPropertyOp33
 70
     1
102
RTVSPropertyOp34
 70
     1
102
RTVSPropertyOp35
 70
     1
102
RTVSPropertyOp36
 70
     1
102
RTVSPropertyOp37
 70
     1
102
RTVSPropertyOp38
 70
     1
102
RTVSPropertyOp39
 70
     1
102
RTVSPropertyOp40
 70
     1
102
RTVSPropertyOp41
 70
     1
102
RTVSPropertyOp42
 70
     1
102
RTVSPropertyOp43
 70
     1
102
RTVSPropertyOp44
 70
     1
102
RTVSPropertyOp45
 70
     1
102
RTVSPropertyOp46
 70
     1
102
RTVSPropertyOp47
 70
     1
102
RTVSPropertyOp48
 70
     1
102
RTVSPropertyOp49
 70
     1
102
RTVSPropertyOp50
 70
     1
102
RTVSPropertyOp51
 70
     0
102
RTVSPropertyOp52
 70
     0
102
RTVSPropertyOp53
 70
     1
102
RTVSPropertyOp54
 70
     1
102
RTVSPropertyOp55
 70
     1
102
RTVSPropertyOp56
 70
     1
102
RTVSPropertyOp57
 70
     1
102
RTVSPost2010Prop28
280
     0
102
RTVSPost2010PropOp28
 70
     1
102
RTVSPost2010Prop29
280
     1
102
RTVSPost2010PropOp29
 70
     1
102
RTVSPost2010Prop30
280
     1
102
RTVSPost2010PropOp30
 70
     1
102
RTVSPost2010Prop31
280
     0
102
RTVSPost2010PropOp31
 70
     1
102
RTVSPost2010Prop32
280
     0
102
RTVSPost2010PropOp32
 70
     1
102
RTVSPost2010Prop33
280
     0
102
RTVSPost2010PropOp33
 70
     1
102
RTVSPost2010Prop34
280
     0
102
RTVSPost2010PropOp34
 70
     1
102
RTVSPost2010Prop35
280
     0
102
RTVSPost2010PropOp35
 70
     1
102
RTVSPost2010Prop36
280
     0
102
RTVSPost2010PropOp36
 70
     1
102
RTVSPost2010Prop37
 90
       50
102
RTVSPost2010PropOp37
 70
     1
102
RTVSPost2010Prop38
140
0.0
102
RTVSPost2010PropOp38
 70
     1
102
RTVSPost2010Prop39
140
1.0
102
RTVSPost2010PropOp39
 70
     1
102
RTVSPost2010Prop40
 90
        0
102
RTVSPost2010PropOp40
 70
     1
102
RTVSPost2010Prop41ColorIndex
 90
      178
102
RTVSPost2010Prop41ColorRGB
 90
        0
102
RTVSPost2010PropOp41
 70
     1
102
RTVSPost2010Prop42
 90
       50
102
RTVSPost2010PropOp42
 70
     1
102
RTVSPost2010Prop43
 90
        3
102
RTVSPost2010PropOp43
 70
     1
102
RTVSPost2010Prop44ColorIndex
 90
        5
102
RTVSPost2010Prop44ColorRGB
 90
      255
102
RTVSPost2010PropOp44
 70
     1
102
RTVSPost2010Prop45
280
     0
102
RTVSPost2010PropOp45
 70
     1
102
RTVSPost2010Prop46
 90
       50
102
RTVSPost2010PropOp46
 70
     1
102
RTVSPost2010Prop47
 90
       50
102
RTVSPost2010PropOp47
 70
     1
102
RTVSPost2010Prop48
 90
       50
102
RTVSPost2010PropOp48
 70
     1
102
RTVSPost2010Prop49
280
     0
102
RTVSPost2010PropOp49
 70
     1
102
RTVSPost2010Prop50
 90
       50
102
RTVSPost2010PropOp50
 70
     1
102
RTVSPost2010Prop51ColorIndex
 90
      256
102
RTVSPost2010Prop51ColorRGB
 90
-16777216
102
RTVSPost2010PropOp51
 70
     0
102
RTVSPost2010Prop52
140
1.0
102
RTVSPost2010PropOp52
 70
     0
102
RTVSPost2010Prop53
 90
        2
102
RTVSPost2010PropOp53
 70
     1
102
RTVSPost2010Prop54
  1
strokes_ogs.tif
102
RTVSPost2010PropOp54
 70
     1
102
RTVSPost2010Prop55
280
     0
102
RTVSPost2010PropOp55
 70
     1
102
RTVSPost2010Prop56
140
1.0
102
RTVSPost2010PropOp56
 70
     1
102
RTVSPost2010Prop57
140
1.0
102
RTVSPost2010PropOp57
 70
     1
  0
XRECORD
  5
2F5
102
{ACAD_REACTORS
330
2F4
102
}
330
2F4
100
AcDbXrecord
280
     1
102
RTVSPropertyOp0
 70
     1
102
RTVSPropertyOp1
 70
     1
102
RTVSPropertyOp2
 70
     1
102
RTVSPropertyOp3
 70
     1
102
RTVSPropertyOp4
 70
     1
102
RTVSPropertyOp5
 70
     1
102
RTVSPropertyOp6
 70
     1
102
RTVSPropertyOp7
 70
     1
102
RTVSPropertyOp8
 70
     1
102
RTVSPropertyOp9
 70
     1
102
RTVSPropertyOp10
 70
     1
102
RTVSPropertyOp11
 70
     1
102
RTVSPropertyOp12
 70
     1
102
RTVSPropertyOp13
 70
     1
102
RTVSPropertyOp14
 70
     1
102
RTVSPropertyOp15
 70
     1
102
RTVSPropertyOp16
 70
     1
102
RTVSPropertyOp17
 70
     1
102
RTVSPropertyOp18
 70
     1
102
RTVSPropertyOp19
 70
     1
102
RTVSPropertyOp20
 70
     1
102
RTVSPropertyOp21
 70
     1
102
RTVSPropertyOp22
 70
     1
102
RTVSPropertyOp23
 70
     1
102
RTVSPropertyOp24
 70
     1
102
RTVSPropertyOp25
 70
     1
102
RTVSPropertyOp26
 70
     1
102
RTVSPropertyOp27
 70
     1
102
RTVSPropertyOp28
 70
     1
102
RTVSPropertyOp29
 70
     1
102
RTVSPropertyOp30
 70
     1
102
RTVSPropertyOp31
 70
     1
102
RTVSPropertyOp32
 70
     1
102
RTVSPropertyOp33
 70
     1
102
RTVSPropertyOp34
 70
     1
102
RTVSPropertyOp35
 70
     1
102
RTVSPropertyOp36
 70
     1
102
RTVSPropertyOp37
 70
     1
102
RTVSPropertyOp38
 70
     1
102
RTVSPropertyOp39
 70
     1
102
RTVSPropertyOp40
 70
     1
102
RTVSPropertyOp41
 70
     1
102
RTVSPropertyOp42
 70
     1
102
RTVSPropertyOp43
 70
     1
102
RTVSPropertyOp44
 70
     1
102
RTVSPropertyOp45
 70
     1
102
RTVSPropertyOp46
 70
     1
102
RTVSPropertyOp47
 70
     1
102
RTVSPropertyOp48
 70
     1
102
RTVSPropertyOp49
 70
     1
102
RTVSPropertyOp50
 70
     1
102
RTVSPropertyOp51
 70
     0
102
RTVSPropertyOp52
 70
     0
102
RTVSPropertyOp53
 70
     1
102
RTVSPropertyOp54
 70
     1
102
RTVSPropertyOp55
 70
     1
102
RTVSPropertyOp56
 70
     1
102
RTVSPropertyOp57
 70
     1
102
RTVSPost2010Prop28
280
     0
102
RTVSPost2010PropOp28
 70
     1
102
RTVSPost2010Prop29
280
     1
102
RTVSPost2010PropOp29
 70
     1
102
RTVSPost2010Prop30
280
     1
102
RTVSPost2010PropOp30
 70
     1
102
RTVSPost2010Prop31
280
     0
102
RTVSPost2010PropOp31
 70
     1
102
RTVSPost2010Prop32
280
     0
102
RTVSPost2010PropOp32
 70
     1
102
RTVSPost2010Prop33
280
     0
102
RTVSPost2010PropOp33
 70
     1
102
RTVSPost2010Prop34
280
     0
102
RTVSPost2010PropOp34
 70
     1
102
RTVSPost2010Prop35
280
     0
102
RTVSPost2010PropOp35
 70
     1
102
RTVSPost2010Prop36
280
     0
102
RTVSPost2010PropOp36
 70
     1
102
RTVSPost2010Prop37
 90
       50
102
RTVSPost2010PropOp37
 70
     1
102
RTVSPost2010Prop38
140
0.0
102
RTVSPost2010PropOp38
 70
     1
102
RTVSPost2010Prop39
140
1.0
102
RTVSPost2010PropOp39
 70
     1
102
RTVSPost2010Prop40
 90
        0
102
RTVSPost2010PropOp40
 70
     1
102
RTVSPost2010Prop41ColorIndex
 90
      178
102
RTVSPost2010Prop41ColorRGB
 90
        0
102
RTVSPost2010PropOp41
 70
     1
102
RTVSPost2010Prop42
 90
       50
102
RTVSPost2010PropOp42
 70
     1
102
RTVSPost2010Prop43
 90
        3
102
RTVSPost2010PropOp43
 70
     1
102
RTVSPost2010Prop44ColorIndex
 90
        5
102
RTVSPost2010Prop44ColorRGB
 90
      255
102
RTVSPost2010PropOp44
 70
     1
102
RTVSPost2010Prop45
280
     0
102
RTVSPost2010PropOp45
 70
     1
102
RTVSPost2010Prop46
 90
       50
102
RTVSPost2010PropOp46
 70
     1
102
RTVSPost2010Prop47
 90
       50
102
RTVSPost2010PropOp47
 70
     1
102
RTVSPost2010Prop48
 90
       50
102
RTVSPost2010PropOp48
 70
     1
102
RTVSPost2010Prop49
280
     0
102
RTVSPost2010PropOp49
 70
     1
102
RTVSPost2010Prop50
 90
       50
102
RTVSPost2010PropOp50
 70
     1
102
RTVSPost2010Prop51ColorIndex
 90
      256
102
RTVSPost2010Prop51ColorRGB
 90
-16777216
102
RTVSPost2010PropOp51
 70
     0
102
RTVSPost2010Prop52
140
1.0
102
RTVSPost2010PropOp52
 70
     0
102
RTVSPost2010Prop53
 90
        2
102
RTVSPost2010PropOp53
 70
     1
102
RTVSPost2010Prop54
  1
strokes_ogs.tif
102
RTVSPost2010PropOp54
 70
     1
102
RTVSPost2010Prop55
280
     0
102
RTVSPost2010PropOp55
 70
     1
102
RTVSPost2010Prop56
140
1.0
102
RTVSPost2010PropOp56
 70
     1
102
RTVSPost2010Prop57
140
1.0
102
RTVSPost2010PropOp57
 70
     1
  0
XRECORD
  5
2FB
102
{ACAD_REACTORS
330
2FA
102
}
330
2FA
100
AcDbXrecord
280
     1
102
RTVSPropertyOp0
 70
     1
102
RTVSPropertyOp1
 70
     1
102
RTVSPropertyOp2
 70
     1
102
RTVSPropertyOp3
 70
     1
102
RTVSPropertyOp4
 70
     1
102
RTVSPropertyOp5
 70
     1
102
RTVSPropertyOp6
 70
     1
102
RTVSPropertyOp7
 70
     1
102
RTVSPropertyOp8
 70
     1
102
RTVSPropertyOp9
 70
     1
102
RTVSPropertyOp10
 70
     1
102
RTVSPropertyOp11
 70
     1
102
RTVSPropertyOp12
 70
     1
102
RTVSPropertyOp13
 70
     1
102
RTVSPropertyOp14
 70
     1
102
RTVSPropertyOp15
 70
     1
102
RTVSPropertyOp16
 70
     1
102
RTVSPropertyOp17
 70
     1
102
RTVSPropertyOp18
 70
     1
102
RTVSPropertyOp19
 70
     1
102
RTVSPropertyOp20
 70
     1
102
RTVSPropertyOp21
 70
     1
102
RTVSPropertyOp22
 70
     1
102
RTVSPropertyOp23
 70
     1
102
RTVSPropertyOp24
 70
     1
102
RTVSPropertyOp25
 70
     1
102
RTVSPropertyOp26
 70
     1
102
RTVSPropertyOp27
 70
     1
102
RTVSPropertyOp28
 70
     1
102
RTVSPropertyOp29
 70
     1
102
RTVSPropertyOp30
 70
     1
102
RTVSPropertyOp31
 70
     1
102
RTVSPropertyOp32
 70
     1
102
RTVSPropertyOp33
 70
     1
102
RTVSPropertyOp34
 70
     1
102
RTVSPropertyOp35
 70
     1
102
RTVSPropertyOp36
 70
     1
102
RTVSPropertyOp37
 70
     1
102
RTVSPropertyOp38
 70
     1
102
RTVSPropertyOp39
 70
     1
102
RTVSPropertyOp40
 70
     1
102
RTVSPropertyOp41
 70
     1
102
RTVSPropertyOp42
 70
     1
102
RTVSPropertyOp43
 70
     1
102
RTVSPropertyOp44
 70
     1
102
RTVSPropertyOp45
 70
     1
102
RTVSPropertyOp46
 70
     1
102
RTVSPropertyOp47
 70
     1
102
RTVSPropertyOp48
 70
     1
102
RTVSPropertyOp49
 70
     1
102
RTVSPropertyOp50
 70
     1
102
RTVSPropertyOp51
 70
     0
102
RTVSPropertyOp52
 70
     0
102
RTVSPropertyOp53
 70
     1
102
RTVSPropertyOp54
 70
     1
102
RTVSPropertyOp55
 70
     1
102
RTVSPropertyOp56
 70
     1
102
RTVSPropertyOp57
 70
     1
102
RTVSPost2010Prop28
280
     0
102
RTVSPost2010PropOp28
 70
     1
102
RTVSPost2010Prop29
280
     1
102
RTVSPost2010PropOp29
 70
     1
102
RTVSPost2010Prop30
280
     1
102
RTVSPost2010PropOp30
 70
     1
102
RTVSPost2010Prop31
280
     0
102
RTVSPost2010PropOp31
 70
     1
102
RTVSPost2010Prop32
280
     0
102
RTVSPost2010PropOp32
 70
     1
102
RTVSPost2010Prop33
280
     0
102
RTVSPost2010PropOp33
 70
     1
102
RTVSPost2010Prop34
280
     0
102
RTVSPost2010PropOp34
 70
     1
102
RTVSPost2010Prop35
280
     0
102
RTVSPost2010PropOp35
 70
     1
102
RTVSPost2010Prop36
280
     0
102
RTVSPost2010PropOp36
 70
     1
102
RTVSPost2010Prop37
 90
       50
102
RTVSPost2010PropOp37
 70
     1
102
RTVSPost2010Prop38
140
0.0
102
RTVSPost2010PropOp38
 70
     1
102
RTVSPost2010Prop39
140
1.0
102
RTVSPost2010PropOp39
 70
     1
102
RTVSPost2010Prop40
 90
        0
102
RTVSPost2010PropOp40
 70
     1
102
RTVSPost2010Prop41ColorIndex
 90
      178
102
RTVSPost2010Prop41ColorRGB
 90
        0
102
RTVSPost2010PropOp41
 70
     1
102
RTVSPost2010Prop42
 90
       50
102
RTVSPost2010PropOp42
 70
     1
102
RTVSPost2010Prop43
 90
        3
102
RTVSPost2010PropOp43
 70
     1
102
RTVSPost2010Prop44ColorIndex
 90
        5
102
RTVSPost2010Prop44ColorRGB
 90
      255
102
RTVSPost2010PropOp44
 70
     1
102
RTVSPost2010Prop45
280
     0
102
RTVSPost2010PropOp45
 70
     1
102
RTVSPost2010Prop46
 90
       50
102
RTVSPost2010PropOp46
 70
     1
102
RTVSPost2010Prop47
 90
       50
102
RTVSPost2010PropOp47
 70
     1
102
RTVSPost2010Prop48
 90
       50
102
RTVSPost2010PropOp48
 70
     1
102
RTVSPost2010Prop49
280
     0
102
RTVSPost2010PropOp49
 70
     1
102
RTVSPost2010Prop50
 90
       50
102
RTVSPost2010PropOp50
 70
     1
102
RTVSPost2010Prop51ColorIndex
 90
      256
102
RTVSPost2010Prop51ColorRGB
 90
-16777216
102
RTVSPost2010PropOp51
 70
     0
102
RTVSPost2010Prop52
140
1.0
102
RTVSPost2010PropOp52
 70
     0
102
RTVSPost2010Prop53
 90
        2
102
RTVSPost2010PropOp53
 70
     1
102
RTVSPost2010Prop54
  1
strokes_ogs.tif
102
RTVSPost2010PropOp54
 70
     1
102
RTVSPost2010Prop55
280
     0
102
RTVSPost2010PropOp55
 70
     1
102
RTVSPost2010Prop56
140
1.0
102
RTVSPost2010PropOp56
 70
     1
102
RTVSPost2010Prop57
140
1.0
102
RTVSPost2010PropOp57
 70
     1
  0
XRECORD
  5
30F
102
{ACAD_REACTORS
330
30E
102
}
330
30E
100
AcDbXrecord
280
     1
102
RTVSPropertyOp0
 70
     0
102
RTVSPropertyOp1
 70
     0
102
RTVSPropertyOp2
 70
     0
102
RTVSPropertyOp3
 70
     0
102
RTVSPropertyOp4
 70
     0
102
RTVSPropertyOp5
 70
     0
102
RTVSPropertyOp6
 70
     0
102
RTVSPropertyOp7
 70
     0
102
RTVSPropertyOp8
 70
     0
102
RTVSPropertyOp9
 70
     0
102
RTVSPropertyOp10
 70
     0
102
RTVSPropertyOp11
 70
     0
102
RTVSPropertyOp12
 70
     0
102
RTVSPropertyOp13
 70
     0
102
RTVSPropertyOp14
 70
     2
102
RTVSPropertyOp15
 70
     0
102
RTVSPropertyOp16
 70
     0
102
RTVSPropertyOp17
 70
     0
102
RTVSPropertyOp18
 70
     0
102
RTVSPropertyOp19
 70
     0
102
RTVSPropertyOp20
 70
     0
102
RTVSPropertyOp21
 70
     0
102
RTVSPropertyOp22
 70
     0
102
RTVSPropertyOp23
 70
     0
102
RTVSPropertyOp24
 70
     0
102
RTVSPropertyOp25
 70
     0
102
RTVSPropertyOp26
 70
     0
102
RTVSPropertyOp27
 70
     0
102
RTVSPropertyOp28
 70
     0
102
RTVSPropertyOp29
 70
     0
102
RTVSPropertyOp30
 70
     0
102
RTVSPropertyOp31
 70
     0
102
RTVSPropertyOp32
 70
     0
102
RTVSPropertyOp33
 70
     0
102
RTVSPropertyOp34
 70
     0
102
RTVSPropertyOp35
 70
     0
102
RTVSPropertyOp36
 70
     0
102
RTVSPropertyOp37
 70
     0
102
RTVSPropertyOp38
 70
     0
102
RTVSPropertyOp39
 70
     0
102
RTVSPropertyOp40
 70
     0
102
RTVSPropertyOp41
 70
     0
102
RTVSPropertyOp42
 70
     0
102
RTVSPropertyOp43
 70
     0
102
RTVSPropertyOp44
 70
     0
102
RTVSPropertyOp45
 70
     0
102
RTVSPropertyOp46
 70
     0
102
RTVSPropertyOp47
 70
     0
102
RTVSPropertyOp48
 70
     0
102
RTVSPropertyOp49
 70
     0
102
RTVSPropertyOp50
 70
     0
102
RTVSPropertyOp51
 70
     0
102
RTVSPropertyOp52
 70
     0
102
RTVSPropertyOp53
 70
     0
102
RTVSPropertyOp54
 70
     0
102
RTVSPropertyOp55
 70
     0
102
RTVSPropertyOp56
 70
     0
102
RTVSPropertyOp57
 70
     0
102
RTVSPost2010Prop28
280
     0
102
RTVSPost2010PropOp28
 70
     0
102
RTVSPost2010Prop29
280
     1
102
RTVSPost2010PropOp29
 70
     0
102
RTVSPost2010Prop30
280
     1
102
RTVSPost2010PropOp30
 70
     0
102
RTVSPost2010Prop31
280
     0
102
RTVSPost2010PropOp31
 70
     0
102
RTVSPost2010Prop32
280
     0
102
RTVSPost2010PropOp32
 70
     0
102
RTVSPost2010Prop33
280
     0
102
RTVSPost2010PropOp33
 70
     0
102
RTVSPost2010Prop34
280
     0
102
RTVSPost2010PropOp34
 70
     0
102
RTVSPost2010Prop35
280
     0
102
RTVSPost2010PropOp35
 70
     0
102
RTVSPost2010Prop36
280
     0
102
RTVSPost2010PropOp36
 70
     0
102
RTVSPost2010Prop37
 90
       50
102
RTVSPost2010PropOp37
 70
     0
102
RTVSPost2010Prop38
140
0.0
102
RTVSPost2010PropOp38
 70
     0
102
RTVSPost2010Prop39
140
1.0
102
RTVSPost2010PropOp39
 70
     0
102
RTVSPost2010Prop40
 90
        0
102
RTVSPost2010PropOp40
 70
     0
102
RTVSPost2010Prop41ColorIndex
 90
      178
102
RTVSPost2010Prop41ColorRGB
 90
        0
102
RTVSPost2010PropOp41
 70
     0
102
RTVSPost2010Prop42
 90
       50
102
RTVSPost2010PropOp42
 70
     0
102
RTVSPost2010Prop43
 90
        3
102
RTVSPost2010PropOp43
 70
     0
102
RTVSPost2010Prop44ColorIndex
 90
        5
102
RTVSPost2010Prop44ColorRGB
 90
      255
102
RTVSPost2010PropOp44
 70
     0
102
RTVSPost2010Prop45
280
     0
102
RTVSPost2010PropOp45
 70
     0
102
RTVSPost2010Prop46
 90
       50
102
RTVSPost2010PropOp46
 70
     0
102
RTVSPost2010Prop47
 90
       50
102
RTVSPost2010PropOp47
 70
     0
102
RTVSPost2010Prop48
 90
       50
102
RTVSPost2010PropOp48
 70
     0
102
RTVSPost2010Prop49
280
     0
102
RTVSPost2010PropOp49
 70
     0
102
RTVSPost2010Prop50
 90
       50
102
RTVSPost2010PropOp50
 70
     0
102
RTVSPost2010Prop51ColorIndex
 90
      256
102
RTVSPost2010Prop51ColorRGB
 90
-16777216
102
RTVSPost2010PropOp51
 70
     0
102
RTVSPost2010Prop52
140
1.0
102
RTVSPost2010PropOp52
 70
     0
102
RTVSPost2010Prop53
 90
        2
102
RTVSPost2010PropOp53
 70
     0
102
RTVSPost2010Prop54
  1
strokes_ogs.tif
102
RTVSPost2010PropOp54
 70
     0
102
RTVSPost2010Prop55
280
     0
102
RTVSPost2010PropOp55
 70
     0
102
RTVSPost2010Prop56
140
1.0
102
RTVSPost2010PropOp56
 70
     0
102
RTVSPost2010Prop57
140
1.0
102
RTVSPost2010PropOp57
 70
     0
  0
XRECORD
  5
309
102
{ACAD_REACTORS
330
308
102
}
330
308
100
AcDbXrecord
280
     1
102
RTVSPropertyOp0
 70
     1
102
RTVSPropertyOp1
 70
     1
102
RTVSPropertyOp2
 70
     1
102
RTVSPropertyOp3
 70
     1
102
RTVSPropertyOp4
 70
     1
102
RTVSPropertyOp5
 70
     1
102
RTVSPropertyOp6
 70
     1
102
RTVSPropertyOp7
 70
     1
102
RTVSPropertyOp8
 70
     1
102
RTVSPropertyOp9
 70
     1
102
RTVSPropertyOp10
 70
     1
102
RTVSPropertyOp11
 70
     1
102
RTVSPropertyOp12
 70
     1
102
RTVSPropertyOp13
 70
     1
102
RTVSPropertyOp14
 70
     1
102
RTVSPropertyOp15
 70
     1
102
RTVSPropertyOp16
 70
     1
102
RTVSPropertyOp17
 70
     1
102
RTVSPropertyOp18
 70
     1
102
RTVSPropertyOp19
 70
     1
102
RTVSPropertyOp20
 70
     1
102
RTVSPropertyOp21
 70
     1
102
RTVSPropertyOp22
 70
     1
102
RTVSPropertyOp23
 70
     1
102
RTVSPropertyOp24
 70
     1
102
RTVSPropertyOp25
 70
     1
102
RTVSPropertyOp26
 70
     1
102
RTVSPropertyOp27
 70
     1
102
RTVSPropertyOp28
 70
     1
102
RTVSPropertyOp29
 70
     1
102
RTVSPropertyOp30
 70
     1
102
RTVSPropertyOp31
 70
     1
102
RTVSPropertyOp32
 70
     1
102
RTVSPropertyOp33
 70
     1
102
RTVSPropertyOp34
 70
     1
102
RTVSPropertyOp35
 70
     1
102
RTVSPropertyOp36
 70
     1
102
RTVSPropertyOp37
 70
     1
102
RTVSPropertyOp38
 70
     1
102
RTVSPropertyOp39
 70
     1
102
RTVSPropertyOp40
 70
     1
102
RTVSPropertyOp41
 70
     1
102
RTVSPropertyOp42
 70
     1
102
RTVSPropertyOp43
 70
     1
102
RTVSPropertyOp44
 70
     1
102
RTVSPropertyOp45
 70
     1
102
RTVSPropertyOp46
 70
     1
102
RTVSPropertyOp47
 70
     1
102
RTVSPropertyOp48
 70
     1
102
RTVSPropertyOp49
 70
     1
102
RTVSPropertyOp50
 70
     1
102
RTVSPropertyOp51
 70
     0
102
RTVSPropertyOp52
 70
     0
102
RTVSPropertyOp53
 70
     1
102
RTVSPropertyOp54
 70
     1
102
RTVSPropertyOp55
 70
     1
102
RTVSPropertyOp56
 70
     1
102
RTVSPropertyOp57
 70
     1
102
RTVSPost2010Prop28
280
     0
102
RTVSPost2010PropOp28
 70
     1
102
RTVSPost2010Prop29
280
     1
102
RTVSPost2010PropOp29
 70
     1
102
RTVSPost2010Prop30
280
     1
102
RTVSPost2010PropOp30
 70
     1
102
RTVSPost2010Prop31
280
     0
102
RTVSPost2010PropOp31
 70
     1
102
RTVSPost2010Prop32
280
     0
102
RTVSPost2010PropOp32
 70
     1
102
RTVSPost2010Prop33
280
     0
102
RTVSPost2010PropOp33
 70
     1
102
RTVSPost2010Prop34
280
     0
102
RTVSPost2010PropOp34
 70
     1
102
RTVSPost2010Prop35
280
     0
102
RTVSPost2010PropOp35
 70
     1
102
RTVSPost2010Prop36
280
     0
102
RTVSPost2010PropOp36
 70
     1
102
RTVSPost2010Prop37
 90
       50
102
RTVSPost2010PropOp37
 70
     1
102
RTVSPost2010Prop38
140
0.0
102
RTVSPost2010PropOp38
 70
     1
102
RTVSPost2010Prop39
140
1.0
102
RTVSPost2010PropOp39
 70
     1
102
RTVSPost2010Prop40
 90
        0
102
RTVSPost2010PropOp40
 70
     1
102
RTVSPost2010Prop41ColorIndex
 90
      178
102
RTVSPost2010Prop41ColorRGB
 90
        0
102
RTVSPost2010PropOp41
 70
     1
102
RTVSPost2010Prop42
 90
       50
102
RTVSPost2010PropOp42
 70
     1
102
RTVSPost2010Prop43
 90
        3
102
RTVSPost2010PropOp43
 70
     1
102
RTVSPost2010Prop44ColorIndex
 90
        5
102
RTVSPost2010Prop44ColorRGB
 90
      255
102
RTVSPost2010PropOp44
 70
     1
102
RTVSPost2010Prop45
280
     0
102
RTVSPost2010PropOp45
 70
     1
102
RTVSPost2010Prop46
 90
       50
102
RTVSPost2010PropOp46
 70
     1
102
RTVSPost2010Prop47
 90
       50
102
RTVSPost2010PropOp47
 70
     1
102
RTVSPost2010Prop48
 90
       50
102
RTVSPost2010PropOp48
 70
     1
102
RTVSPost2010Prop49
280
     0
102
RTVSPost2010PropOp49
 70
     1
102
RTVSPost2010Prop50
 90
       50
102
RTVSPost2010PropOp50
 70
     1
102
RTVSPost2010Prop51ColorIndex
 90
      256
102
RTVSPost2010Prop51ColorRGB
 90
-16777216
102
RTVSPost2010PropOp51
 70
     0
102
RTVSPost2010Prop52
140
1.0
102
RTVSPost2010PropOp52
 70
     0
102
RTVSPost2010Prop53
 90
        2
102
RTVSPost2010PropOp53
 70
     1
102
RTVSPost2010Prop54
  1
strokes_ogs.tif
102
RTVSPost2010PropOp54
 70
     1
102
RTVSPost2010Prop55
280
     0
102
RTVSPost2010PropOp55
 70
     1
102
RTVSPost2010Prop56
140
1.0
102
RTVSPost2010PropOp56
 70
     1
102
RTVSPost2010Prop57
140
1.0
102
RTVSPost2010PropOp57
 70
     1
  0
XRECORD
  5
311
102
{ACAD_REACTORS
330
310
102
}
330
310
100
AcDbXrecord
280
     1
102
RTVSPropertyOp0
 70
     0
102
RTVSPropertyOp1
 70
     0
102
RTVSPropertyOp2
 70
     0
102
RTVSPropertyOp3
 70
     0
102
RTVSPropertyOp4
 70
     0
102
RTVSPropertyOp5
 70
     0
102
RTVSPropertyOp6
 70
     0
102
RTVSPropertyOp7
 70
     0
102
RTVSPropertyOp8
 70
     0
102
RTVSPropertyOp9
 70
     0
102
RTVSPropertyOp10
 70
     0
102
RTVSPropertyOp11
 70
     0
102
RTVSPropertyOp12
 70
     0
102
RTVSPropertyOp13
 70
     0
102
RTVSPropertyOp14
 70
     2
102
RTVSPropertyOp15
 70
     0
102
RTVSPropertyOp16
 70
     0
102
RTVSPropertyOp17
 70
     0
102
RTVSPropertyOp18
 70
     0
102
RTVSPropertyOp19
 70
     0
102
RTVSPropertyOp20
 70
     0
102
RTVSPropertyOp21
 70
     0
102
RTVSPropertyOp22
 70
     0
102
RTVSPropertyOp23
 70
     0
102
RTVSPropertyOp24
 70
     0
102
RTVSPropertyOp25
 70
     0
102
RTVSPropertyOp26
 70
     0
102
RTVSPropertyOp27
 70
     0
102
RTVSPropertyOp28
 70
     0
102
RTVSPropertyOp29
 70
     0
102
RTVSPropertyOp30
 70
     0
102
RTVSPropertyOp31
 70
     0
102
RTVSPropertyOp32
 70
     0
102
RTVSPropertyOp33
 70
     0
102
RTVSPropertyOp34
 70
     0
102
RTVSPropertyOp35
 70
     0
102
RTVSPropertyOp36
 70
     0
102
RTVSPropertyOp37
 70
     0
102
RTVSPropertyOp38
 70
     0
102
RTVSPropertyOp39
 70
     0
102
RTVSPropertyOp40
 70
     0
102
RTVSPropertyOp41
 70
     0
102
RTVSPropertyOp42
 70
     0
102
RTVSPropertyOp43
 70
     0
102
RTVSPropertyOp44
 70
     0
102
RTVSPropertyOp45
 70
     0
102
RTVSPropertyOp46
 70
     0
102
RTVSPropertyOp47
 70
     0
102
RTVSPropertyOp48
 70
     0
102
RTVSPropertyOp49
 70
     0
102
RTVSPropertyOp50
 70
     0
102
RTVSPropertyOp51
 70
     0
102
RTVSPropertyOp52
 70
     0
102
RTVSPropertyOp53
 70
     0
102
RTVSPropertyOp54
 70
     0
102
RTVSPropertyOp55
 70
     0
102
RTVSPropertyOp56
 70
     0
102
RTVSPropertyOp57
 70
     0
102
RTVSPost2010Prop28
280
     0
102
RTVSPost2010PropOp28
 70
     0
102
RTVSPost2010Prop29
280
     1
102
RTVSPost2010PropOp29
 70
     0
102
RTVSPost2010Prop30
280
     1
102
RTVSPost2010PropOp30
 70
     0
102
RTVSPost2010Prop31
280
     0
102
RTVSPost2010PropOp31
 70
     0
102
RTVSPost2010Prop32
280
     0
102
RTVSPost2010PropOp32
 70
     0
102
RTVSPost2010Prop33
280
     0
102
RTVSPost2010PropOp33
 70
     0
102
RTVSPost2010Prop34
280
     0
102
RTVSPost2010PropOp34
 70
     0
102
RTVSPost2010Prop35
280
     0
102
RTVSPost2010PropOp35
 70
     0
102
RTVSPost2010Prop36
280
     0
102
RTVSPost2010PropOp36
 70
     0
102
RTVSPost2010Prop37
 90
       50
102
RTVSPost2010PropOp37
 70
     0
102
RTVSPost2010Prop38
140
0.0
102
RTVSPost2010PropOp38
 70
     0
102
RTVSPost2010Prop39
140
1.0
102
RTVSPost2010PropOp39
 70
     0
102
RTVSPost2010Prop40
 90
        0
102
RTVSPost2010PropOp40
 70
     0
102
RTVSPost2010Prop41ColorIndex
 90
      178
102
RTVSPost2010Prop41ColorRGB
 90
        0
102
RTVSPost2010PropOp41
 70
     0
102
RTVSPost2010Prop42
 90
       50
102
RTVSPost2010PropOp42
 70
     0
102
RTVSPost2010Prop43
 90
        3
102
RTVSPost2010PropOp43
 70
     0
102
RTVSPost2010Prop44ColorIndex
 90
        5
102
RTVSPost2010Prop44ColorRGB
 90
      255
102
RTVSPost2010PropOp44
 70
     0
102
RTVSPost2010Prop45
280
     0
102
RTVSPost2010PropOp45
 70
     0
102
RTVSPost2010Prop46
 90
       50
102
RTVSPost2010PropOp46
 70
     0
102
RTVSPost2010Prop47
 90
       50
102
RTVSPost2010PropOp47
 70
     0
102
RTVSPost2010Prop48
 90
       50
102
RTVSPost2010PropOp48
 70
     0
102
RTVSPost2010Prop49
280
     0
102
RTVSPost2010PropOp49
 70
     0
102
RTVSPost2010Prop50
 90
       50
102
RTVSPost2010PropOp50
 70
     0
102
RTVSPost2010Prop51ColorIndex
 90
      256
102
RTVSPost2010Prop51ColorRGB
 90
-16777216
102
RTVSPost2010PropOp51
 70
     0
102
RTVSPost2010Prop52
140
1.0
102
RTVSPost2010PropOp52
 70
     0
102
RTVSPost2010Prop53
 90
        2
102
RTVSPost2010PropOp53
 70
     0
102
RTVSPost2010Prop54
  1
strokes_ogs.tif
102
RTVSPost2010PropOp54
 70
     0
102
RTVSPost2010Prop55
280
     0
102
RTVSPost2010PropOp55
 70
     0
102
RTVSPost2010Prop56
140
1.0
102
RTVSPost2010PropOp56
 70
     0
102
RTVSPost2010Prop57
140
1.0
102
RTVSPost2010PropOp57
 70
     0
  0
XRECORD
  5
2FF
102
{ACAD_REACTORS
330
2FE
102
}
330
2FE
100
AcDbXrecord
280
     1
102
RTVSPropertyOp0
 70
     1
102
RTVSPropertyOp1
 70
     1
102
RTVSPropertyOp2
 70
     1
102
RTVSPropertyOp3
 70
     1
102
RTVSPropertyOp4
 70
     1
102
RTVSPropertyOp5
 70
     1
102
RTVSPropertyOp6
 70
     1
102
RTVSPropertyOp7
 70
     1
102
RTVSPropertyOp8
 70
     1
102
RTVSPropertyOp9
 70
     1
102
RTVSPropertyOp10
 70
     1
102
RTVSPropertyOp11
 70
     1
102
RTVSPropertyOp12
 70
     1
102
RTVSPropertyOp13
 70
     1
102
RTVSPropertyOp14
 70
     1
102
RTVSPropertyOp15
 70
     1
102
RTVSPropertyOp16
 70
     1
102
RTVSPropertyOp17
 70
     1
102
RTVSPropertyOp18
 70
     1
102
RTVSPropertyOp19
 70
     1
102
RTVSPropertyOp20
 70
     1
102
RTVSPropertyOp21
 70
     1
102
RTVSPropertyOp22
 70
     1
102
RTVSPropertyOp23
 70
     1
102
RTVSPropertyOp24
 70
     1
102
RTVSPropertyOp25
 70
     1
102
RTVSPropertyOp26
 70
     1
102
RTVSPropertyOp27
 70
     1
102
RTVSPropertyOp28
 70
     1
102
RTVSPropertyOp29
 70
     1
102
RTVSPropertyOp30
 70
     1
102
RTVSPropertyOp31
 70
     1
102
RTVSPropertyOp32
 70
     1
102
RTVSPropertyOp33
 70
     1
102
RTVSPropertyOp34
 70
     1
102
RTVSPropertyOp35
 70
     1
102
RTVSPropertyOp36
 70
     1
102
RTVSPropertyOp37
 70
     1
102
RTVSPropertyOp38
 70
     1
102
RTVSPropertyOp39
 70
     1
102
RTVSPropertyOp40
 70
     1
102
RTVSPropertyOp41
 70
     1
102
RTVSPropertyOp42
 70
     1
102
RTVSPropertyOp43
 70
     1
102
RTVSPropertyOp44
 70
     1
102
RTVSPropertyOp45
 70
     1
102
RTVSPropertyOp46
 70
     1
102
RTVSPropertyOp47
 70
     1
102
RTVSPropertyOp48
 70
     1
102
RTVSPropertyOp49
 70
     1
102
RTVSPropertyOp50
 70
     1
102
RTVSPropertyOp51
 70
     0
102
RTVSPropertyOp52
 70
     0
102
RTVSPropertyOp53
 70
     1
102
RTVSPropertyOp54
 70
     1
102
RTVSPropertyOp55
 70
     1
102
RTVSPropertyOp56
 70
     1
102
RTVSPropertyOp57
 70
     1
102
RTVSPost2010Prop28
280
     0
102
RTVSPost2010PropOp28
 70
     1
102
RTVSPost2010Prop29
280
     1
102
RTVSPost2010PropOp29
 70
     1
102
RTVSPost2010Prop30
280
     1
102
RTVSPost2010PropOp30
 70
     1
102
RTVSPost2010Prop31
280
     0
102
RTVSPost2010PropOp31
 70
     1
102
RTVSPost2010Prop32
280
     0
102
RTVSPost2010PropOp32
 70
     1
102
RTVSPost2010Prop33
280
     0
102
RTVSPost2010PropOp33
 70
     1
102
RTVSPost2010Prop34
280
     0
102
RTVSPost2010PropOp34
 70
     1
102
RTVSPost2010Prop35
280
     0
102
RTVSPost2010PropOp35
 70
     1
102
RTVSPost2010Prop36
280
     0
102
RTVSPost2010PropOp36
 70
     1
102
RTVSPost2010Prop37
 90
       50
102
RTVSPost2010PropOp37
 70
     1
102
RTVSPost2010Prop38
140
0.0
102
RTVSPost2010PropOp38
 70
     1
102
RTVSPost2010Prop39
140
1.0
102
RTVSPost2010PropOp39
 70
     1
102
RTVSPost2010Prop40
 90
        0
102
RTVSPost2010PropOp40
 70
     1
102
RTVSPost2010Prop41ColorIndex
 90
      178
102
RTVSPost2010Prop41ColorRGB
 90
        0
102
RTVSPost2010PropOp41
 70
     1
102
RTVSPost2010Prop42
 90
       50
102
RTVSPost2010PropOp42
 70
     1
102
RTVSPost2010Prop43
 90
        3
102
RTVSPost2010PropOp43
 70
     1
102
RTVSPost2010Prop44ColorIndex
 90
        5
102
RTVSPost2010Prop44ColorRGB
 90
      255
102
RTVSPost2010PropOp44
 70
     1
102
RTVSPost2010Prop45
280
     0
102
RTVSPost2010PropOp45
 70
     1
102
RTVSPost2010Prop46
 90
       50
102
RTVSPost2010PropOp46
 70
     1
102
RTVSPost2010Prop47
 90
       50
102
RTVSPost2010PropOp47
 70
     1
102
RTVSPost2010Prop48
 90
       50
102
RTVSPost2010PropOp48
 70
     1
102
RTVSPost2010Prop49
280
     0
102
RTVSPost2010PropOp49
 70
     1
102
RTVSPost2010Prop50
 90
       50
102
RTVSPost2010PropOp50
 70
     1
102
RTVSPost2010Prop51ColorIndex
 90
      256
102
RTVSPost2010Prop51ColorRGB
 90
-16777216
102
RTVSPost2010PropOp51
 70
     0
102
RTVSPost2010Prop52
140
1.0
102
RTVSPost2010PropOp52
 70
     0
102
RTVSPost2010Prop53
 90
        2
102
RTVSPost2010PropOp53
 70
     1
102
RTVSPost2010Prop54
  1
strokes_ogs.tif
102
RTVSPost2010PropOp54
 70
     1
102
RTVSPost2010Prop55
280
     0
102
RTVSPost2010PropOp55
 70
     1
102
RTVSPost2010Prop56
140
1.0
102
RTVSPost2010PropOp56
 70
     1
102
RTVSPost2010Prop57
140
1.0
102
RTVSPost2010PropOp57
 70
     1
  0
XRECORD
  5
31D
102
{ACAD_REACTORS
330
31C
102
}
330
31C
100
AcDbXrecord
280
     1
102
RTVSPropertyOp0
 70
     1
102
RTVSPropertyOp1
 70
     1
102
RTVSPropertyOp2
 70
     1
102
RTVSPropertyOp3
 70
     1
102
RTVSPropertyOp4
 70
     1
102
RTVSPropertyOp5
 70
     1
102
RTVSPropertyOp6
 70
     1
102
RTVSPropertyOp7
 70
     1
102
RTVSPropertyOp8
 70
     1
102
RTVSPropertyOp9
 70
     1
102
RTVSPropertyOp10
 70
     1
102
RTVSPropertyOp11
 70
     1
102
RTVSPropertyOp12
 70
     1
102
RTVSPropertyOp13
 70
     1
102
RTVSPropertyOp14
 70
     1
102
RTVSPropertyOp15
 70
     1
102
RTVSPropertyOp16
 70
     1
102
RTVSPropertyOp17
 70
     1
102
RTVSPropertyOp18
 70
     1
102
RTVSPropertyOp19
 70
     1
102
RTVSPropertyOp20
 70
     1
102
RTVSPropertyOp21
 70
     1
102
RTVSPropertyOp22
 70
     1
102
RTVSPropertyOp23
 70
     1
102
RTVSPropertyOp24
 70
     1
102
RTVSPropertyOp25
 70
     1
102
RTVSPropertyOp26
 70
     1
102
RTVSPropertyOp27
 70
     1
102
RTVSPropertyOp28
 70
     1
102
RTVSPropertyOp29
 70
     1
102
RTVSPropertyOp30
 70
     1
102
RTVSPropertyOp31
 70
     1
102
RTVSPropertyOp32
 70
     1
102
RTVSPropertyOp33
 70
     1
102
RTVSPropertyOp34
 70
     1
102
RTVSPropertyOp35
 70
     1
102
RTVSPropertyOp36
 70
     1
102
RTVSPropertyOp37
 70
     1
102
RTVSPropertyOp38
 70
     1
102
RTVSPropertyOp39
 70
     1
102
RTVSPropertyOp40
 70
     1
102
RTVSPropertyOp41
 70
     1
102
RTVSPropertyOp42
 70
     1
102
RTVSPropertyOp43
 70
     1
102
RTVSPropertyOp44
 70
     1
102
RTVSPropertyOp45
 70
     1
102
RTVSPropertyOp46
 70
     1
102
RTVSPropertyOp47
 70
     1
102
RTVSPropertyOp48
 70
     1
102
RTVSPropertyOp49
 70
     1
102
RTVSPropertyOp50
 70
     1
102
RTVSPropertyOp51
 70
     0
102
RTVSPropertyOp52
 70
     0
102
RTVSPropertyOp53
 70
     1
102
RTVSPropertyOp54
 70
     1
102
RTVSPropertyOp55
 70
     1
102
RTVSPropertyOp56
 70
     1
102
RTVSPropertyOp57
 70
     1
102
RTVSPost2010Prop28
280
     0
102
RTVSPost2010PropOp28
 70
     1
102
RTVSPost2010Prop29
280
     1
102
RTVSPost2010PropOp29
 70
     1
102
RTVSPost2010Prop30
280
     1
102
RTVSPost2010PropOp30
 70
     1
102
RTVSPost2010Prop31
280
     0
102
RTVSPost2010PropOp31
 70
     1
102
RTVSPost2010Prop32
280
     0
102
RTVSPost2010PropOp32
 70
     1
102
RTVSPost2010Prop33
280
     0
102
RTVSPost2010PropOp33
 70
     1
102
RTVSPost2010Prop34
280
     0
102
RTVSPost2010PropOp34
 70
     1
102
RTVSPost2010Prop35
280
     0
102
RTVSPost2010PropOp35
 70
     1
102
RTVSPost2010Prop36
280
     0
102
RTVSPost2010PropOp36
 70
     1
102
RTVSPost2010Prop37
 90
       50
102
RTVSPost2010PropOp37
 70
     1
102
RTVSPost2010Prop38
140
0.0
102
RTVSPost2010PropOp38
 70
     1
102
RTVSPost2010Prop39
140
1.0
102
RTVSPost2010PropOp39
 70
     1
102
RTVSPost2010Prop40
 90
        0
102
RTVSPost2010PropOp40
 70
     1
102
RTVSPost2010Prop41ColorIndex
 90
      178
102
RTVSPost2010Prop41ColorRGB
 90
        0
102
RTVSPost2010PropOp41
 70
     1
102
RTVSPost2010Prop42
 90
       50
102
RTVSPost2010PropOp42
 70
     1
102
RTVSPost2010Prop43
 90
        3
102
RTVSPost2010PropOp43
 70
     1
102
RTVSPost2010Prop44ColorIndex
 90
        5
102
RTVSPost2010Prop44ColorRGB
 90
      255
102
RTVSPost2010PropOp44
 70
     1
102
RTVSPost2010Prop45
280
     0
102
RTVSPost2010PropOp45
 70
     1
102
RTVSPost2010Prop46
 90
       50
102
RTVSPost2010PropOp46
 70
     1
102
RTVSPost2010Prop47
 90
       50
102
RTVSPost2010PropOp47
 70
     1
102
RTVSPost2010Prop48
 90
       50
102
RTVSPost2010PropOp48
 70
     1
102
RTVSPost2010Prop49
280
     0
102
RTVSPost2010PropOp49
 70
     1
102
RTVSPost2010Prop50
 90
       50
102
RTVSPost2010PropOp50
 70
     1
102
RTVSPost2010Prop51ColorIndex
 90
      256
102
RTVSPost2010Prop51ColorRGB
 90
-16777216
102
RTVSPost2010PropOp51
 70
     0
102
RTVSPost2010Prop52
140
1.0
102
RTVSPost2010PropOp52
 70
     0
102
RTVSPost2010Prop53
 90
        2
102
RTVSPost2010PropOp53
 70
     1
102
RTVSPost2010Prop54
  1
strokes_ogs.tif
102
RTVSPost2010PropOp54
 70
     1
102
RTVSPost2010Prop55
280
     0
102
RTVSPost2010PropOp55
 70
     1
102
RTVSPost2010Prop56
140
1.0
102
RTVSPost2010PropOp56
 70
     1
102
RTVSPost2010Prop57
140
1.0
102
RTVSPost2010PropOp57
 70
     1
  0
XRECORD
  5
31B
102
{ACAD_REACTORS
330
31A
102
}
330
31A
100
AcDbXrecord
280
     1
102
RTVSPropertyOp0
 70
     1
102
RTVSPropertyOp1
 70
     1
102
RTVSPropertyOp2
 70
     1
102
RTVSPropertyOp3
 70
     1
102
RTVSPropertyOp4
 70
     1
102
RTVSPropertyOp5
 70
     1
102
RTVSPropertyOp6
 70
     1
102
RTVSPropertyOp7
 70
     1
102
RTVSPropertyOp8
 70
     1
102
RTVSPropertyOp9
 70
     1
102
RTVSPropertyOp10
 70
     1
102
RTVSPropertyOp11
 70
     1
102
RTVSPropertyOp12
 70
     1
102
RTVSPropertyOp13
 70
     1
102
RTVSPropertyOp14
 70
     1
102
RTVSPropertyOp15
 70
     1
102
RTVSPropertyOp16
 70
     1
102
RTVSPropertyOp17
 70
     1
102
RTVSPropertyOp18
 70
     1
102
RTVSPropertyOp19
 70
     1
102
RTVSPropertyOp20
 70
     1
102
RTVSPropertyOp21
 70
     1
102
RTVSPropertyOp22
 70
     1
102
RTVSPropertyOp23
 70
     1
102
RTVSPropertyOp24
 70
     1
102
RTVSPropertyOp25
 70
     1
102
RTVSPropertyOp26
 70
     1
102
RTVSPropertyOp27
 70
     1
102
RTVSPropertyOp28
 70
     1
102
RTVSPropertyOp29
 70
     1
102
RTVSPropertyOp30
 70
     1
102
RTVSPropertyOp31
 70
     1
102
RTVSPropertyOp32
 70
     1
102
RTVSPropertyOp33
 70
     1
102
RTVSPropertyOp34
 70
     1
102
RTVSPropertyOp35
 70
     1
102
RTVSPropertyOp36
 70
     1
102
RTVSPropertyOp37
 70
     1
102
RTVSPropertyOp38
 70
     1
102
RTVSPropertyOp39
 70
     1
102
RTVSPropertyOp40
 70
     1
102
RTVSPropertyOp41
 70
     1
102
RTVSPropertyOp42
 70
     1
102
RTVSPropertyOp43
 70
     1
102
RTVSPropertyOp44
 70
     1
102
RTVSPropertyOp45
 70
     1
102
RTVSPropertyOp46
 70
     1
102
RTVSPropertyOp47
 70
     1
102
RTVSPropertyOp48
 70
     1
102
RTVSPropertyOp49
 70
     1
102
RTVSPropertyOp50
 70
     1
102
RTVSPropertyOp51
 70
     0
102
RTVSPropertyOp52
 70
     0
102
RTVSPropertyOp53
 70
     1
102
RTVSPropertyOp54
 70
     1
102
RTVSPropertyOp55
 70
     1
102
RTVSPropertyOp56
 70
     1
102
RTVSPropertyOp57
 70
     1
102
RTVSPost2010Prop28
280
     0
102
RTVSPost2010PropOp28
 70
     1
102
RTVSPost2010Prop29
280
     1
102
RTVSPost2010PropOp29
 70
     1
102
RTVSPost2010Prop30
280
     1
102
RTVSPost2010PropOp30
 70
     1
102
RTVSPost2010Prop31
280
     0
102
RTVSPost2010PropOp31
 70
     1
102
RTVSPost2010Prop32
280
     0
102
RTVSPost2010PropOp32
 70
     1
102
RTVSPost2010Prop33
280
     0
102
RTVSPost2010PropOp33
 70
     1
102
RTVSPost2010Prop34
280
     0
102
RTVSPost2010PropOp34
 70
     1
102
RTVSPost2010Prop35
280
     0
102
RTVSPost2010PropOp35
 70
     1
102
RTVSPost2010Prop36
280
     0
102
RTVSPost2010PropOp36
 70
     1
102
RTVSPost2010Prop37
 90
       50
102
RTVSPost2010PropOp37
 70
     1
102
RTVSPost2010Prop38
140
0.0
102
RTVSPost2010PropOp38
 70
     1
102
RTVSPost2010Prop39
140
1.0
102
RTVSPost2010PropOp39
 70
     1
102
RTVSPost2010Prop40
 90
        0
102
RTVSPost2010PropOp40
 70
     1
102
RTVSPost2010Prop41ColorIndex
 90
      178
102
RTVSPost2010Prop41ColorRGB
 90
        0
102
RTVSPost2010PropOp41
 70
     1
102
RTVSPost2010Prop42
 90
       50
102
RTVSPost2010PropOp42
 70
     1
102
RTVSPost2010Prop43
 90
        3
102
RTVSPost2010PropOp43
 70
     1
102
RTVSPost2010Prop44ColorIndex
 90
        5
102
RTVSPost2010Prop44ColorRGB
 90
      255
102
RTVSPost2010PropOp44
 70
     1
102
RTVSPost2010Prop45
280
     0
102
RTVSPost2010PropOp45
 70
     1
102
RTVSPost2010Prop46
 90
       50
102
RTVSPost2010PropOp46
 70
     1
102
RTVSPost2010Prop47
 90
       50
102
RTVSPost2010PropOp47
 70
     1
102
RTVSPost2010Prop48
 90
       50
102
RTVSPost2010PropOp48
 70
     1
102
RTVSPost2010Prop49
280
     0
102
RTVSPost2010PropOp49
 70
     1
102
RTVSPost2010Prop50
 90
       50
102
RTVSPost2010PropOp50
 70
     1
102
RTVSPost2010Prop51ColorIndex
 90
      256
102
RTVSPost2010Prop51ColorRGB
 90
-16777216
102
RTVSPost2010PropOp51
 70
     0
102
RTVSPost2010Prop52
140
1.0
102
RTVSPost2010PropOp52
 70
     0
102
RTVSPost2010Prop53
 90
        2
102
RTVSPost2010PropOp53
 70
     1
102
RTVSPost2010Prop54
  1
strokes_ogs.tif
102
RTVSPost2010PropOp54
 70
     1
102
RTVSPost2010Prop55
280
     0
102
RTVSPost2010PropOp55
 70
     1
102
RTVSPost2010Prop56
140
1.0
102
RTVSPost2010PropOp56
 70
     1
102
RTVSPost2010Prop57
140
1.0
102
RTVSPost2010PropOp57
 70
     1
  0
XRECORD
  5
315
102
{ACAD_REACTORS
330
314
102
}
330
314
100
AcDbXrecord
280
     1
102
RTVSPropertyOp0
 70
     1
102
RTVSPropertyOp1
 70
     1
102
RTVSPropertyOp2
 70
     1
102
RTVSPropertyOp3
 70
     1
102
RTVSPropertyOp4
 70
     1
102
RTVSPropertyOp5
 70
     1
102
RTVSPropertyOp6
 70
     1
102
RTVSPropertyOp7
 70
     1
102
RTVSPropertyOp8
 70
     1
102
RTVSPropertyOp9
 70
     1
102
RTVSPropertyOp10
 70
     1
102
RTVSPropertyOp11
 70
     1
102
RTVSPropertyOp12
 70
     1
102
RTVSPropertyOp13
 70
     1
102
RTVSPropertyOp14
 70
     1
102
RTVSPropertyOp15
 70
     1
102
RTVSPropertyOp16
 70
     1
102
RTVSPropertyOp17
 70
     1
102
RTVSPropertyOp18
 70
     1
102
RTVSPropertyOp19
 70
     1
102
RTVSPropertyOp20
 70
     1
102
RTVSPropertyOp21
 70
     1
102
RTVSPropertyOp22
 70
     1
102
RTVSPropertyOp23
 70
     1
102
RTVSPropertyOp24
 70
     1
102
RTVSPropertyOp25
 70
     1
102
RTVSPropertyOp26
 70
     1
102
RTVSPropertyOp27
 70
     1
102
RTVSPropertyOp28
 70
     1
102
RTVSPropertyOp29
 70
     1
102
RTVSPropertyOp30
 70
     1
102
RTVSPropertyOp31
 70
     1
102
RTVSPropertyOp32
 70
     1
102
RTVSPropertyOp33
 70
     1
102
RTVSPropertyOp34
 70
     1
102
RTVSPropertyOp35
 70
     1
102
RTVSPropertyOp36
 70
     1
102
RTVSPropertyOp37
 70
     1
102
RTVSPropertyOp38
 70
     1
102
RTVSPropertyOp39
 70
     1
102
RTVSPropertyOp40
 70
     1
102
RTVSPropertyOp41
 70
     1
102
RTVSPropertyOp42
 70
     1
102
RTVSPropertyOp43
 70
     1
102
RTVSPropertyOp44
 70
     1
102
RTVSPropertyOp45
 70
     1
102
RTVSPropertyOp46
 70
     1
102
RTVSPropertyOp47
 70
     1
102
RTVSPropertyOp48
 70
     1
102
RTVSPropertyOp49
 70
     1
102
RTVSPropertyOp50
 70
     1
102
RTVSPropertyOp51
 70
     0
102
RTVSPropertyOp52
 70
     0
102
RTVSPropertyOp53
 70
     1
102
RTVSPropertyOp54
 70
     1
102
RTVSPropertyOp55
 70
     1
102
RTVSPropertyOp56
 70
     1
102
RTVSPropertyOp57
 70
     1
102
RTVSPost2010Prop28
280
     0
102
RTVSPost2010PropOp28
 70
     1
102
RTVSPost2010Prop29
280
     1
102
RTVSPost2010PropOp29
 70
     1
102
RTVSPost2010Prop30
280
     1
102
RTVSPost2010PropOp30
 70
     1
102
RTVSPost2010Prop31
280
     0
102
RTVSPost2010PropOp31
 70
     1
102
RTVSPost2010Prop32
280
     0
102
RTVSPost2010PropOp32
 70
     1
102
RTVSPost2010Prop33
280
     0
102
RTVSPost2010PropOp33
 70
     1
102
RTVSPost2010Prop34
280
     0
102
RTVSPost2010PropOp34
 70
     1
102
RTVSPost2010Prop35
280
     0
102
RTVSPost2010PropOp35
 70
     1
102
RTVSPost2010Prop36
280
     0
102
RTVSPost2010PropOp36
 70
     1
102
RTVSPost2010Prop37
 90
       50
102
RTVSPost2010PropOp37
 70
     1
102
RTVSPost2010Prop38
140
0.0
102
RTVSPost2010PropOp38
 70
     1
102
RTVSPost2010Prop39
140
1.0
102
RTVSPost2010PropOp39
 70
     1
102
RTVSPost2010Prop40
 90
        0
102
RTVSPost2010PropOp40
 70
     1
102
RTVSPost2010Prop41ColorIndex
 90
      178
102
RTVSPost2010Prop41ColorRGB
 90
        0
102
RTVSPost2010PropOp41
 70
     1
102
RTVSPost2010Prop42
 90
       50
102
RTVSPost2010PropOp42
 70
     1
102
RTVSPost2010Prop43
 90
        3
102
RTVSPost2010PropOp43
 70
     1
102
RTVSPost2010Prop44ColorIndex
 90
        5
102
RTVSPost2010Prop44ColorRGB
 90
      255
102
RTVSPost2010PropOp44
 70
     1
102
RTVSPost2010Prop45
280
     0
102
RTVSPost2010PropOp45
 70
     1
102
RTVSPost2010Prop46
 90
       50
102
RTVSPost2010PropOp46
 70
     1
102
RTVSPost2010Prop47
 90
       50
102
RTVSPost2010PropOp47
 70
     1
102
RTVSPost2010Prop48
 90
       50
102
RTVSPost2010PropOp48
 70
     1
102
RTVSPost2010Prop49
280
     0
102
RTVSPost2010PropOp49
 70
     1
102
RTVSPost2010Prop50
 90
       50
102
RTVSPost2010PropOp50
 70
     1
102
RTVSPost2010Prop51ColorIndex
 90
      256
102
RTVSPost2010Prop51ColorRGB
 90
-16777216
102
RTVSPost2010PropOp51
 70
     0
102
RTVSPost2010Prop52
140
1.0
102
RTVSPost2010PropOp52
 70
     0
102
RTVSPost2010Prop53
 90
        2
102
RTVSPost2010PropOp53
 70
     1
102
RTVSPost2010Prop54
  1
strokes_ogs.tif
102
RTVSPost2010PropOp54
 70
     1
102
RTVSPost2010Prop55
280
     0
102
RTVSPost2010PropOp55
 70
     1
102
RTVSPost2010Prop56
140
1.0
102
RTVSPost2010PropOp56
 70
     1
102
RTVSPost2010Prop57
140
1.0
102
RTVSPost2010PropOp57
 70
     1
  0
XRECORD
  5
317
102
{ACAD_REACTORS
330
316
102
}
330
316
100
AcDbXrecord
280
     1
102
RTVSPropertyOp0
 70
     1
102
RTVSPropertyOp1
 70
     1
102
RTVSPropertyOp2
 70
     1
102
RTVSPropertyOp3
 70
     1
102
RTVSPropertyOp4
 70
     1
102
RTVSPropertyOp5
 70
     1
102
RTVSPropertyOp6
 70
     1
102
RTVSPropertyOp7
 70
     1
102
RTVSPropertyOp8
 70
     1
102
RTVSPropertyOp9
 70
     1
102
RTVSPropertyOp10
 70
     1
102
RTVSPropertyOp11
 70
     1
102
RTVSPropertyOp12
 70
     1
102
RTVSPropertyOp13
 70
     1
102
RTVSPropertyOp14
 70
     1
102
RTVSPropertyOp15
 70
     1
102
RTVSPropertyOp16
 70
     1
102
RTVSPropertyOp17
 70
     1
102
RTVSPropertyOp18
 70
     1
102
RTVSPropertyOp19
 70
     1
102
RTVSPropertyOp20
 70
     1
102
RTVSPropertyOp21
 70
     1
102
RTVSPropertyOp22
 70
     1
102
RTVSPropertyOp23
 70
     1
102
RTVSPropertyOp24
 70
     1
102
RTVSPropertyOp25
 70
     1
102
RTVSPropertyOp26
 70
     1
102
RTVSPropertyOp27
 70
     1
102
RTVSPropertyOp28
 70
     1
102
RTVSPropertyOp29
 70
     1
102
RTVSPropertyOp30
 70
     1
102
RTVSPropertyOp31
 70
     1
102
RTVSPropertyOp32
 70
     1
102
RTVSPropertyOp33
 70
     1
102
RTVSPropertyOp34
 70
     1
102
RTVSPropertyOp35
 70
     1
102
RTVSPropertyOp36
 70
     1
102
RTVSPropertyOp37
 70
     1
102
RTVSPropertyOp38
 70
     1
102
RTVSPropertyOp39
 70
     1
102
RTVSPropertyOp40
 70
     1
102
RTVSPropertyOp41
 70
     1
102
RTVSPropertyOp42
 70
     1
102
RTVSPropertyOp43
 70
     1
102
RTVSPropertyOp44
 70
     1
102
RTVSPropertyOp45
 70
     1
102
RTVSPropertyOp46
 70
     1
102
RTVSPropertyOp47
 70
     1
102
RTVSPropertyOp48
 70
     1
102
RTVSPropertyOp49
 70
     1
102
RTVSPropertyOp50
 70
     1
102
RTVSPropertyOp51
 70
     0
102
RTVSPropertyOp52
 70
     0
102
RTVSPropertyOp53
 70
     1
102
RTVSPropertyOp54
 70
     1
102
RTVSPropertyOp55
 70
     1
102
RTVSPropertyOp56
 70
     1
102
RTVSPropertyOp57
 70
     1
102
RTVSPost2010Prop28
280
     0
102
RTVSPost2010PropOp28
 70
     1
102
RTVSPost2010Prop29
280
     1
102
RTVSPost2010PropOp29
 70
     1
102
RTVSPost2010Prop30
280
     1
102
RTVSPost2010PropOp30
 70
     1
102
RTVSPost2010Prop31
280
     0
102
RTVSPost2010PropOp31
 70
     1
102
RTVSPost2010Prop32
280
     0
102
RTVSPost2010PropOp32
 70
     1
102
RTVSPost2010Prop33
280
     0
102
RTVSPost2010PropOp33
 70
     1
102
RTVSPost2010Prop34
280
     0
102
RTVSPost2010PropOp34
 70
     1
102
RTVSPost2010Prop35
280
     0
102
RTVSPost2010PropOp35
 70
     1
102
RTVSPost2010Prop36
280
     0
102
RTVSPost2010PropOp36
 70
     1
102
RTVSPost2010Prop37
 90
       50
102
RTVSPost2010PropOp37
 70
     1
102
RTVSPost2010Prop38
140
0.0
102
RTVSPost2010PropOp38
 70
     1
102
RTVSPost2010Prop39
140
1.0
102
RTVSPost2010PropOp39
 70
     1
102
RTVSPost2010Prop40
 90
        0
102
RTVSPost2010PropOp40
 70
     1
102
RTVSPost2010Prop41ColorIndex
 90
      178
102
RTVSPost2010Prop41ColorRGB
 90
        0
102
RTVSPost2010PropOp41
 70
     1
102
RTVSPost2010Prop42
 90
       50
102
RTVSPost2010PropOp42
 70
     1
102
RTVSPost2010Prop43
 90
        3
102
RTVSPost2010PropOp43
 70
     1
102
RTVSPost2010Prop44ColorIndex
 90
        5
102
RTVSPost2010Prop44ColorRGB
 90
      255
102
RTVSPost2010PropOp44
 70
     1
102
RTVSPost2010Prop45
280
     0
102
RTVSPost2010PropOp45
 70
     1
102
RTVSPost2010Prop46
 90
       50
102
RTVSPost2010PropOp46
 70
     1
102
RTVSPost2010Prop47
 90
       50
102
RTVSPost2010PropOp47
 70
     1
102
RTVSPost2010Prop48
 90
       50
102
RTVSPost2010PropOp48
 70
     1
102
RTVSPost2010Prop49
280
     0
102
RTVSPost2010PropOp49
 70
     1
102
RTVSPost2010Prop50
 90
       50
102
RTVSPost2010PropOp50
 70
     1
102
RTVSPost2010Prop51ColorIndex
 90
      256
102
RTVSPost2010Prop51ColorRGB
 90
-16777216
102
RTVSPost2010PropOp51
 70
     0
102
RTVSPost2010Prop52
140
1.0
102
RTVSPost2010PropOp52
 70
     0
102
RTVSPost2010Prop53
 90
        2
102
RTVSPost2010PropOp53
 70
     1
102
RTVSPost2010Prop54
  1
strokes_ogs.tif
102
RTVSPost2010PropOp54
 70
     1
102
RTVSPost2010Prop55
280
     0
102
RTVSPost2010PropOp55
 70
     1
102
RTVSPost2010Prop56
140
1.0
102
RTVSPost2010PropOp56
 70
     1
102
RTVSPost2010Prop57
140
1.0
102
RTVSPost2010PropOp57
 70
     1
  0
XRECORD
  5
307
102
{ACAD_REACTORS
330
306
102
}
330
306
100
AcDbXrecord
280
     1
102
RTVSPropertyOp0
 70
     1
102
RTVSPropertyOp1
 70
     1
102
RTVSPropertyOp2
 70
     1
102
RTVSPropertyOp3
 70
     1
102
RTVSPropertyOp4
 70
     1
102
RTVSPropertyOp5
 70
     1
102
RTVSPropertyOp6
 70
     1
102
RTVSPropertyOp7
 70
     1
102
RTVSPropertyOp8
 70
     1
102
RTVSPropertyOp9
 70
     1
102
RTVSPropertyOp10
 70
     1
102
RTVSPropertyOp11
 70
     1
102
RTVSPropertyOp12
 70
     1
102
RTVSPropertyOp13
 70
     1
102
RTVSPropertyOp14
 70
     1
102
RTVSPropertyOp15
 70
     1
102
RTVSPropertyOp16
 70
     1
102
RTVSPropertyOp17
 70
     1
102
RTVSPropertyOp18
 70
     1
102
RTVSPropertyOp19
 70
     1
102
RTVSPropertyOp20
 70
     1
102
RTVSPropertyOp21
 70
     1
102
RTVSPropertyOp22
 70
     1
102
RTVSPropertyOp23
 70
     1
102
RTVSPropertyOp24
 70
     1
102
RTVSPropertyOp25
 70
     1
102
RTVSPropertyOp26
 70
     1
102
RTVSPropertyOp27
 70
     1
102
RTVSPropertyOp28
 70
     1
102
RTVSPropertyOp29
 70
     1
102
RTVSPropertyOp30
 70
     1
102
RTVSPropertyOp31
 70
     1
102
RTVSPropertyOp32
 70
     1
102
RTVSPropertyOp33
 70
     1
102
RTVSPropertyOp34
 70
     1
102
RTVSPropertyOp35
 70
     1
102
RTVSPropertyOp36
 70
     1
102
RTVSPropertyOp37
 70
     1
102
RTVSPropertyOp38
 70
     1
102
RTVSPropertyOp39
 70
     1
102
RTVSPropertyOp40
 70
     1
102
RTVSPropertyOp41
 70
     1
102
RTVSPropertyOp42
 70
     1
102
RTVSPropertyOp43
 70
     1
102
RTVSPropertyOp44
 70
     1
102
RTVSPropertyOp45
 70
     1
102
RTVSPropertyOp46
 70
     1
102
RTVSPropertyOp47
 70
     1
102
RTVSPropertyOp48
 70
     1
102
RTVSPropertyOp49
 70
     1
102
RTVSPropertyOp50
 70
     1
102
RTVSPropertyOp51
 70
     0
102
RTVSPropertyOp52
 70
     0
102
RTVSPropertyOp53
 70
     1
102
RTVSPropertyOp54
 70
     1
102
RTVSPropertyOp55
 70
     1
102
RTVSPropertyOp56
 70
     1
102
RTVSPropertyOp57
 70
     1
102
RTVSPost2010Prop28
280
     0
102
RTVSPost2010PropOp28
 70
     1
102
RTVSPost2010Prop29
280
     1
102
RTVSPost2010PropOp29
 70
     1
102
RTVSPost2010Prop30
280
     1
102
RTVSPost2010PropOp30
 70
     1
102
RTVSPost2010Prop31
280
     0
102
RTVSPost2010PropOp31
 70
     1
102
RTVSPost2010Prop32
280
     0
102
RTVSPost2010PropOp32
 70
     1
102
RTVSPost2010Prop33
280
     0
102
RTVSPost2010PropOp33
 70
     1
102
RTVSPost2010Prop34
280
     0
102
RTVSPost2010PropOp34
 70
     1
102
RTVSPost2010Prop35
280
     0
102
RTVSPost2010PropOp35
 70
     1
102
RTVSPost2010Prop36
280
     0
102
RTVSPost2010PropOp36
 70
     1
102
RTVSPost2010Prop37
 90
       50
102
RTVSPost2010PropOp37
 70
     1
102
RTVSPost2010Prop38
140
0.0
102
RTVSPost2010PropOp38
 70
     1
102
RTVSPost2010Prop39
140
1.0
102
RTVSPost2010PropOp39
 70
     1
102
RTVSPost2010Prop40
 90
        0
102
RTVSPost2010PropOp40
 70
     1
102
RTVSPost2010Prop41ColorIndex
 90
      178
102
RTVSPost2010Prop41ColorRGB
 90
        0
102
RTVSPost2010PropOp41
 70
     1
102
RTVSPost2010Prop42
 90
       50
102
RTVSPost2010PropOp42
 70
     1
102
RTVSPost2010Prop43
 90
        3
102
RTVSPost2010PropOp43
 70
     1
102
RTVSPost2010Prop44ColorIndex
 90
        5
102
RTVSPost2010Prop44ColorRGB
 90
      255
102
RTVSPost2010PropOp44
 70
     1
102
RTVSPost2010Prop45
280
     0
102
RTVSPost2010PropOp45
 70
     1
102
RTVSPost2010Prop46
 90
       50
102
RTVSPost2010PropOp46
 70
     1
102
RTVSPost2010Prop47
 90
       50
102
RTVSPost2010PropOp47
 70
     1
102
RTVSPost2010Prop48
 90
       50
102
RTVSPost2010PropOp48
 70
     1
102
RTVSPost2010Prop49
280
     0
102
RTVSPost2010PropOp49
 70
     1
102
RTVSPost2010Prop50
 90
       50
102
RTVSPost2010PropOp50
 70
     1
102
RTVSPost2010Prop51ColorIndex
 90
      256
102
RTVSPost2010Prop51ColorRGB
 90
-16777216
102
RTVSPost2010PropOp51
 70
     0
102
RTVSPost2010Prop52
140
1.0
102
RTVSPost2010PropOp52
 70
     0
102
RTVSPost2010Prop53
 90
        2
102
RTVSPost2010PropOp53
 70
     1
102
RTVSPost2010Prop54
  1
strokes_ogs.tif
102
RTVSPost2010PropOp54
 70
     1
102
RTVSPost2010Prop55
280
     0
102
RTVSPost2010PropOp55
 70
     1
102
RTVSPost2010Prop56
140
1.0
102
RTVSPost2010PropOp56
 70
     1
102
RTVSPost2010Prop57
140
1.0
102
RTVSPost2010PropOp57
 70
     1
  0
XRECORD
  5
2F9
102
{ACAD_REACTORS
330
2F8
102
}
330
2F8
100
AcDbXrecord
280
     1
102
RTVSPropertyOp0
 70
     1
102
RTVSPropertyOp1
 70
     1
102
RTVSPropertyOp2
 70
     1
102
RTVSPropertyOp3
 70
     1
102
RTVSPropertyOp4
 70
     1
102
RTVSPropertyOp5
 70
     1
102
RTVSPropertyOp6
 70
     1
102
RTVSPropertyOp7
 70
     1
102
RTVSPropertyOp8
 70
     1
102
RTVSPropertyOp9
 70
     1
102
RTVSPropertyOp10
 70
     1
102
RTVSPropertyOp11
 70
     1
102
RTVSPropertyOp12
 70
     1
102
RTVSPropertyOp13
 70
     1
102
RTVSPropertyOp14
 70
     1
102
RTVSPropertyOp15
 70
     1
102
RTVSPropertyOp16
 70
     1
102
RTVSPropertyOp17
 70
     1
102
RTVSPropertyOp18
 70
     1
102
RTVSPropertyOp19
 70
     1
102
RTVSPropertyOp20
 70
     1
102
RTVSPropertyOp21
 70
     1
102
RTVSPropertyOp22
 70
     1
102
RTVSPropertyOp23
 70
     1
102
RTVSPropertyOp24
 70
     1
102
RTVSPropertyOp25
 70
     1
102
RTVSPropertyOp26
 70
     1
102
RTVSPropertyOp27
 70
     1
102
RTVSPropertyOp28
 70
     1
102
RTVSPropertyOp29
 70
     1
102
RTVSPropertyOp30
 70
     1
102
RTVSPropertyOp31
 70
     1
102
RTVSPropertyOp32
 70
     1
102
RTVSPropertyOp33
 70
     1
102
RTVSPropertyOp34
 70
     1
102
RTVSPropertyOp35
 70
     1
102
RTVSPropertyOp36
 70
     1
102
RTVSPropertyOp37
 70
     1
102
RTVSPropertyOp38
 70
     1
102
RTVSPropertyOp39
 70
     1
102
RTVSPropertyOp40
 70
     1
102
RTVSPropertyOp41
 70
     1
102
RTVSPropertyOp42
 70
     1
102
RTVSPropertyOp43
 70
     1
102
RTVSPropertyOp44
 70
     1
102
RTVSPropertyOp45
 70
     1
102
RTVSPropertyOp46
 70
     1
102
RTVSPropertyOp47
 70
     1
102
RTVSPropertyOp48
 70
     1
102
RTVSPropertyOp49
 70
     1
102
RTVSPropertyOp50
 70
     1
102
RTVSPropertyOp51
 70
     0
102
RTVSPropertyOp52
 70
     0
102
RTVSPropertyOp53
 70
     1
102
RTVSPropertyOp54
 70
     1
102
RTVSPropertyOp55
 70
     1
102
RTVSPropertyOp56
 70
     1
102
RTVSPropertyOp57
 70
     1
102
RTVSPost2010Prop28
280
     0
102
RTVSPost2010PropOp28
 70
     1
102
RTVSPost2010Prop29
280
     1
102
RTVSPost2010PropOp29
 70
     1
102
RTVSPost2010Prop30
280
     1
102
RTVSPost2010PropOp30
 70
     1
102
RTVSPost2010Prop31
280
     0
102
RTVSPost2010PropOp31
 70
     1
102
RTVSPost2010Prop32
280
     0
102
RTVSPost2010PropOp32
 70
     1
102
RTVSPost2010Prop33
280
     0
102
RTVSPost2010PropOp33
 70
     1
102
RTVSPost2010Prop34
280
     0
102
RTVSPost2010PropOp34
 70
     1
102
RTVSPost2010Prop35
280
     0
102
RTVSPost2010PropOp35
 70
     1
102
RTVSPost2010Prop36
280
     0
102
RTVSPost2010PropOp36
 70
     1
102
RTVSPost2010Prop37
 90
       50
102
RTVSPost2010PropOp37
 70
     1
102
RTVSPost2010Prop38
140
0.0
102
RTVSPost2010PropOp38
 70
     1
102
RTVSPost2010Prop39
140
1.0
102
RTVSPost2010PropOp39
 70
     1
102
RTVSPost2010Prop40
 90
        0
102
RTVSPost2010PropOp40
 70
     1
102
RTVSPost2010Prop41ColorIndex
 90
      178
102
RTVSPost2010Prop41ColorRGB
 90
        0
102
RTVSPost2010PropOp41
 70
     1
102
RTVSPost2010Prop42
 90
       50
102
RTVSPost2010PropOp42
 70
     1
102
RTVSPost2010Prop43
 90
        3
102
RTVSPost2010PropOp43
 70
     1
102
RTVSPost2010Prop44ColorIndex
 90
        5
102
RTVSPost2010Prop44ColorRGB
 90
      255
102
RTVSPost2010PropOp44
 70
     1
102
RTVSPost2010Prop45
280
     0
102
RTVSPost2010PropOp45
 70
     1
102
RTVSPost2010Prop46
 90
       50
102
RTVSPost2010PropOp46
 70
     1
102
RTVSPost2010Prop47
 90
       50
102
RTVSPost2010PropOp47
 70
     1
102
RTVSPost2010Prop48
 90
       50
102
RTVSPost2010PropOp48
 70
     1
102
RTVSPost2010Prop49
280
     0
102
RTVSPost2010PropOp49
 70
     1
102
RTVSPost2010Prop50
 90
       50
102
RTVSPost2010PropOp50
 70
     1
102
RTVSPost2010Prop51ColorIndex
 90
      256
102
RTVSPost2010Prop51ColorRGB
 90
-16777216
102
RTVSPost2010PropOp51
 70
     0
102
RTVSPost2010Prop52
140
1.0
102
RTVSPost2010PropOp52
 70
     0
102
RTVSPost2010Prop53
 90
        2
102
RTVSPost2010PropOp53
 70
     1
102
RTVSPost2010Prop54
  1
strokes_ogs.tif
102
RTVSPost2010PropOp54
 70
     1
102
RTVSPost2010Prop55
280
     0
102
RTVSPost2010PropOp55
 70
     1
102
RTVSPost2010Prop56
140
1.0
102
RTVSPost2010PropOp56
 70
     1
102
RTVSPost2010Prop57
140
1.0
102
RTVSPost2010PropOp57
 70
     1
  0
XRECORD
  5
319
102
{ACAD_REACTORS
330
318
102
}
330
318
100
AcDbXrecord
280
     1
102
RTVSPropertyOp0
 70
     1
102
RTVSPropertyOp1
 70
     1
102
RTVSPropertyOp2
 70
     1
102
RTVSPropertyOp3
 70
     1
102
RTVSPropertyOp4
 70
     1
102
RTVSPropertyOp5
 70
     1
102
RTVSPropertyOp6
 70
     1
102
RTVSPropertyOp7
 70
     1
102
RTVSPropertyOp8
 70
     1
102
RTVSPropertyOp9
 70
     1
102
RTVSPropertyOp10
 70
     1
102
RTVSPropertyOp11
 70
     1
102
RTVSPropertyOp12
 70
     1
102
RTVSPropertyOp13
 70
     1
102
RTVSPropertyOp14
 70
     1
102
RTVSPropertyOp15
 70
     1
102
RTVSPropertyOp16
 70
     1
102
RTVSPropertyOp17
 70
     1
102
RTVSPropertyOp18
 70
     1
102
RTVSPropertyOp19
 70
     1
102
RTVSPropertyOp20
 70
     1
102
RTVSPropertyOp21
 70
     1
102
RTVSPropertyOp22
 70
     1
102
RTVSPropertyOp23
 70
     1
102
RTVSPropertyOp24
 70
     1
102
RTVSPropertyOp25
 70
     1
102
RTVSPropertyOp26
 70
     1
102
RTVSPropertyOp27
 70
     1
102
RTVSPropertyOp28
 70
     1
102
RTVSPropertyOp29
 70
     1
102
RTVSPropertyOp30
 70
     1
102
RTVSPropertyOp31
 70
     1
102
RTVSPropertyOp32
 70
     1
102
RTVSPropertyOp33
 70
     1
102
RTVSPropertyOp34
 70
     1
102
RTVSPropertyOp35
 70
     1
102
RTVSPropertyOp36
 70
     1
102
RTVSPropertyOp37
 70
     1
102
RTVSPropertyOp38
 70
     1
102
RTVSPropertyOp39
 70
     1
102
RTVSPropertyOp40
 70
     1
102
RTVSPropertyOp41
 70
     1
102
RTVSPropertyOp42
 70
     1
102
RTVSPropertyOp43
 70
     1
102
RTVSPropertyOp44
 70
     1
102
RTVSPropertyOp45
 70
     1
102
RTVSPropertyOp46
 70
     1
102
RTVSPropertyOp47
 70
     1
102
RTVSPropertyOp48
 70
     1
102
RTVSPropertyOp49
 70
     1
102
RTVSPropertyOp50
 70
     1
102
RTVSPropertyOp51
 70
     0
102
RTVSPropertyOp52
 70
     0
102
RTVSPropertyOp53
 70
     1
102
RTVSPropertyOp54
 70
     1
102
RTVSPropertyOp55
 70
     1
102
RTVSPropertyOp56
 70
     1
102
RTVSPropertyOp57
 70
     1
102
RTVSPost2010Prop28
280
     0
102
RTVSPost2010PropOp28
 70
     1
102
RTVSPost2010Prop29
280
     1
102
RTVSPost2010PropOp29
 70
     1
102
RTVSPost2010Prop30
280
     1
102
RTVSPost2010PropOp30
 70
     1
102
RTVSPost2010Prop31
280
     0
102
RTVSPost2010PropOp31
 70
     1
102
RTVSPost2010Prop32
280
     0
102
RTVSPost2010PropOp32
 70
     1
102
RTVSPost2010Prop33
280
     0
102
RTVSPost2010PropOp33
 70
     1
102
RTVSPost2010Prop34
280
     0
102
RTVSPost2010PropOp34
 70
     1
102
RTVSPost2010Prop35
280
     0
102
RTVSPost2010PropOp35
 70
     1
102
RTVSPost2010Prop36
280
     0
102
RTVSPost2010PropOp36
 70
     1
102
RTVSPost2010Prop37
 90
       50
102
RTVSPost2010PropOp37
 70
     1
102
RTVSPost2010Prop38
140
0.0
102
RTVSPost2010PropOp38
 70
     1
102
RTVSPost2010Prop39
140
1.0
102
RTVSPost2010PropOp39
 70
     1
102
RTVSPost2010Prop40
 90
        0
102
RTVSPost2010PropOp40
 70
     1
102
RTVSPost2010Prop41ColorIndex
 90
      178
102
RTVSPost2010Prop41ColorRGB
 90
        0
102
RTVSPost2010PropOp41
 70
     1
102
RTVSPost2010Prop42
 90
       50
102
RTVSPost2010PropOp42
 70
     1
102
RTVSPost2010Prop43
 90
        3
102
RTVSPost2010PropOp43
 70
     1
102
RTVSPost2010Prop44ColorIndex
 90
        5
102
RTVSPost2010Prop44ColorRGB
 90
      255
102
RTVSPost2010PropOp44
 70
     1
102
RTVSPost2010Prop45
280
     0
102
RTVSPost2010PropOp45
 70
     1
102
RTVSPost2010Prop46
 90
       50
102
RTVSPost2010PropOp46
 70
     1
102
RTVSPost2010Prop47
 90
       50
102
RTVSPost2010PropOp47
 70
     1
102
RTVSPost2010Prop48
 90
       50
102
RTVSPost2010PropOp48
 70
     1
102
RTVSPost2010Prop49
280
     0
102
RTVSPost2010PropOp49
 70
     1
102
RTVSPost2010Prop50
 90
       50
102
RTVSPost2010PropOp50
 70
     1
102
RTVSPost2010Prop51ColorIndex
 90
      256
102
RTVSPost2010Prop51ColorRGB
 90
-16777216
102
RTVSPost2010PropOp51
 70
     0
102
RTVSPost2010Prop52
140
1.0
102
RTVSPost2010PropOp52
 70
     0
102
RTVSPost2010Prop53
 90
        2
102
RTVSPost2010PropOp53
 70
     1
102
RTVSPost2010Prop54
  1
strokes_ogs.tif
102
RTVSPost2010PropOp54
 70
     1
102
RTVSPost2010Prop55
280
     0
102
RTVSPost2010PropOp55
 70
     1
102
RTVSPost2010Prop56
140
1.0
102
RTVSPost2010PropOp56
 70
     1
102
RTVSPost2010Prop57
140
1.0
102
RTVSPost2010PropOp57
 70
     1
  0
ENDSEC
  0
EOF
