  0
SECTION
  2
HEADER
  9
$ACADVER
  1
AC1021
  9
$ACADMAINTVER
 70
    25
  9
$DWGCODEPAGE
  3
ANSI_1252
  9
$INSBASE
 10
0.0
 20
0.0
 30
0.0
  9
$EXTMIN
 10
1.000000000000000E+20
 20
1.000000000000000E+20
 30
1.000000000000000E+20
  9
$EXTMAX
 10
-1.000000000000000E+20
 20
-1.000000000000000E+20
 30
-1.000000000000000E+20
  9
$LIMMIN
 10
0.0
 20
0.0
  9
$LIMMAX
 10
12.0
 20
9.0
  9
$ORTHOMODE
 70
     0
  9
$REGENMODE
 70
     1
  9
$FILLMODE
 70
     1
  9
$QTEXTMODE
 70
     0
  9
$MIRRTEXT
 70
     1
  9
$LTSCALE
 40
1.0
  9
$ATTMODE
 70
     1
  9
$TEXTSIZE
 40
0.2
  9
$TRACEWID
 40
0.05
  9
$TEXTSTYLE
  7
Standard
  9
$CLAYER
  8
Graypants_Roest_75h
  9
$CELTYPE
  6
ByLayer
  9
$CECOLOR
 62
   256
  9
$CELTSCALE
 40
1.0
  9
$DISPSILH
 70
     0
  9
$DIMSCALE
 40
1.0
  9
$DIMASZ
 40
0.18
  9
$DIMEXO
 40
0.0625
  9
$DIMDLI
 40
0.38
  9
$DIMRND
 40
0.0
  9
$DIMDLE
 40
0.0
  9
$DIMEXE
 40
0.18
  9
$DIMTP
 40
0.0
  9
$DIMTM
 40
0.0
  9
$DIMTXT
 40
0.18
  9
$DIMCEN
 40
0.09
  9
$DIMTSZ
 40
0.0
  9
$DIMTOL
 70
     0
  9
$DIMLIM
 70
     0
  9
$DIMTIH
 70
     1
  9
$DIMTOH
 70
     1
  9
$DIMSE1
 70
     0
  9
$DIMSE2
 70
     0
  9
$DIMTAD
 70
     0
  9
$DIMZIN
 70
     0
  9
$DIMBLK
  1

  9
$DIMASO
 70
     1
  9
$DIMSHO
 70
     1
  9
$DIMPOST
  1

  9
$DIMAPOST
  1

  9
$DIMALT
 70
     0
  9
$DIMALTD
 70
     2
  9
$DIMALTF
 40
25.4
  9
$DIMLFAC
 40
1.0
  9
$DIMTOFL
 70
     0
  9
$DIMTVP
 40
0.0
  9
$DIMTIX
 70
     0
  9
$DIMSOXD
 70
     0
  9
$DIMSAH
 70
     0
  9
$DIMBLK1
  1

  9
$DIMBLK2
  1

  9
$DIMSTYLE
  2
STANDARD_ACAD
  9
$DIMCLRD
 70
     0
  9
$DIMCLRE
 70
     0
  9
$DIMCLRT
 70
     0
  9
$DIMTFAC
 40
1.0
  9
$DIMGAP
 40
0.09
  9
$DIMJUST
 70
     0
  9
$DIMSD1
 70
     0
  9
$DIMSD2
 70
     0
  9
$DIMTOLJ
 70
     1
  9
$DIMTZIN
 70
     0
  9
$DIMALTZ
 70
     0
  9
$DIMALTTZ
 70
     0
  9
$DIMUPT
 70
     0
  9
$DIMDEC
 70
     4
  9
$DIMTDEC
 70
     4
  9
$DIMALTU
 70
     2
  9
$DIMALTTD
 70
     2
  9
$DIMTXSTY
  7
Standard
  9
$DIMAUNIT
 70
     0
  9
$DIMADEC
 70
     0
  9
$DIMALTRND
 40
0.0
  9
$DIMAZIN
 70
     0
  9
$DIMDSEP
 70
    46
  9
$DIMATFIT
 70
     3
  9
$DIMFRAC
 70
     0
  9
$DIMLDRBLK
  1

  9
$DIMLUNIT
 70
     2
  9
$DIMLWD
 70
    -2
  9
$DIMLWE
 70
    -2
  9
$DIMTMOVE
 70
     2
  9
$DIMFXL
 40
1.0
  9
$DIMFXLON
 70
     0
  9
$DIMJOGANG
 40
0.7853981633974483
  9
$DIMTFILL
 70
     0
  9
$DIMTFILLCLR
 70
     0
  9
$DIMARCSYM
 70
     0
  9
$DIMLTYPE
  6

  9
$DIMLTEX1
  6

  9
$DIMLTEX2
  6

  9
$LUNITS
 70
     2
  9
$LUPREC
 70
     3
  9
$SKETCHINC
 40
0.1
  9
$FILLETRAD
 40
0.5
  9
$AUNITS
 70
     0
  9
$AUPREC
 70
     0
  9
$MENU
  1
.
  9
$ELEVATION
 40
0.0
  9
$PELEVATION
 40
0.0
  9
$THICKNESS
 40
0.0
  9
$LIMCHECK
 70
     0
  9
$CHAMFERA
 40
0.0
  9
$CHAMFERB
 40
0.0
  9
$CHAMFERC
 40
0.0
  9
$CHAMFERD
 40
0.0
  9
$SKPOLY
 70
     0
  9
$TDCREATE
 40
2460858.647823183
  9
$TDUCREATE
 40
2460858.981156516
  9
$TDUPDATE
 40
2460858.647865671
  9
$TDUUPDATE
 40
2460858.981199005
  9
$TDINDWG
 40
0.0000000116
  9
$TDUSRTIMER
 40
0.0000000116
  9
$USRTIMER
 70
     1
  9
$ANGBASE
 50
0.0
  9
$ANGDIR
 70
     0
  9
$PDMODE
 70
     0
  9
$PDSIZE
 40
0.0
  9
$PLINEWID
 40
0.0
  9
$SPLFRAME
 70
     0
  9
$SPLINETYPE
 70
     6
  9
$SPLINESEGS
 70
     8
  9
$HANDSEED
  5
28D
  9
$SURFTAB1
 70
     6
  9
$SURFTAB2
 70
     6
  9
$SURFTYPE
 70
     6
  9
$SURFU
 70
     6
  9
$SURFV
 70
     6
  9
$UCSBASE
  2

  9
$UCSNAME
  2

  9
$UCSORG
 10
0.0
 20
0.0
 30
0.0
  9
$UCSXDIR
 10
1.0
 20
0.0
 30
0.0
  9
$UCSYDIR
 10
0.0
 20
1.0
 30
0.0
  9
$UCSORTHOREF
  2

  9
$UCSORTHOVIEW
 70
     0
  9
$UCSORGTOP
 10
0.0
 20
0.0
 30
0.0
  9
$UCSORGBOTTOM
 10
0.0
 20
0.0
 30
0.0
  9
$UCSORGLEFT
 10
0.0
 20
0.0
 30
0.0
  9
$UCSORGRIGHT
 10
0.0
 20
0.0
 30
0.0
  9
$UCSORGFRONT
 10
0.0
 20
0.0
 30
0.0
  9
$UCSORGBACK
 10
0.0
 20
0.0
 30
0.0
  9
$PUCSBASE
  2

  9
$PUCSNAME
  2

  9
$PUCSORG
 10
0.0
 20
0.0
 30
0.0
  9
$PUCSXDIR
 10
1.0
 20
0.0
 30
0.0
  9
$PUCSYDIR
 10
0.0
 20
1.0
 30
0.0
  9
$PUCSORTHOREF
  2

  9
$PUCSORTHOVIEW
 70
     0
  9
$PUCSORGTOP
 10
0.0
 20
0.0
 30
0.0
  9
$PUCSORGBOTTOM
 10
0.0
 20
0.0
 30
0.0
  9
$PUCSORGLEFT
 10
0.0
 20
0.0
 30
0.0
  9
$PUCSORGRIGHT
 10
0.0
 20
0.0
 30
0.0
  9
$PUCSORGFRONT
 10
0.0
 20
0.0
 30
0.0
  9
$PUCSORGBACK
 10
0.0
 20
0.0
 30
0.0
  9
$USERI1
 70
     0
  9
$USERI2
 70
     0
  9
$USERI3
 70
     0
  9
$USERI4
 70
     0
  9
$USERI5
 70
     0
  9
$USERR1
 40
0.0
  9
$USERR2
 40
0.0
  9
$USERR3
 40
0.0
  9
$USERR4
 40
0.0
  9
$USERR5
 40
0.0
  9
$WORLDVIEW
 70
     1
  9
$SHADEDGE
 70
     3
  9
$SHADEDIF
 70
    70
  9
$TILEMODE
 70
     1
  9
$MAXACTVP
 70
    64
  9
$PINSBASE
 10
0.0
 20
0.0
 30
0.0
  9
$PLIMCHECK
 70
     0
  9
$PEXTMIN
 10
1.000000000000000E+20
 20
1.000000000000000E+20
 30
1.000000000000000E+20
  9
$PEXTMAX
 10
-1.000000000000000E+20
 20
-1.000000000000000E+20
 30
-1.000000000000000E+20
  9
$PLIMMIN
 10
0.0
 20
0.0
  9
$PLIMMAX
 10
12.0
 20
9.0
  9
$UNITMODE
 70
     0
  9
$VISRETAIN
 70
     1
  9
$PLINEGEN
 70
     0
  9
$PSLTSCALE
 70
     1
  9
$TREEDEPTH
 70
  3020
  9
$CMLSTYLE
  2
Standard
  9
$CMLJUST
 70
     0
  9
$CMLSCALE
 40
1.0
  9
$PROXYGRAPHICS
 70
     1
  9
$MEASUREMENT
 70
     1
  9
$CELWEIGHT
370
    -1
  9
$ENDCAPS
280
     0
  9
$JOINSTYLE
280
     0
  9
$LWDISPLAY
290
     0
  9
$INSUNITS
 70
     4
  9
$HYPERLINKBASE
  1

  9
$STYLESHEET
  1

  9
$XEDIT
290
     1
  9
$CEPSNTYPE
380
     0
  9
$PSTYLEMODE
290
     1
  9
$FINGERPRINTGUID
  2
{feca5c9c-ba0f-574e-9cfa-2e813a88af9c}
  9
$VERSIONGUID
  2
{FAEB1C32-E019-11D5-929B-00C0DF256EC4}
  9
$EXTNAMES
290
     1
  9
$PSVPSCALE
 40
0.0
  9
$OLESTARTUP
290
     0
  9
$SORTENTS
280
   127
  9
$INDEXCTL
280
     0
  9
$HIDETEXT
280
     1
  9
$XCLIPFRAME
290
     0
  9
$HALOGAP
280
     0
  9
$OBSCOLOR
 70
   257
  9
$OBSLTYPE
280
     0
  9
$INTERSECTIONDISPLAY
280
     0
  9
$INTERSECTIONCOLOR
 70
   257
  9
$DIMASSOC
280
     2
  9
$PROJECTNAME
  1

  9
$CAMERADISPLAY
290
     0
  9
$LENSLENGTH
 40
50.0
  9
$CAMERAHEIGHT
 40
0.0
  9
$STEPSPERSEC
 40
2.0
  9
$STEPSIZE
 40
6.0
  9
$3DDWFPREC
 40
2.0
  9
$PSOLWIDTH
 40
0.25
  9
$PSOLHEIGHT
 40
4.0
  9
$LOFTANG1
 40
1.570796326794897
  9
$LOFTANG2
 40
1.570796326794897
  9
$LOFTMAG1
 40
0.0
  9
$LOFTMAG2
 40
0.0
  9
$LOFTPARAM
 70
     7
  9
$LOFTNORMALS
280
     1
  9
$LATITUDE
 40
37.795
  9
$LONGITUDE
 40
-122.394
  9
$NORTHDIRECTION
 40
0.0
  9
$TIMEZONE
 70
 -8000
  9
$LIGHTGLYPHDISPLAY
280
     1
  9
$TILEMODELIGHTSYNCH
280
     1
  9
$CMATERIAL
347
44
  9
$SOLIDHIST
280
     0
  9
$SHOWHIST
280
     1
  9
$DWFFRAME
280
     2
  9
$DGNFRAME
280
     2
  9
$REALWORLDSCALE
290
     1
  9
$INTERFERECOLOR
 62
   256
  9
$CSHADOW
280
     0
  9
$SHADOWPLANELOCATION
 40
0.0
  0
ENDSEC
  0
SECTION
  2
CLASSES
  0
CLASS
  1
ACDBDICTIONARYWDFLT
  2
AcDbDictionaryWithDefault
  3
ObjectDBX Classes
 90
        0
 91
        3
280
     0
281
     0
  0
CLASS
  1
VISUALSTYLE
  2
AcDbVisualStyle
  3
ObjectDBX Classes
 90
     4095
 91
        3
280
     0
281
     0
  0
CLASS
  1
MATERIAL
  2
AcDbMaterial
  3
ObjectDBX Classes
 90
     1153
 91
        3
280
     0
281
     0
  0
CLASS
  1
SCALE
  2
AcDbScale
  3
ObjectDBX Classes
 90
     1153
 91
        3
280
     0
281
     0
  0
CLASS
  1
TABLESTYLE
  2
AcDbTableStyle
  3
ObjectDBX Classes
 90
     4095
 91
        3
280
     0
281
     0
  0
CLASS
  1
MLEADERSTYLE
  2
AcDbMLeaderStyle
  3
ACDB_MLEADERSTYLE_CLASS
 90
     4095
 91
        3
280
     0
281
     0
  0
CLASS
  1
SUN
  2
AcDbSun
  3
SCENEOE
 90
     1153
 91
        3
280
     0
281
     0
  0
CLASS
  1
DICTIONARYVAR
  2
AcDbDictionaryVar
  3
ObjectDBX Classes
 90
        0
 91
        3
280
     0
281
     0
  0
CLASS
  1
CELLSTYLEMAP
  2
AcDbCellStyleMap
  3
ObjectDBX Classes
 90
     1152
 91
        3
280
     0
281
     0
  0
ENDSEC
  0
SECTION
  2
TABLES
  0
TABLE
  2
VPORT
  5
8
330
0
100
AcDbSymbolTable
 70
     1
  0
VPORT
  5
29
330
8
100
AcDbSymbolTableRecord
100
AcDbViewportTableRecord
  2
*Active
 70
     0
 10
0.0
 20
0.0
 11
1.0
 21
1.0
 12
10.42990654205607
 22
4.5
 13
0.0
 23
0.0
 14
0.5
 24
0.5
 15
0.5
 25
0.5
 16
0.0
 26
0.0
 36
1.0
 17
0.0
 27
0.0
 37
0.0
 40
9.0
 41
1.972972972850329
 42
50.0
 43
0.0
 44
0.0
 50
0.0
 51
0.0
 71
     0
 72
   100
 73
     1
 74
     3
 75
     0
 76
     0
 77
     0
 78
     0
281
     0
 65
     1
110
0.0
120
0.0
130
0.0
111
1.0
121
0.0
131
0.0
112
0.0
122
1.0
132
0.0
 79
     0
146
0.0
348
2F
 60
     3
 61
     5
292
     1
282
     1
141
0.0
142
0.0
 63
   250
361
6D
  0
ENDTAB
  0
TABLE
  2
LTYPE
  5
5
330
0
100
AcDbSymbolTable
 70
     2
  0
LTYPE
  5
14
330
5
100
AcDbSymbolTableRecord
100
AcDbLinetypeTableRecord
  2
ByBlock
 70
     0
  3

 72
    65
 73
     0
 40
0.0
  0
LTYPE
  5
15
330
5
100
AcDbSymbolTableRecord
100
AcDbLinetypeTableRecord
  2
ByLayer
 70
     0
  3

 72
    65
 73
     0
 40
0.0
  0
LTYPE
  5
16
330
5
100
AcDbSymbolTableRecord
100
AcDbLinetypeTableRecord
  2
Continuous
 70
     0
  3
Solid line
 72
    65
 73
     0
 40
0.0
  0
LTYPE
  5
15C
330
5
100
AcDbSymbolTableRecord
100
AcDbLinetypeTableRecord
  2
Hidden
 70
     0
  3

 72
    65
 73
     2
 40
4.0
 49
2.0
 74
     0
 49
-2.0
 74
     0
  0
ENDTAB
  0
TABLE
  2
LAYER
  5
2
330
0
100
AcDbSymbolTable
 70
     2
  0
LAYER
  5
10
330
2
100
AcDbSymbolTableRecord
100
AcDbLayerTableRecord
  2
0
 70
     0
 62
     7
  6
Continuous
370
    -3
390
F
347
46
  0
LAYER
  5
6E
330
2
100
AcDbSymbolTableRecord
100
AcDbLayerTableRecord
  2
Graypants_Roest_75h
 70
     0
 62
    36
420
  8339200
  6
Continuous
370
    -3
390
F
347
46
  0
ENDTAB
  0
TABLE
  2
STYLE
  5
3
330
0
100
AcDbSymbolTable
 70
     1
  0
STYLE
  5
11
330
3
100
AcDbSymbolTableRecord
100
AcDbTextStyleTableRecord
  2
Standard
 70
     0
 40
0.0
 41
1.0
 50
0.0
 71
     0
 42
0.2
  3
txt
  4

  0
ENDTAB
  0
TABLE
  2
VIEW
  5
6
330
0
100
AcDbSymbolTable
 70
     0
  0
ENDTAB
  0
TABLE
  2
UCS
  5
7
330
0
100
AcDbSymbolTable
 70
     0
  0
ENDTAB
  0
TABLE
  2
APPID
  5
9
330
0
100
AcDbSymbolTable
 70
     2
  0
APPID
  5
12
330
9
100
AcDbSymbolTableRecord
100
AcDbRegAppTableRecord
  2
ACAD
 70
     0
  0
APPID
  5
285
330
9
100
AcDbSymbolTableRecord
100
AcDbRegAppTableRecord
  2
ACAD_MLEADERVER
 70
     0
  0
ENDTAB
  0
TABLE
  2
DIMSTYLE
  5
A
330
0
100
AcDbSymbolTable
 70
     1
100
AcDbDimStyleTable
  0
DIMSTYLE
105
27
330
A
100
AcDbSymbolTableRecord
100
AcDbDimStyleTableRecord
  2
STANDARD_ACAD
 70
     0
178
     0
340
11
  0
ENDTAB
  0
TABLE
  2
BLOCK_RECORD
  5
1
330
0
100
AcDbSymbolTable
 70
     1
  0
BLOCK_RECORD
  5
1F
330
1
100
AcDbSymbolTableRecord
100
AcDbBlockTableRecord
  2
*Model_Space
340
22
 70
     0
280
     1
281
     0
  0
BLOCK_RECORD
  5
1B
330
1
100
AcDbSymbolTableRecord
100
AcDbBlockTableRecord
  2
*Paper_Space
340
1E
 70
     0
280
     1
281
     0
  0
BLOCK_RECORD
  5
23
330
1
100
AcDbSymbolTableRecord
100
AcDbBlockTableRecord
  2
*Paper_Space0
340
26
 70
     0
280
     1
281
     0
  0
ENDTAB
  0
ENDSEC
  0
SECTION
  2
BLOCKS
  0
BLOCK
  5
20
330
1F
100
AcDbEntity
  8
0
100
AcDbBlockBegin
  2
*Model_Space
 70
     0
 10
0.0
 20
0.0
 30
0.0
  3
*Model_Space
  1

  0
ENDBLK
  5
21
330
1F
100
AcDbEntity
  8
0
100
AcDbBlockEnd
  0
BLOCK
  5
1C
330
1B
100
AcDbEntity
 67
     1
  8
0
100
AcDbBlockBegin
  2
*Paper_Space
 70
     0
 10
0.0
 20
0.0
 30
0.0
  3
*Paper_Space
  1

  0
ENDBLK
  5
1D
330
1B
100
AcDbEntity
 67
     1
  8
0
100
AcDbBlockEnd
  0
BLOCK
  5
24
330
23
100
AcDbEntity
  8
0
100
AcDbBlockBegin
  2
*Paper_Space0
 70
     0
 10
0.0
 20
0.0
 30
0.0
  3
*Paper_Space0
  1

  0
ENDBLK
  5
25
330
23
100
AcDbEntity
  8
0
100
AcDbBlockEnd
  0
ENDSEC
  0
SECTION
  2
ENTITIES
  0
ARC
  5
6F
330
1F
100
AcDbEntity
  8
Graypants_Roest_75h
370
    -3
100
AcDbCircle
 10
-718.9999999958857
 20
0.0000081367420768
 30
0.0
 40
2.000000001196847
210
0.0
220
0.0
230
-1.0
100
AcDbArc
 50
180.0002330884084
 51
179.9797184875393
  0
ARC
  5
70
330
1F
100
AcDbEntity
  8
Graypants_Roest_75h
370
    -3
100
AcDbCircle
 10
-703.9999999997252
 20
0.0000000000865429
 30
0.0
 40
0.500000000000105
210
0.0
220
0.0
230
-1.0
100
AcDbArc
 50
89.99999999997394
 51
169.6244259178439
  0
ARC
  5
71
330
1F
100
AcDbEntity
  8
Graypants_Roest_75h
370
    -3
100
AcDbCircle
 10
-703.9999999997253
 20
0.0000000000865725
 30
0.0
 40
0.4999999999997883
210
0.0
220
0.0
230
-1.0
100
AcDbArc
 50
169.6244259178397
 51
349.6244259178566
  0
ARC
  5
72
330
1F
100
AcDbEntity
  8
Graypants_Roest_75h
370
    -3
100
AcDbCircle
 10
15.00000000411436
 20
0.0000081367122448
 30
0.0
 40
2.000000001196884
210
0.0
220
0.0
230
-1.0
100
AcDbArc
 50
180.0002330877167
 51
179.9797184866847
  0
CIRCLE
  5
73
330
1F
100
AcDbEntity
  8
Graypants_Roest_75h
370
    -3
100
AcDbCircle
 10
-14.99999999958573
 20
-0.0000000000422899
 30
0.0
 40
5.000000000176611
210
0.0
220
0.0
230
-1.0
  0
LINE
  5
74
330
1F
100
AcDbEntity
  8
Graypants_Roest_75h
370
    -3
100
AcDbLine
 10
62.12683127337687
 20
-30.14999999986577
 30
0.0
 11
-20.00000000002092
 21
-30.14999999986577
 31
0.0
  0
LINE
  5
75
330
1F
100
AcDbEntity
  8
Graypants_Roest_75h
370
    -3
100
AcDbLine
 10
62.12733335012604
 20
30.1500000001343
 30
0.0
 11
723.9999999999793
 21
30.1500000001343
 31
0.0
  0
ARC
  5
76
330
1F
100
AcDbEntity
  8
Graypants_Roest_75h
370
    -3
100
AcDbCircle
 10
-704.0003914039165
 20
0.0005757800918891
 30
0.0
 40
1.000576069990215
210
0.0
220
0.0
230
-1.0
100
AcDbArc
 50
270.0542448548897
 51
333.0191677007119
  0
CIRCLE
  5
77
330
1F
100
AcDbEntity
  8
Graypants_Roest_75h
370
    -3
100
AcDbCircle
 10
-14.99999999985675
 20
0.0000000001353442
 30
0.0
 40
2.25
210
0.0
220
0.0
230
-1.0
  0
ARC
  5
78
330
1F
100
AcDbEntity
  8
Graypants_Roest_75h
370
    -3
100
AcDbCircle
 10
0.0000000000205855
 20
0.0000000001315806
 30
0.0
 40
0.5000000000001136
210
0.0
220
0.0
230
-1.0
100
AcDbArc
 50
349.6244259178479
 51
169.6244259178583
  0
ARC
  5
79
330
1F
100
AcDbEntity
  8
Graypants_Roest_75h
370
    -3
100
AcDbCircle
 10
0.0000000000205892
 20
0.0000000001316007
 30
0.0
 40
0.4999999999998899
210
0.0
220
0.0
230
-1.0
100
AcDbArc
 50
169.624425917856
 51
349.6244259178408
  0
ARC
  5
7A
330
1F
100
AcDbEntity
  8
Graypants_Roest_75h
370
    -3
100
AcDbCircle
 10
703.9999999999792
 20
0.0000000000865157
 30
0.0
 40
6.000000000000114
100
AcDbArc
 50
0.0000000000005428
 51
179.9999999999994
  0
ARC
  5
7B
330
1F
100
AcDbEntity
  8
Graypants_Roest_75h
370
    -3
100
AcDbCircle
 10
-703.9999999999792
 20
0.0000000000866294
 30
0.0
 40
6.000000000000114
210
0.0
220
0.0
230
-1.0
100
AcDbArc
 50
180.0000000000005
 51
359.9999999999994
  0
ARC
  5
7C
330
1F
100
AcDbEntity
  8
Graypants_Roest_75h
370
    -3
100
AcDbCircle
 10
703.9999999997256
 20
0.0000000000861462
 30
0.0
 40
0.5000000000004263
100
AcDbArc
 50
90.00000000005213
 51
190.3755740821005
  0
ARC
  5
7D
330
1F
100
AcDbEntity
  8
Graypants_Roest_75h
370
    -3
100
AcDbCircle
 10
-703.999999999725
 20
0.0000000000865157
 30
0.0
 40
0.9999999999999432
210
0.0
220
0.0
230
-1.0
100
AcDbArc
 50
269.9999999999935
 51
90.00000000000651
  0
ARC
  5
7E
330
1F
100
AcDbEntity
  8
Graypants_Roest_75h
370
    -3
100
AcDbCircle
 10
-703.999999999725
 20
0.0000000000865157
 30
0.0
 40
1.000000000000057
210
0.0
220
0.0
230
-1.0
100
AcDbArc
 50
90.00000000000651
 51
269.9999999999935
  0
ARC
  5
7F
330
1F
100
AcDbEntity
  8
Graypants_Roest_75h
370
    -3
100
AcDbCircle
 10
-703.9999999999794
 20
0.0000000000865157
 30
0.0
 40
8.000000000000114
210
0.0
220
0.0
230
-1.0
100
AcDbArc
 50
0.0000000000004071
 51
179.9999999999996
  0
ARC
  5
80
330
1F
100
AcDbEntity
  8
Graypants_Roest_75h
370
    -3
100
AcDbCircle
 10
-703.9999999999793
 20
0.0000000000865157
 30
0.0
 40
8.0
210
0.0
220
0.0
230
-1.0
100
AcDbArc
 50
179.9999999999996
 51
0.0000000000004001
  0
ARC
  5
81
330
1F
100
AcDbEntity
  8
Graypants_Roest_75h
370
    -3
100
AcDbCircle
 10
15.00000055559332
 20
-0.0000002828047476
 30
0.0
 40
2.000000623450422
210
0.0
220
0.0
230
-1.0
100
AcDbArc
 50
153.0000000032689
 51
153.0560311118038
  0
ARC
  5
82
330
1F
100
AcDbEntity
  8
Graypants_Roest_75h
370
    -3
100
AcDbCircle
 10
-719.0000002606579
 20
0.0000001327443329
 30
0.0
 40
1.999999707561774
210
0.0
220
0.0
230
-1.0
100
AcDbArc
 50
152.9999999950371
 51
153.0560311284702
  0
LINE
  5
83
330
1F
100
AcDbEntity
  8
Graypants_Roest_75h
370
    -3
100
AcDbLine
 10
726.9999999999793
 20
-30.14999999986577
 30
0.0
 11
723.9999999999793
 21
-30.14999999986577
 31
0.0
  0
LINE
  5
84
330
1F
100
AcDbEntity
  8
Graypants_Roest_75h
370
    -3
100
AcDbLine
 10
723.9999999999793
 20
30.1500000001343
 30
0.0
 11
726.9999999999793
 21
30.1500000001343
 31
0.0
  0
LINE
  5
85
330
1F
100
AcDbEntity
  8
Graypants_Roest_75h
370
    -3
100
AcDbLine
 10
723.9999999999791
 20
-30.14999999986577
 30
0.0
 11
62.12683127337664
 21
-30.14999999986577
 31
0.0
  0
LINE
  5
86
330
1F
100
AcDbEntity
  8
Graypants_Roest_75h
370
    -3
100
AcDbLine
 10
-20.00000000002069
 20
30.1500000001343
 30
0.0
 11
62.12733335012604
 21
30.1500000001343
 31
0.0
  0
LINE
  5
87
330
1F
100
AcDbEntity
  8
Graypants_Roest_75h
370
    -3
100
AcDbLine
 10
-23.00000000002069
 20
30.1500000001343
 30
0.0
 11
-20.0000000000208
 21
30.1500000001343
 31
0.0
  0
LINE
  5
88
330
1F
100
AcDbEntity
  8
Graypants_Roest_75h
370
    -3
100
AcDbLine
 10
-20.0000000000208
 20
-30.14999999986577
 30
0.0
 11
-23.00000000002069
 21
-30.14999999986577
 31
0.0
  0
ARC
  5
89
330
1F
100
AcDbEntity
  8
Graypants_Roest_75h
370
    -3
100
AcDbCircle
 10
0.0003124356765934
 20
0.0005932262493886
 30
0.0
 40
0.9999568087200814
210
0.0
220
0.0
230
-1.0
100
AcDbArc
 50
332.9999800069196
 51
332.961587928222
  0
LINE
  5
8A
330
1F
100
AcDbEntity
  8
Graypants_Roest_75h
370
    -3
100
AcDbLine
 10
726.9999999999793
 20
-30.14999999986566
 30
0.0
 11
726.9999999999793
 21
30.1500000001343
 31
0.0
  0
LINE
  5
8B
330
1F
100
AcDbEntity
  8
Graypants_Roest_75h
370
    -3
100
AcDbLine
 10
-23.00000000002069
 20
-30.14999999986577
 30
0.0
 11
-23.00000000002069
 21
30.1500000001343
 31
0.0
  0
ARC
  5
8C
330
1F
100
AcDbEntity
  8
Graypants_Roest_75h
370
    -3
100
AcDbCircle
 10
-1011.016273855462
 20
-962.6784355440419
 30
0.0
 40
30.15000000000032
210
0.0
220
0.0
230
-1.0
100
AcDbArc
 50
179.9999999999998
 51
0.000000000000216
  0
ARC
  5
8D
330
1F
100
AcDbEntity
  8
Graypants_Roest_75h
370
    -3
100
AcDbCircle
 10
-1011.016273855462
 20
-962.6784355440416
 30
0.0
 40
30.14999999999986
210
0.0
220
0.0
230
-1.0
100
AcDbArc
 50
359.9999999999996
 51
180.0000000000004
  0
ARC
  5
8E
330
1F
100
AcDbEntity
  8
Graypants_Roest_75h
370
    -3
100
AcDbCircle
 10
-704.0000000012079
 20
-902.3949970172234
 30
0.0
 40
30.15002682339798
210
0.0
220
0.0
230
-1.0
100
AcDbArc
 50
268.0992955687859
 51
271.9007037755638
  0
ARC
  5
8F
330
1F
100
AcDbEntity
  8
Graypants_Roest_75h
370
    -3
100
AcDbCircle
 10
-15.00000000790021
 20
-902.7959197042641
 30
0.0
 40
30.14999996873247
210
0.0
220
0.0
230
-1.0
100
AcDbArc
 50
260.4541112339089
 51
279.5458870415844
  0
ARC
  5
90
330
1F
100
AcDbEntity
  8
Graypants_Roest_75h
370
    -3
100
AcDbCircle
 10
-0.0000000012078711
 20
-902.3949970166168
 30
0.0
 40
30.15002682400428
210
0.0
220
0.0
230
-1.0
100
AcDbArc
 50
268.0992955688242
 51
271.900703775525
  0
LINE
  5
91
330
1F
100
AcDbEntity
  8
Graypants_Roest_75h
370
    -3
100
AcDbLine
 10
-0.5000000000204845
 20
-932.5408715882446
 30
0.0
 11
-0.5000000000204845
 21
-324.4975238555767
 31
0.0
  0
LINE
  5
92
330
1F
100
AcDbEntity
  8
Graypants_Roest_75h
370
    -3
100
AcDbLine
 10
12.74999999985675
 20
-932.8608936699388
 30
0.0
 11
12.74999999985675
 21
-324.4975238555349
 31
0.0
  0
LINE
  5
93
330
1F
100
AcDbEntity
  8
Graypants_Roest_75h
370
    -3
100
AcDbLine
 10
-0.500000000020363
 20
-324.4975238555767
 30
0.0
 11
-0.5000000000204845
 21
-323.545023855353
 31
0.0
  0
LINE
  5
94
330
1F
100
AcDbEntity
  8
Graypants_Roest_75h
370
    -3
100
AcDbLine
 10
0.4999999999795833
 20
-324.4975238555766
 30
0.0
 11
0.4999999999794619
 21
-932.5408742771949
 31
0.0
  0
LINE
  5
95
330
1F
100
AcDbEntity
  8
Graypants_Roest_75h
370
    -3
100
AcDbLine
 10
12.74999999985675
 20
-324.4975238555349
 30
0.0
 11
12.74999999985675
 21
-323.5450238553531
 31
0.0
  0
LINE
  5
96
330
1F
100
AcDbEntity
  8
Graypants_Roest_75h
370
    -3
100
AcDbLine
 10
17.24999999985675
 20
-324.4975238555197
 30
0.0
 11
17.24999999985675
 21
-932.8608896328669
 31
0.0
  0
LINE
  5
97
330
1F
100
AcDbEntity
  8
Graypants_Roest_75h
370
    -3
100
AcDbLine
 10
0.4999999999795833
 20
-323.545023855353
 30
0.0
 11
0.4999999999795833
 21
-324.4975238555766
 31
0.0
  0
LINE
  5
98
330
1F
100
AcDbEntity
  8
Graypants_Roest_75h
370
    -3
100
AcDbLine
 10
17.24999999985675
 20
-323.5450238553531
 30
0.0
 11
17.24999999985675
 21
-324.4975238555198
 31
0.0
  0
LINE
  5
99
330
1F
100
AcDbEntity
  8
Graypants_Roest_75h
370
    -3
100
AcDbLine
 10
726.9999999999793
 20
-992.8284355440419
 30
0.0
 11
726.9999999999793
 21
-962.6784355440418
 31
0.0
  0
LINE
  5
9A
330
1F
100
AcDbEntity
  8
Graypants_Roest_75h
370
    -3
100
AcDbLine
 10
726.9999999999793
 20
-992.8284355440419
 30
0.0
 11
723.9999999999793
 21
-992.8284355440419
 31
0.0
  0
LINE
  5
9B
330
1F
100
AcDbEntity
  8
Graypants_Roest_75h
370
    -3
100
AcDbLine
 10
723.9999999999793
 20
-932.5284355440417
 30
0.0
 11
726.9999999999793
 21
-932.5284355440417
 31
0.0
  0
POLYLINE
  5
9C
330
1F
100
AcDbEntity
  8
Graypants_Roest_75h
370
    -3
100
AcDb2dPolyline
 66
     1
 10
0.0
 20
0.0
 30
0.0
  0
VERTEX
  5
9D
330
9C
100
AcDbEntity
  8
Graypants_Roest_75h
370
    -3
100
AcDbVertex
100
AcDb2dVertex
 10
102.0000330320958
 20
-992.8284136322002
 30
0.0
  0
VERTEX
  5
9E
330
9C
100
AcDbEntity
  8
Graypants_Roest_75h
370
    -3
100
AcDbVertex
100
AcDb2dVertex
 10
102.9231159376544
 20
-992.2241629090497
 30
0.0
  0
VERTEX
  5
9F
330
9C
100
AcDbEntity
  8
Graypants_Roest_75h
370
    -3
100
AcDbVertex
100
AcDb2dVertex
 10
104.0209211979439
 20
-991.5275217439512
 30
0.0
  0
VERTEX
  5
A0
330
9C
100
AcDbEntity
  8
Graypants_Roest_75h
370
    -3
100
AcDbVertex
100
AcDb2dVertex
 10
104.7141587179407
 20
-991.1006593984102
 30
0.0
  0
VERTEX
  5
A1
330
9C
100
AcDbEntity
  8
Graypants_Roest_75h
370
    -3
100
AcDbVertex
100
AcDb2dVertex
 10
105.4872620333112
 20
-990.637209035664
 30
0.0
  0
VERTEX
  5
A2
330
9C
100
AcDbEntity
  8
Graypants_Roest_75h
370
    -3
100
AcDbVertex
100
AcDb2dVertex
 10
106.3375024369367
 20
-990.1435753958509
 30
0.0
  0
VERTEX
  5
A3
330
9C
100
AcDbEntity
  8
Graypants_Roest_75h
370
    -3
100
AcDbVertex
100
AcDb2dVertex
 10
107.2645423787043
 20
-989.6257213314525
 30
0.0
  0
VERTEX
  5
A4
330
9C
100
AcDbEntity
  8
Graypants_Roest_75h
370
    -3
100
AcDbVertex
100
AcDb2dVertex
 10
108.2699645824657
 20
-989.0893755388443
 30
0.0
  0
VERTEX
  5
A5
330
9C
100
AcDbEntity
  8
Graypants_Roest_75h
370
    -3
100
AcDbVertex
100
AcDb2dVertex
 10
109.3446845698497
 20
-988.5469397264654
 30
0.0
  0
VERTEX
  5
A6
330
9C
100
AcDbEntity
  8
Graypants_Roest_75h
370
    -3
100
AcDbVertex
100
AcDb2dVertex
 10
110.4778329496264
 20
-988.0118050628237
 30
0.0
  0
VERTEX
  5
A7
330
9C
100
AcDbEntity
  8
Graypants_Roest_75h
370
    -3
100
AcDbVertex
100
AcDb2dVertex
 10
111.0666357711874
 20
-987.7495172869765
 30
0.0
  0
VERTEX
  5
A8
330
9C
100
AcDbEntity
  8
Graypants_Roest_75h
370
    -3
100
AcDbVertex
100
AcDb2dVertex
 10
111.6706780209053
 20
-987.4920888935061
 30
0.0
  0
VERTEX
  5
A9
330
9C
100
AcDbEntity
  8
Graypants_Roest_75h
370
    -3
100
AcDbVertex
100
AcDb2dVertex
 10
112.2903281216119
 20
-987.2405467849269
 30
0.0
  0
VERTEX
  5
AA
330
9C
100
AcDbEntity
  8
Graypants_Roest_75h
370
    -3
100
AcDbVertex
100
AcDb2dVertex
 10
112.9262547388221
 20
-986.9961278166818
 30
0.0
  0
VERTEX
  5
AB
330
9C
100
AcDbEntity
  8
Graypants_Roest_75h
370
    -3
100
AcDbVertex
100
AcDb2dVertex
 10
113.5792234918425
 20
-986.7601516769585
 30
0.0
  0
VERTEX
  5
AC
330
9C
100
AcDbEntity
  8
Graypants_Roest_75h
370
    -3
100
AcDbVertex
100
AcDb2dVertex
 10
114.2499999999792
 20
-986.5339380539451
 30
0.0
  0
SEQEND
  5
AD
330
9C
100
AcDbEntity
  8
Graypants_Roest_75h
370
    -3
  0
LINE
  5
AE
330
1F
100
AcDbEntity
  8
Graypants_Roest_75h
370
    -3
100
AcDbLine
 10
117.2499999999792
 20
-992.8284355440419
 30
0.0
 11
117.2499999999792
 21
-985.7345627123241
 31
0.0
  0
LINE
  5
AF
330
1F
100
AcDbEntity
  8
Graypants_Roest_75h
370
    -3
100
AcDbLine
 10
132.9999999999793
 20
-992.8284355440419
 30
0.0
 11
132.9999999999792
 21
-985.2399625313701
 31
0.0
  0
LINE
  5
B0
330
1F
100
AcDbEntity
  8
Graypants_Roest_75h
370
    -3
100
AcDbLine
 10
148.7499999999792
 20
-992.8284355440419
 30
0.0
 11
148.7499999999792
 21
-985.2399625313701
 31
0.0
  0
LINE
  5
B1
330
1F
100
AcDbEntity
  8
Graypants_Roest_75h
370
    -3
100
AcDbLine
 10
164.4999999999792
 20
-992.8284355440419
 30
0.0
 11
164.4999999999792
 21
-985.2399625313703
 31
0.0
  0
LINE
  5
B2
330
1F
100
AcDbEntity
  8
Graypants_Roest_75h
370
    -3
100
AcDbLine
 10
180.2499999999792
 20
-992.8284355440419
 30
0.0
 11
180.2499999999792
 21
-985.2399625313703
 31
0.0
  0
LINE
  5
B3
330
1F
100
AcDbEntity
  8
Graypants_Roest_75h
370
    -3
100
AcDbLine
 10
195.9999999999792
 20
-992.8284355440419
 30
0.0
 11
195.9999999999792
 21
-985.2399625313706
 31
0.0
  0
LINE
  5
B4
330
1F
100
AcDbEntity
  8
Graypants_Roest_75h
370
    -3
100
AcDbLine
 10
211.7499999999792
 20
-992.8284355440419
 30
0.0
 11
211.7499999999792
 21
-985.2399625313706
 31
0.0
  0
LINE
  5
B5
330
1F
100
AcDbEntity
  8
Graypants_Roest_75h
370
    -3
100
AcDbLine
 10
227.4999999999792
 20
-992.8284355440419
 30
0.0
 11
227.4999999999792
 21
-985.2399625313706
 31
0.0
  0
LINE
  5
B6
330
1F
100
AcDbEntity
  8
Graypants_Roest_75h
370
    -3
100
AcDbLine
 10
243.2499999999792
 20
-992.8284355440419
 30
0.0
 11
243.2499999999792
 21
-985.2399625313708
 31
0.0
  0
LINE
  5
B7
330
1F
100
AcDbEntity
  8
Graypants_Roest_75h
370
    -3
100
AcDbLine
 10
258.9999999999792
 20
-992.8284355440419
 30
0.0
 11
258.9999999999792
 21
-985.2399625313708
 31
0.0
  0
LINE
  5
B8
330
1F
100
AcDbEntity
  8
Graypants_Roest_75h
370
    -3
100
AcDbLine
 10
274.7499999999792
 20
-992.8284355440419
 30
0.0
 11
274.7499999999792
 21
-985.239962531371
 31
0.0
  0
LINE
  5
B9
330
1F
100
AcDbEntity
  8
Graypants_Roest_75h
370
    -3
100
AcDbLine
 10
290.4999999999792
 20
-992.8284355440419
 30
0.0
 11
290.4999999999792
 21
-985.239962531371
 31
0.0
  0
LINE
  5
BA
330
1F
100
AcDbEntity
  8
Graypants_Roest_75h
370
    -3
100
AcDbLine
 10
306.2499999999793
 20
-992.8284355440419
 30
0.0
 11
306.2499999999793
 21
-985.2399625313712
 31
0.0
  0
LINE
  5
BB
330
1F
100
AcDbEntity
  8
Graypants_Roest_75h
370
    -3
100
AcDbLine
 10
321.9999999999793
 20
-992.8284355440419
 30
0.0
 11
321.9999999999793
 21
-985.2399625313712
 31
0.0
  0
LINE
  5
BC
330
1F
100
AcDbEntity
  8
Graypants_Roest_75h
370
    -3
100
AcDbLine
 10
337.7499999999793
 20
-992.8284355440419
 30
0.0
 11
337.7499999999793
 21
-985.2399625313715
 31
0.0
  0
LINE
  5
BD
330
1F
100
AcDbEntity
  8
Graypants_Roest_75h
370
    -3
100
AcDbLine
 10
353.4999999999793
 20
-992.8284355440419
 30
0.0
 11
353.4999999999793
 21
-985.2399625313715
 31
0.0
  0
LINE
  5
BE
330
1F
100
AcDbEntity
  8
Graypants_Roest_75h
370
    -3
100
AcDbLine
 10
369.2499999999793
 20
-992.8284355440419
 30
0.0
 11
369.2499999999793
 21
-985.2399625313712
 31
0.0
  0
LINE
  5
BF
330
1F
100
AcDbEntity
  8
Graypants_Roest_75h
370
    -3
100
AcDbLine
 10
384.9999999999793
 20
-992.8284355440419
 30
0.0
 11
384.9999999999793
 21
-985.2399625313712
 31
0.0
  0
LINE
  5
C0
330
1F
100
AcDbEntity
  8
Graypants_Roest_75h
370
    -3
100
AcDbLine
 10
400.7499999999793
 20
-992.8284355440419
 30
0.0
 11
400.7499999999793
 21
-985.239962531371
 31
0.0
  0
LINE
  5
C1
330
1F
100
AcDbEntity
  8
Graypants_Roest_75h
370
    -3
100
AcDbLine
 10
416.4999999999793
 20
-992.8284355440419
 30
0.0
 11
416.4999999999793
 21
-985.239962531371
 31
0.0
  0
LINE
  5
C2
330
1F
100
AcDbEntity
  8
Graypants_Roest_75h
370
    -3
100
AcDbLine
 10
432.2499999999793
 20
-992.8284355440419
 30
0.0
 11
432.2499999999793
 21
-985.2399625313708
 31
0.0
  0
LINE
  5
C3
330
1F
100
AcDbEntity
  8
Graypants_Roest_75h
370
    -3
100
AcDbLine
 10
447.9999999999793
 20
-992.8284355440419
 30
0.0
 11
447.9999999999793
 21
-985.2399625313708
 31
0.0
  0
LINE
  5
C4
330
1F
100
AcDbEntity
  8
Graypants_Roest_75h
370
    -3
100
AcDbLine
 10
463.7499999999793
 20
-992.8284355440419
 30
0.0
 11
463.7499999999793
 21
-985.2399625313706
 31
0.0
  0
LINE
  5
C5
330
1F
100
AcDbEntity
  8
Graypants_Roest_75h
370
    -3
100
AcDbLine
 10
479.4999999999793
 20
-992.8284355440419
 30
0.0
 11
479.4999999999793
 21
-985.2399625313706
 31
0.0
  0
LINE
  5
C6
330
1F
100
AcDbEntity
  8
Graypants_Roest_75h
370
    -3
100
AcDbLine
 10
495.2499999999793
 20
-992.8284355440419
 30
0.0
 11
495.2499999999793
 21
-985.2399625313706
 31
0.0
  0
LINE
  5
C7
330
1F
100
AcDbEntity
  8
Graypants_Roest_75h
370
    -3
100
AcDbLine
 10
510.9999999999793
 20
-992.8284355440419
 30
0.0
 11
510.9999999999793
 21
-985.2399625313703
 31
0.0
  0
LINE
  5
C8
330
1F
100
AcDbEntity
  8
Graypants_Roest_75h
370
    -3
100
AcDbLine
 10
526.7499999999793
 20
-992.8284355440419
 30
0.0
 11
526.7499999999793
 21
-985.2399625313703
 31
0.0
  0
LINE
  5
C9
330
1F
100
AcDbEntity
  8
Graypants_Roest_75h
370
    -3
100
AcDbLine
 10
542.4999999999793
 20
-992.8284355440419
 30
0.0
 11
542.4999999999793
 21
-985.2399625313701
 31
0.0
  0
LINE
  5
CA
330
1F
100
AcDbEntity
  8
Graypants_Roest_75h
370
    -3
100
AcDbLine
 10
558.2499999999793
 20
-992.8284355440419
 30
0.0
 11
558.2499999999791
 21
-985.2399625313701
 31
0.0
  0
LINE
  5
CB
330
1F
100
AcDbEntity
  8
Graypants_Roest_75h
370
    -3
100
AcDbLine
 10
573.9999999999793
 20
-992.8284355440633
 30
0.0
 11
573.9999999999793
 21
-985.2399625313701
 31
0.0
  0
LINE
  5
CC
330
1F
100
AcDbEntity
  8
Graypants_Roest_75h
370
    -3
100
AcDbLine
 10
589.7499999999793
 20
-992.8284355440419
 30
0.0
 11
589.7499999999793
 21
-986.5339380539451
 31
0.0
  0
LINE
  5
CD
330
1F
100
AcDbEntity
  8
Graypants_Roest_75h
370
    -3
100
AcDbLine
 10
101.9999999535946
 20
-992.8284355440419
 30
0.0
 11
-20.00000000002092
 21
-992.8284355440419
 31
0.0
  0
LINE
  5
CE
330
1F
100
AcDbEntity
  8
Graypants_Roest_75h
370
    -3
100
AcDbLine
 10
117.2499999999793
 20
-992.8284355440419
 30
0.0
 11
114.2499999999791
 21
-992.8284355440419
 31
0.0
  0
LINE
  5
CF
330
1F
100
AcDbEntity
  8
Graypants_Roest_75h
370
    -3
100
AcDbLine
 10
132.9999999999792
 20
-992.8284355440419
 30
0.0
 11
129.9999999999793
 21
-992.8284355440419
 31
0.0
  0
LINE
  5
D0
330
1F
100
AcDbEntity
  8
Graypants_Roest_75h
370
    -3
100
AcDbLine
 10
148.7499999999793
 20
-992.8284355440419
 30
0.0
 11
145.7499999999791
 21
-992.8284355440419
 31
0.0
  0
LINE
  5
D1
330
1F
100
AcDbEntity
  8
Graypants_Roest_75h
370
    -3
100
AcDbLine
 10
164.4999999999791
 20
-992.8284355440419
 30
0.0
 11
161.4999999999791
 21
-992.8284355440419
 31
0.0
  0
LINE
  5
D2
330
1F
100
AcDbEntity
  8
Graypants_Roest_75h
370
    -3
100
AcDbLine
 10
180.2499999999793
 20
-992.8284355440419
 30
0.0
 11
177.2499999999792
 21
-992.8284355440419
 31
0.0
  0
LINE
  5
D3
330
1F
100
AcDbEntity
  8
Graypants_Roest_75h
370
    -3
100
AcDbLine
 10
195.9999999999793
 20
-992.8284355440419
 30
0.0
 11
192.9999999999792
 21
-992.8284355440419
 31
0.0
  0
LINE
  5
D4
330
1F
100
AcDbEntity
  8
Graypants_Roest_75h
370
    -3
100
AcDbLine
 10
211.7499999999792
 20
-992.8284355440419
 30
0.0
 11
208.7499999999792
 21
-992.8284355440419
 31
0.0
  0
LINE
  5
D5
330
1F
100
AcDbEntity
  8
Graypants_Roest_75h
370
    -3
100
AcDbLine
 10
227.4999999999793
 20
-992.8284355440419
 30
0.0
 11
224.4999999999793
 21
-992.8284355440419
 31
0.0
  0
LINE
  5
D6
330
1F
100
AcDbEntity
  8
Graypants_Roest_75h
370
    -3
100
AcDbLine
 10
243.2499999999792
 20
-992.8284355440419
 30
0.0
 11
240.2499999999792
 21
-992.8284355440419
 31
0.0
  0
LINE
  5
D7
330
1F
100
AcDbEntity
  8
Graypants_Roest_75h
370
    -3
100
AcDbLine
 10
258.9999999999793
 20
-992.8284355440419
 30
0.0
 11
255.9999999999792
 21
-992.8284355440419
 31
0.0
  0
LINE
  5
D8
330
1F
100
AcDbEntity
  8
Graypants_Roest_75h
370
    -3
100
AcDbLine
 10
274.7499999999792
 20
-992.8284355440419
 30
0.0
 11
271.7499999999792
 21
-992.8284355440419
 31
0.0
  0
LINE
  5
D9
330
1F
100
AcDbEntity
  8
Graypants_Roest_75h
370
    -3
100
AcDbLine
 10
290.4999999999791
 20
-992.8284355440419
 30
0.0
 11
287.4999999999792
 21
-992.8284355440419
 31
0.0
  0
LINE
  5
DA
330
1F
100
AcDbEntity
  8
Graypants_Roest_75h
370
    -3
100
AcDbLine
 10
306.2499999999793
 20
-992.8284355440419
 30
0.0
 11
303.2499999999791
 21
-992.8284355440419
 31
0.0
  0
LINE
  5
DB
330
1F
100
AcDbEntity
  8
Graypants_Roest_75h
370
    -3
100
AcDbLine
 10
321.9999999999793
 20
-992.8284355440419
 30
0.0
 11
318.9999999999793
 21
-992.8284355440419
 31
0.0
  0
LINE
  5
DC
330
1F
100
AcDbEntity
  8
Graypants_Roest_75h
370
    -3
100
AcDbLine
 10
337.7499999999793
 20
-992.8284355440419
 30
0.0
 11
334.7499999999793
 21
-992.8284355440419
 31
0.0
  0
LINE
  5
DD
330
1F
100
AcDbEntity
  8
Graypants_Roest_75h
370
    -3
100
AcDbLine
 10
353.4999999999793
 20
-992.8284355440419
 30
0.0
 11
350.4999999999791
 21
-992.8284355440419
 31
0.0
  0
LINE
  5
DE
330
1F
100
AcDbEntity
  8
Graypants_Roest_75h
370
    -3
100
AcDbLine
 10
369.2499999999791
 20
-992.8284355440419
 30
0.0
 11
366.2499999999791
 21
-992.8284355440419
 31
0.0
  0
LINE
  5
DF
330
1F
100
AcDbEntity
  8
Graypants_Roest_75h
370
    -3
100
AcDbLine
 10
384.9999999999791
 20
-992.8284355440419
 30
0.0
 11
381.9999999999793
 21
-992.8284355440419
 31
0.0
  0
LINE
  5
E0
330
1F
100
AcDbEntity
  8
Graypants_Roest_75h
370
    -3
100
AcDbLine
 10
400.7499999999793
 20
-992.8284355440419
 30
0.0
 11
397.7499999999793
 21
-992.8284355440419
 31
0.0
  0
LINE
  5
E1
330
1F
100
AcDbEntity
  8
Graypants_Roest_75h
370
    -3
100
AcDbLine
 10
416.4999999999791
 20
-992.8284355440419
 30
0.0
 11
413.4999999999791
 21
-992.8284355440419
 31
0.0
  0
LINE
  5
E2
330
1F
100
AcDbEntity
  8
Graypants_Roest_75h
370
    -3
100
AcDbLine
 10
432.2499999999793
 20
-992.8284355440419
 30
0.0
 11
429.2499999999793
 21
-992.8284355440419
 31
0.0
  0
LINE
  5
E3
330
1F
100
AcDbEntity
  8
Graypants_Roest_75h
370
    -3
100
AcDbLine
 10
447.9999999999793
 20
-992.8284355440419
 30
0.0
 11
444.9999999999793
 21
-992.8284355440419
 31
0.0
  0
LINE
  5
E4
330
1F
100
AcDbEntity
  8
Graypants_Roest_75h
370
    -3
100
AcDbLine
 10
463.7499999999793
 20
-992.8284355440419
 30
0.0
 11
460.7499999999793
 21
-992.8284355440419
 31
0.0
  0
LINE
  5
E5
330
1F
100
AcDbEntity
  8
Graypants_Roest_75h
370
    -3
100
AcDbLine
 10
479.4999999999793
 20
-992.8284355440419
 30
0.0
 11
476.4999999999793
 21
-992.8284355440419
 31
0.0
  0
LINE
  5
E6
330
1F
100
AcDbEntity
  8
Graypants_Roest_75h
370
    -3
100
AcDbLine
 10
495.2499999999793
 20
-992.8284355440419
 30
0.0
 11
492.2499999999789
 21
-992.8284355440419
 31
0.0
  0
LINE
  5
E7
330
1F
100
AcDbEntity
  8
Graypants_Roest_75h
370
    -3
100
AcDbLine
 10
510.9999999999793
 20
-992.8284355440419
 30
0.0
 11
507.9999999999793
 21
-992.8284355440419
 31
0.0
  0
LINE
  5
E8
330
1F
100
AcDbEntity
  8
Graypants_Roest_75h
370
    -3
100
AcDbLine
 10
526.7499999999793
 20
-992.8284355440419
 30
0.0
 11
523.7499999999789
 21
-992.8284355440419
 31
0.0
  0
LINE
  5
E9
330
1F
100
AcDbEntity
  8
Graypants_Roest_75h
370
    -3
100
AcDbLine
 10
542.4999999999798
 20
-992.8284355440419
 30
0.0
 11
539.4999999999793
 21
-992.8284355440419
 31
0.0
  0
LINE
  5
EA
330
1F
100
AcDbEntity
  8
Graypants_Roest_75h
370
    -3
100
AcDbLine
 10
558.2499999999793
 20
-992.8284355440419
 30
0.0
 11
555.2499999999793
 21
-992.8284355440419
 31
0.0
  0
LINE
  5
EB
330
1F
100
AcDbEntity
  8
Graypants_Roest_75h
370
    -3
100
AcDbLine
 10
573.9999999999793
 20
-992.8284355440419
 30
0.0
 11
570.9999999999793
 21
-992.8284355440419
 31
0.0
  0
LINE
  5
EC
330
1F
100
AcDbEntity
  8
Graypants_Roest_75h
370
    -3
100
AcDbLine
 10
589.7499999999793
 20
-992.8284355440419
 30
0.0
 11
586.7499999999793
 21
-992.8284355440419
 31
0.0
  0
LINE
  5
ED
330
1F
100
AcDbEntity
  8
Graypants_Roest_75h
370
    -3
100
AcDbLine
 10
723.9999999999793
 20
-992.8284355440419
 30
0.0
 11
602.000000046364
 21
-992.8284355440419
 31
0.0
  0
LINE
  5
EE
330
1F
100
AcDbEntity
  8
Graypants_Roest_75h
370
    -3
100
AcDbLine
 10
720.9999999970735
 20
-932.5284355440417
 30
0.0
 11
723.9999999999795
 21
-932.5284355440417
 31
0.0
  0
LINE
  5
EF
330
1F
100
AcDbEntity
  8
Graypants_Roest_75h
370
    -3
100
AcDbLine
 10
704.9999999989843
 20
-932.5284355440417
 30
0.0
 11
716.9999999969375
 21
-932.5284355440417
 31
0.0
  0
LINE
  5
F0
330
1F
100
AcDbEntity
  8
Graypants_Roest_75h
370
    -3
100
AcDbLine
 10
19.99999999153738
 20
-932.5284355440417
 30
0.0
 11
702.9999999983183
 21
-932.5284355440417
 31
0.0
  0
LINE
  5
F1
330
1F
100
AcDbEntity
  8
Graypants_Roest_75h
370
    -3
100
AcDbLine
 10
0.9999999989845492
 20
-932.5284355440417
 30
0.0
 11
9.999999990919264
 21
-932.5284355440417
 31
0.0
  0
LINE
  5
F2
330
1F
100
AcDbEntity
  8
Graypants_Roest_75h
370
    -3
100
AcDbLine
 10
-13.00000000292641
 20
-932.5284355440417
 30
0.0
 11
-1.000000001681542
 21
-932.5284355440417
 31
0.0
  0
LINE
  5
F3
330
1F
100
AcDbEntity
  8
Graypants_Roest_75h
370
    -3
100
AcDbLine
 10
-20.0000000000208
 20
-932.5284355440417
 30
0.0
 11
-17.00000000306272
 21
-932.5284355440417
 31
0.0
  0
LINE
  5
F4
330
1F
100
AcDbEntity
  8
Graypants_Roest_75h
370
    -3
100
AcDbLine
 10
-23.00000000002069
 20
-992.8284355436572
 30
0.0
 11
-23.00000000002069
 21
-962.6784355436571
 31
0.0
  0
LINE
  5
F5
330
1F
100
AcDbEntity
  8
Graypants_Roest_75h
370
    -3
100
AcDbLine
 10
-20.00000000002069
 20
-992.8284355436572
 30
0.0
 11
-23.00000000002069
 21
-992.8284355436572
 31
0.0
  0
LINE
  5
F6
330
1F
100
AcDbEntity
  8
Graypants_Roest_75h
370
    -3
100
AcDbLine
 10
-23.00000000002069
 20
-932.5284355436572
 30
0.0
 11
-20.00000000002069
 21
-932.5284355436572
 31
0.0
  0
ARC
  5
F7
330
1F
100
AcDbEntity
  8
Graypants_Roest_75h
370
    -3
100
AcDbCircle
 10
14.99999999869857
 20
-902.4448428708896
 30
0.0
 40
30.15000079807019
210
0.0
220
0.0
230
-1.0
100
AcDbArc
 50
266.1964921152185
 51
273.8035066440895
  0
ARC
  5
F8
330
1F
100
AcDbEntity
  8
Graypants_Roest_75h
370
    -3
100
AcDbCircle
 10
-719.0000000013015
 20
-902.44484287089
 30
0.0
 40
30.15000079806974
210
0.0
220
0.0
230
-1.0
100
AcDbArc
 50
266.1964921152185
 51
273.8035066440897
  0
LINE
  5
F9
330
1F
100
AcDbEntity
  8
Graypants_Roest_75h
370
    -3
100
AcDbLine
 10
726.9999999999793
 20
-962.6784355440418
 30
0.0
 11
726.9999999999793
 21
-932.5284355440417
 31
0.0
  0
POLYLINE
  5
FA
330
1F
100
AcDbEntity
  8
Graypants_Roest_75h
370
    -3
100
AcDb2dPolyline
 66
     1
 10
0.0
 20
0.0
 30
0.0
  0
VERTEX
  5
FB
330
FA
100
AcDbEntity
  8
Graypants_Roest_75h
370
    -3
100
AcDbVertex
100
AcDb2dVertex
 10
117.2499999999792
 20
-985.7345627123241
 30
0.0
  0
VERTEX
  5
FC
330
FA
100
AcDbEntity
  8
Graypants_Roest_75h
370
    -3
100
AcDbVertex
100
AcDb2dVertex
 10
118.0331248706149
 20
-985.5849322350654
 30
0.0
  0
VERTEX
  5
FD
330
FA
100
AcDbEntity
  8
Graypants_Roest_75h
370
    -3
100
AcDbVertex
100
AcDb2dVertex
 10
118.8208855876989
 20
-985.4620221242036
 30
0.0
  0
VERTEX
  5
FE
330
FA
100
AcDbEntity
  8
Graypants_Roest_75h
370
    -3
100
AcDbVertex
100
AcDb2dVertex
 10
119.6123707190008
 20
-985.3659745856573
 30
0.0
  0
VERTEX
  5
FF
330
FA
100
AcDbEntity
  8
Graypants_Roest_75h
370
    -3
100
AcDbVertex
100
AcDb2dVertex
 10
120.4066645231757
 20
-985.2969007455852
 30
0.0
  0
VERTEX
  5
100
330
FA
100
AcDbEntity
  8
Graypants_Roest_75h
370
    -3
100
AcDbVertex
100
AcDb2dVertex
 10
121.2028480092685
 20
-985.2548805218133
 30
0.0
  0
VERTEX
  5
101
330
FA
100
AcDbEntity
  8
Graypants_Roest_75h
370
    -3
100
AcDbVertex
100
AcDb2dVertex
 10
121.9999999999792
 20
-985.2399625313715
 30
0.0
  0
VERTEX
  5
102
330
FA
100
AcDbEntity
  8
Graypants_Roest_75h
370
    -3
100
AcDbVertex
100
AcDb2dVertex
 10
129.9999999999792
 20
-985.2399625313958
 30
0.0
  0
SEQEND
  5
103
330
FA
100
AcDbEntity
  8
Graypants_Roest_75h
370
    -3
  0
POLYLINE
  5
104
330
1F
100
AcDbEntity
  8
Graypants_Roest_75h
370
    -3
100
AcDb2dPolyline
 66
     1
 10
0.0
 20
0.0
 30
0.0
  0
VERTEX
  5
105
330
104
100
AcDbEntity
  8
Graypants_Roest_75h
370
    -3
100
AcDbVertex
100
AcDb2dVertex
 10
573.9999999999791
 20
-985.2399625313701
 30
0.0
  0
VERTEX
  5
106
330
104
100
AcDbEntity
  8
Graypants_Roest_75h
370
    -3
100
AcDbVertex
100
AcDb2dVertex
 10
581.9999999999793
 20
-985.2399625312678
 30
0.0
  0
VERTEX
  5
107
330
104
100
AcDbEntity
  8
Graypants_Roest_75h
370
    -3
100
AcDbVertex
100
AcDb2dVertex
 10
582.7971522064337
 20
-985.2548768319482
 30
0.0
  0
VERTEX
  5
108
330
104
100
AcDbEntity
  8
Graypants_Roest_75h
370
    -3
100
AcDbVertex
100
AcDb2dVertex
 10
583.5933359557811
 20
-985.2968948506456
 30
0.0
  0
VERTEX
  5
109
330
104
100
AcDbEntity
  8
Graypants_Roest_75h
370
    -3
100
AcDbVertex
100
AcDb2dVertex
 10
584.3876299700706
 20
-985.3659679675856
 30
0.0
  0
VERTEX
  5
10A
330
104
100
AcDbEntity
  8
Graypants_Roest_75h
370
    -3
100
AcDbVertex
100
AcDb2dVertex
 10
585.1791151579968
 20
-985.4620162570732
 30
0.0
  0
VERTEX
  5
10B
330
104
100
AcDbEntity
  8
Graypants_Roest_75h
370
    -3
100
AcDbVertex
100
AcDb2dVertex
 10
585.9668756783954
 20
-985.5849285799757
 30
0.0
  0
VERTEX
  5
10C
330
104
100
AcDbEntity
  8
Graypants_Roest_75h
370
    -3
100
AcDbVertex
100
AcDb2dVertex
 10
586.7499999999793
 20
-985.7345627123241
 30
0.0
  0
SEQEND
  5
10D
330
104
100
AcDbEntity
  8
Graypants_Roest_75h
370
    -3
  0
LINE
  5
10E
330
1F
100
AcDbEntity
  8
Graypants_Roest_75h
370
    -3
100
AcDbLine
 10
350.4999999999793
 20
-985.2399625313715
 30
0.0
 11
350.4999999999793
 21
-992.8284355440419
 31
0.0
  0
LINE
  5
10F
330
1F
100
AcDbEntity
  8
Graypants_Roest_75h
370
    -3
100
AcDbLine
 10
337.7499999999793
 20
-985.2399625313715
 30
0.0
 11
350.4999999999793
 21
-985.2399625313715
 31
0.0
  0
LINE
  5
110
330
1F
100
AcDbEntity
  8
Graypants_Roest_75h
370
    -3
100
AcDbLine
 10
129.9999999999792
 20
-985.2399625313958
 30
0.0
 11
129.9999999999792
 21
-992.8284355440474
 31
0.0
  0
POLYLINE
  5
111
330
1F
100
AcDbEntity
  8
Graypants_Roest_75h
370
    -3
100
AcDb2dPolyline
 66
     1
 10
0.0
 20
0.0
 30
0.0
  0
VERTEX
  5
112
330
111
100
AcDbEntity
  8
Graypants_Roest_75h
370
    -3
100
AcDbVertex
100
AcDb2dVertex
 10
589.7499999999793
 20
-986.5339380539451
 30
0.0
  0
VERTEX
  5
113
330
111
100
AcDbEntity
  8
Graypants_Roest_75h
370
    -3
100
AcDbVertex
100
AcDb2dVertex
 10
590.4217978210164
 20
-986.7605225985523
 30
0.0
  0
VERTEX
  5
114
330
111
100
AcDbEntity
  8
Graypants_Roest_75h
370
    -3
100
AcDbVertex
100
AcDb2dVertex
 10
591.0781440664515
 20
-986.9977934252986
 30
0.0
  0
VERTEX
  5
115
330
111
100
AcDbEntity
  8
Graypants_Roest_75h
370
    -3
100
AcDbVertex
100
AcDb2dVertex
 10
591.7195749375588
 20
-987.2444764001857
 30
0.0
  0
VERTEX
  5
116
330
111
100
AcDbEntity
  8
Graypants_Roest_75h
370
    -3
100
AcDbVertex
100
AcDb2dVertex
 10
592.3466266356128
 20
-987.4992973892156
 30
0.0
  0
VERTEX
  5
117
330
111
100
AcDbEntity
  8
Graypants_Roest_75h
370
    -3
100
AcDbVertex
100
AcDb2dVertex
 10
592.9576234110843
 20
-987.7600986612745
 30
0.0
  0
VERTEX
  5
118
330
111
100
AcDbEntity
  8
Graypants_Roest_75h
370
    -3
100
AcDbVertex
100
AcDb2dVertex
 10
593.5507591590774
 20
-988.0248092040653
 30
0.0
  0
VERTEX
  5
119
330
111
100
AcDbEntity
  8
Graypants_Roest_75h
370
    -3
100
AcDbVertex
100
AcDb2dVertex
 10
594.6848102455224
 20
-988.561381878751
 30
0.0
  0
VERTEX
  5
11A
330
111
100
AcDbEntity
  8
Graypants_Roest_75h
370
    -3
100
AcDbVertex
100
AcDb2dVertex
 10
595.7517476318475
 20
-989.1005934687539
 30
0.0
  0
VERTEX
  5
11B
330
111
100
AcDbEntity
  8
Graypants_Roest_75h
370
    -3
100
AcDbVertex
100
AcDb2dVertex
 10
596.7533713575731
 20
-989.6355211879883
 30
0.0
  0
VERTEX
  5
11C
330
111
100
AcDbEntity
  8
Graypants_Roest_75h
370
    -3
100
AcDbVertex
100
AcDb2dVertex
 10
597.6885739357527
 20
-990.158498355801
 30
0.0
  0
VERTEX
  5
11D
330
111
100
AcDbEntity
  8
Graypants_Roest_75h
370
    -3
100
AcDbVertex
100
AcDb2dVertex
 10
598.5433837544765
 20
-990.6553196816394
 30
0.0
  0
VERTEX
  5
11E
330
111
100
AcDbEntity
  8
Graypants_Roest_75h
370
    -3
100
AcDbVertex
100
AcDb2dVertex
 10
599.3150350323281
 20
-991.1183927556607
 30
0.0
  0
VERTEX
  5
11F
330
111
100
AcDbEntity
  8
Graypants_Roest_75h
370
    -3
100
AcDbVertex
100
AcDb2dVertex
 10
600.6005218118207
 20
-991.9188512673654
 30
0.0
  0
VERTEX
  5
120
330
111
100
AcDbEntity
  8
Graypants_Roest_75h
370
    -3
100
AcDbVertex
100
AcDb2dVertex
 10
601.99999673341
 20
-992.8284333478446
 30
0.0
  0
VERTEX
  5
121
330
111
100
AcDbEntity
  8
Graypants_Roest_75h
370
    -3
100
AcDbVertex
100
AcDb2dVertex
 10
602.0000000462448
 20
-992.8284355575954
 30
0.0
  0
SEQEND
  5
122
330
111
100
AcDbEntity
  8
Graypants_Roest_75h
370
    -3
  0
LINE
  5
123
330
1F
100
AcDbEntity
  8
Graypants_Roest_75h
370
    -3
100
AcDbLine
 10
114.2499999999792
 20
-986.5339380539451
 30
0.0
 11
114.2499999999792
 21
-992.8284355440419
 31
0.0
  0
LINE
  5
124
330
1F
100
AcDbEntity
  8
Graypants_Roest_75h
370
    -3
100
AcDbLine
 10
334.7499999999793
 20
-985.2399625313712
 30
0.0
 11
334.7499999999793
 21
-992.8284355440419
 31
0.0
  0
LINE
  5
125
330
1F
100
AcDbEntity
  8
Graypants_Roest_75h
370
    -3
100
AcDbLine
 10
321.9999999999793
 20
-985.2399625313712
 30
0.0
 11
334.7499999999793
 21
-985.2399625313712
 31
0.0
  0
LINE
  5
126
330
1F
100
AcDbEntity
  8
Graypants_Roest_75h
370
    -3
100
AcDbLine
 10
318.9999999999793
 20
-985.239962531371
 30
0.0
 11
318.9999999999793
 21
-992.8284355440419
 31
0.0
  0
LINE
  5
127
330
1F
100
AcDbEntity
  8
Graypants_Roest_75h
370
    -3
100
AcDbLine
 10
306.2499999999793
 20
-985.2399625313712
 30
0.0
 11
318.9999999999793
 21
-985.239962531371
 31
0.0
  0
LINE
  5
128
330
1F
100
AcDbEntity
  8
Graypants_Roest_75h
370
    -3
100
AcDbLine
 10
303.2499999999793
 20
-985.239962531371
 30
0.0
 11
303.2499999999793
 21
-992.8284355440419
 31
0.0
  0
LINE
  5
129
330
1F
100
AcDbEntity
  8
Graypants_Roest_75h
370
    -3
100
AcDbLine
 10
290.4999999999792
 20
-985.239962531371
 30
0.0
 11
303.2499999999793
 21
-985.239962531371
 31
0.0
  0
LINE
  5
12A
330
1F
100
AcDbEntity
  8
Graypants_Roest_75h
370
    -3
100
AcDbLine
 10
287.4999999999792
 20
-985.239962531371
 30
0.0
 11
287.4999999999792
 21
-992.8284355440419
 31
0.0
  0
LINE
  5
12B
330
1F
100
AcDbEntity
  8
Graypants_Roest_75h
370
    -3
100
AcDbLine
 10
274.7499999999792
 20
-985.239962531371
 30
0.0
 11
287.4999999999792
 21
-985.239962531371
 31
0.0
  0
LINE
  5
12C
330
1F
100
AcDbEntity
  8
Graypants_Roest_75h
370
    -3
100
AcDbLine
 10
271.7499999999792
 20
-985.2399625313708
 30
0.0
 11
271.7499999999792
 21
-992.8284355440419
 31
0.0
  0
LINE
  5
12D
330
1F
100
AcDbEntity
  8
Graypants_Roest_75h
370
    -3
100
AcDbLine
 10
258.9999999999793
 20
-985.2399625313708
 30
0.0
 11
271.7499999999792
 21
-985.2399625313708
 31
0.0
  0
LINE
  5
12E
330
1F
100
AcDbEntity
  8
Graypants_Roest_75h
370
    -3
100
AcDbLine
 10
255.9999999999792
 20
-985.2399625313708
 30
0.0
 11
255.9999999999792
 21
-992.8284355440419
 31
0.0
  0
LINE
  5
12F
330
1F
100
AcDbEntity
  8
Graypants_Roest_75h
370
    -3
100
AcDbLine
 10
243.2499999999792
 20
-985.2399625313708
 30
0.0
 11
255.9999999999792
 21
-985.2399625313708
 31
0.0
  0
LINE
  5
130
330
1F
100
AcDbEntity
  8
Graypants_Roest_75h
370
    -3
100
AcDbLine
 10
240.2499999999792
 20
-985.2399625313706
 30
0.0
 11
240.2499999999792
 21
-992.8284355440419
 31
0.0
  0
LINE
  5
131
330
1F
100
AcDbEntity
  8
Graypants_Roest_75h
370
    -3
100
AcDbLine
 10
227.4999999999792
 20
-985.2399625313706
 30
0.0
 11
240.2499999999792
 21
-985.2399625313706
 31
0.0
  0
LINE
  5
132
330
1F
100
AcDbEntity
  8
Graypants_Roest_75h
370
    -3
100
AcDbLine
 10
224.4999999999792
 20
-985.2399625313706
 30
0.0
 11
224.4999999999792
 21
-992.8284355440419
 31
0.0
  0
LINE
  5
133
330
1F
100
AcDbEntity
  8
Graypants_Roest_75h
370
    -3
100
AcDbLine
 10
211.7499999999792
 20
-985.2399625313706
 30
0.0
 11
224.4999999999792
 21
-985.2399625313706
 31
0.0
  0
LINE
  5
134
330
1F
100
AcDbEntity
  8
Graypants_Roest_75h
370
    -3
100
AcDbLine
 10
208.7499999999792
 20
-985.2399625313706
 30
0.0
 11
208.7499999999792
 21
-992.8284355440419
 31
0.0
  0
LINE
  5
135
330
1F
100
AcDbEntity
  8
Graypants_Roest_75h
370
    -3
100
AcDbLine
 10
195.9999999999793
 20
-985.2399625313706
 30
0.0
 11
208.7499999999792
 21
-985.2399625313706
 31
0.0
  0
LINE
  5
136
330
1F
100
AcDbEntity
  8
Graypants_Roest_75h
370
    -3
100
AcDbLine
 10
192.9999999999792
 20
-985.2399625313703
 30
0.0
 11
192.9999999999792
 21
-992.8284355440419
 31
0.0
  0
LINE
  5
137
330
1F
100
AcDbEntity
  8
Graypants_Roest_75h
370
    -3
100
AcDbLine
 10
180.2499999999792
 20
-985.2399625313703
 30
0.0
 11
192.9999999999792
 21
-985.2399625313703
 31
0.0
  0
LINE
  5
138
330
1F
100
AcDbEntity
  8
Graypants_Roest_75h
370
    -3
100
AcDbLine
 10
177.2499999999792
 20
-985.2399625313703
 30
0.0
 11
177.2499999999792
 21
-992.8284355440419
 31
0.0
  0
LINE
  5
139
330
1F
100
AcDbEntity
  8
Graypants_Roest_75h
370
    -3
100
AcDbLine
 10
164.4999999999792
 20
-985.2399625313703
 30
0.0
 11
177.2499999999792
 21
-985.2399625313703
 31
0.0
  0
LINE
  5
13A
330
1F
100
AcDbEntity
  8
Graypants_Roest_75h
370
    -3
100
AcDbLine
 10
161.4999999999792
 20
-985.2399625313701
 30
0.0
 11
161.4999999999792
 21
-992.8284355440419
 31
0.0
  0
LINE
  5
13B
330
1F
100
AcDbEntity
  8
Graypants_Roest_75h
370
    -3
100
AcDbLine
 10
148.7499999999792
 20
-985.2399625313701
 30
0.0
 11
161.4999999999792
 21
-985.2399625313701
 31
0.0
  0
LINE
  5
13C
330
1F
100
AcDbEntity
  8
Graypants_Roest_75h
370
    -3
100
AcDbLine
 10
145.7499999999792
 20
-985.2399625313701
 30
0.0
 11
145.7499999999792
 21
-992.8284355440419
 31
0.0
  0
LINE
  5
13D
330
1F
100
AcDbEntity
  8
Graypants_Roest_75h
370
    -3
100
AcDbLine
 10
132.9999999999793
 20
-985.2399625313701
 30
0.0
 11
145.7499999999792
 21
-985.2399625313701
 31
0.0
  0
LINE
  5
13E
330
1F
100
AcDbEntity
  8
Graypants_Roest_75h
370
    -3
100
AcDbLine
 10
586.7499999999793
 20
-985.7345627123241
 30
0.0
 11
586.7499999999793
 21
-992.8284355440419
 31
0.0
  0
LINE
  5
13F
330
1F
100
AcDbEntity
  8
Graypants_Roest_75h
370
    -3
100
AcDbLine
 10
353.4999999999793
 20
-985.2399625313715
 30
0.0
 11
366.2499999999793
 21
-985.2399625313715
 31
0.0
  0
LINE
  5
140
330
1F
100
AcDbEntity
  8
Graypants_Roest_75h
370
    -3
100
AcDbLine
 10
366.2499999999793
 20
-985.2399625313715
 30
0.0
 11
366.2499999999793
 21
-992.8284355440419
 31
0.0
  0
LINE
  5
141
330
1F
100
AcDbEntity
  8
Graypants_Roest_75h
370
    -3
100
AcDbLine
 10
369.2499999999793
 20
-985.2399625313712
 30
0.0
 11
381.9999999999793
 21
-985.2399625313712
 31
0.0
  0
LINE
  5
142
330
1F
100
AcDbEntity
  8
Graypants_Roest_75h
370
    -3
100
AcDbLine
 10
381.9999999999793
 20
-985.2399625313712
 30
0.0
 11
381.9999999999793
 21
-992.8284355440419
 31
0.0
  0
LINE
  5
143
330
1F
100
AcDbEntity
  8
Graypants_Roest_75h
370
    -3
100
AcDbLine
 10
400.7499999999793
 20
-985.239962531371
 30
0.0
 11
413.4999999999793
 21
-985.239962531371
 31
0.0
  0
LINE
  5
144
330
1F
100
AcDbEntity
  8
Graypants_Roest_75h
370
    -3
100
AcDbLine
 10
413.4999999999793
 20
-985.239962531371
 30
0.0
 11
413.4999999999793
 21
-992.8284355440419
 31
0.0
  0
LINE
  5
145
330
1F
100
AcDbEntity
  8
Graypants_Roest_75h
370
    -3
100
AcDbLine
 10
384.9999999999793
 20
-985.2399625313712
 30
0.0
 11
397.7499999999793
 21
-985.239962531371
 31
0.0
  0
LINE
  5
146
330
1F
100
AcDbEntity
  8
Graypants_Roest_75h
370
    -3
100
AcDbLine
 10
397.7499999999793
 20
-985.239962531371
 30
0.0
 11
397.7499999999793
 21
-992.8284355440419
 31
0.0
  0
LINE
  5
147
330
1F
100
AcDbEntity
  8
Graypants_Roest_75h
370
    -3
100
AcDbLine
 10
432.2499999999793
 20
-985.2399625313708
 30
0.0
 11
444.9999999999793
 21
-985.2399625313708
 31
0.0
  0
LINE
  5
148
330
1F
100
AcDbEntity
  8
Graypants_Roest_75h
370
    -3
100
AcDbLine
 10
444.9999999999793
 20
-985.2399625313708
 30
0.0
 11
444.9999999999793
 21
-992.8284355440419
 31
0.0
  0
LINE
  5
149
330
1F
100
AcDbEntity
  8
Graypants_Roest_75h
370
    -3
100
AcDbLine
 10
416.4999999999793
 20
-985.239962531371
 30
0.0
 11
429.2499999999793
 21
-985.239962531371
 31
0.0
  0
LINE
  5
14A
330
1F
100
AcDbEntity
  8
Graypants_Roest_75h
370
    -3
100
AcDbLine
 10
429.2499999999793
 20
-985.239962531371
 30
0.0
 11
429.2499999999793
 21
-992.8284355440419
 31
0.0
  0
LINE
  5
14B
330
1F
100
AcDbEntity
  8
Graypants_Roest_75h
370
    -3
100
AcDbLine
 10
447.9999999999793
 20
-985.2399625313708
 30
0.0
 11
460.7499999999793
 21
-985.2399625313708
 31
0.0
  0
LINE
  5
14C
330
1F
100
AcDbEntity
  8
Graypants_Roest_75h
370
    -3
100
AcDbLine
 10
460.7499999999793
 20
-985.2399625313708
 30
0.0
 11
460.7499999999793
 21
-992.8284355440419
 31
0.0
  0
LINE
  5
14D
330
1F
100
AcDbEntity
  8
Graypants_Roest_75h
370
    -3
100
AcDbLine
 10
463.7499999999793
 20
-985.2399625313706
 30
0.0
 11
476.4999999999793
 21
-985.2399625313706
 31
0.0
  0
LINE
  5
14E
330
1F
100
AcDbEntity
  8
Graypants_Roest_75h
370
    -3
100
AcDbLine
 10
476.4999999999793
 20
-985.2399625313706
 30
0.0
 11
476.4999999999793
 21
-992.8284355440419
 31
0.0
  0
LINE
  5
14F
330
1F
100
AcDbEntity
  8
Graypants_Roest_75h
370
    -3
100
AcDbLine
 10
479.4999999999793
 20
-985.2399625313706
 30
0.0
 11
492.2499999999793
 21
-985.2399625313706
 31
0.0
  0
LINE
  5
150
330
1F
100
AcDbEntity
  8
Graypants_Roest_75h
370
    -3
100
AcDbLine
 10
492.2499999999793
 20
-985.2399625313706
 30
0.0
 11
492.2499999999793
 21
-992.8284355440419
 31
0.0
  0
LINE
  5
151
330
1F
100
AcDbEntity
  8
Graypants_Roest_75h
370
    -3
100
AcDbLine
 10
495.2499999999793
 20
-985.2399625313706
 30
0.0
 11
507.9999999999791
 21
-985.2399625313706
 31
0.0
  0
LINE
  5
152
330
1F
100
AcDbEntity
  8
Graypants_Roest_75h
370
    -3
100
AcDbLine
 10
507.9999999999791
 20
-985.2399625313706
 30
0.0
 11
507.9999999999793
 21
-992.8284355440419
 31
0.0
  0
LINE
  5
153
330
1F
100
AcDbEntity
  8
Graypants_Roest_75h
370
    -3
100
AcDbLine
 10
510.9999999999793
 20
-985.2399625313703
 30
0.0
 11
523.7499999999793
 21
-985.2399625313703
 31
0.0
  0
LINE
  5
154
330
1F
100
AcDbEntity
  8
Graypants_Roest_75h
370
    -3
100
AcDbLine
 10
523.7499999999793
 20
-985.2399625313703
 30
0.0
 11
523.7499999999793
 21
-992.8284355440419
 31
0.0
  0
LINE
  5
155
330
1F
100
AcDbEntity
  8
Graypants_Roest_75h
370
    -3
100
AcDbLine
 10
526.7499999999793
 20
-985.2399625313703
 30
0.0
 11
539.4999999999793
 21
-985.2399625313703
 31
0.0
  0
LINE
  5
156
330
1F
100
AcDbEntity
  8
Graypants_Roest_75h
370
    -3
100
AcDbLine
 10
539.4999999999793
 20
-985.2399625313703
 30
0.0
 11
539.4999999999793
 21
-992.8284355440419
 31
0.0
  0
LINE
  5
157
330
1F
100
AcDbEntity
  8
Graypants_Roest_75h
370
    -3
100
AcDbLine
 10
542.4999999999793
 20
-985.2399625313701
 30
0.0
 11
555.2499999999793
 21
-985.2399625313701
 31
0.0
  0
LINE
  5
158
330
1F
100
AcDbEntity
  8
Graypants_Roest_75h
370
    -3
100
AcDbLine
 10
555.2499999999793
 20
-985.2399625313701
 30
0.0
 11
555.2499999999793
 21
-992.8284355440419
 31
0.0
  0
LINE
  5
159
330
1F
100
AcDbEntity
  8
Graypants_Roest_75h
370
    -3
100
AcDbLine
 10
558.2499999999791
 20
-985.2399625313701
 30
0.0
 11
570.9999999999791
 21
-985.2399625313701
 31
0.0
  0
LINE
  5
15A
330
1F
100
AcDbEntity
  8
Graypants_Roest_75h
370
    -3
100
AcDbLine
 10
570.9999999999791
 20
-985.2399625313701
 30
0.0
 11
570.9999999999793
 21
-992.8284355440419
 31
0.0
  0
LINE
  5
15B
330
1F
100
AcDbEntity
  8
Graypants_Roest_75h
370
    -3
100
AcDbLine
 10
-23.00000000002069
 20
-962.6784355436571
 30
0.0
 11
-23.00000000002069
 21
-932.5284355436572
 31
0.0
  0
CIRCLE
  5
15D
330
1F
100
AcDbEntity
  8
Graypants_Roest_75h
  6
Hidden
100
AcDbCircle
 10
0.0
 20
0.0
 30
0.0
 40
77.78749999993249
  0
LINE
  5
15E
330
1F
100
AcDbEntity
  8
Graypants_Roest_75h
 62
    36
420
  8339200
370
    -3
100
AcDbLine
 10
-0.0000000000204636
 20
-323.545023855353
 30
0.0
 11
-76.35874999928399
 21
-323.5450238572868
 31
0.0
  0
LINE
  5
15F
330
1F
100
AcDbEntity
  8
Graypants_Roest_75h
 62
    36
420
  8339200
370
    -3
100
AcDbLine
 10
-0.0000000000204636
 20
-291.7950238553083
 30
0.0
 11
-77.78749999995296
 21
-291.7950238572784
 31
0.0
  0
POLYLINE
  5
160
330
1F
100
AcDbEntity
  8
Graypants_Roest_75h
 62
    36
420
  8339200
370
    -3
100
AcDb2dPolyline
 66
     1
 10
0.0
 20
0.0
 30
0.0
  0
VERTEX
  5
161
330
160
100
AcDbEntity
  8
Graypants_Roest_75h
 62
    36
420
  8339200
370
    -3
100
AcDbVertex
100
AcDb2dVertex
 10
-76.35874999928456
 20
-323.5450238572877
 30
0.0
  0
VERTEX
  5
162
330
160
100
AcDbEntity
  8
Graypants_Roest_75h
 62
    36
420
  8339200
370
    -3
100
AcDbVertex
100
AcDb2dVertex
 10
-76.40752911046275
 20
-323.5441909279944
 30
0.0
  0
VERTEX
  5
163
330
160
100
AcDbEntity
  8
Graypants_Roest_75h
 62
    36
420
  8339200
370
    -3
100
AcDbVertex
100
AcDb2dVertex
 10
-76.45625134737936
 20
-323.5416931112708
 30
0.0
  0
VERTEX
  5
164
330
160
100
AcDbEntity
  8
Graypants_Roest_75h
 62
    36
420
  8339200
370
    -3
100
AcDbVertex
100
AcDb2dVertex
 10
-76.50485990208558
 20
-323.5375333194594
 30
0.0
  0
VERTEX
  5
165
330
160
100
AcDbEntity
  8
Graypants_Roest_75h
 62
    36
420
  8339200
370
    -3
100
AcDbVertex
100
AcDb2dVertex
 10
-76.55329809918103
 20
-323.5317164026913
 30
0.0
  0
VERTEX
  5
166
330
160
100
AcDbEntity
  8
Graypants_Roest_75h
 62
    36
420
  8339200
370
    -3
100
AcDbVertex
100
AcDb2dVertex
 10
-76.60150946189462
 20
-323.5242491432314
 30
0.0
  0
VERTEX
  5
167
330
160
100
AcDbEntity
  8
Graypants_Roest_75h
 62
    36
420
  8339200
370
    -3
100
AcDbVertex
100
AcDb2dVertex
 10
-76.64943777793404
 20
-323.5151402475701
 30
0.0
  0
VERTEX
  5
168
330
160
100
AcDbEntity
  8
Graypants_Roest_75h
 62
    36
420
  8339200
370
    -3
100
AcDbVertex
100
AcDb2dVertex
 10
-76.69702716502674
 20
-323.5044003362723
 30
0.0
  0
VERTEX
  5
169
330
160
100
AcDbEntity
  8
Graypants_Roest_75h
 62
    36
420
  8339200
370
    -3
100
AcDbVertex
100
AcDb2dVertex
 10
-76.74422213607616
 20
-323.4920419315942
 30
0.0
  0
VERTEX
  5
16A
330
160
100
AcDbEntity
  8
Graypants_Roest_75h
 62
    36
420
  8339200
370
    -3
100
AcDbVertex
100
AcDb2dVertex
 10
-76.79096766385717
 20
-323.4780794428827
 30
0.0
  0
VERTEX
  5
16B
330
160
100
AcDbEntity
  8
Graypants_Roest_75h
 62
    36
420
  8339200
370
    -3
100
AcDbVertex
100
AcDb2dVertex
 10
-76.83720924517544
 20
-323.4625291497753
 30
0.0
  0
VERTEX
  5
16C
330
160
100
AcDbEntity
  8
Graypants_Roest_75h
 62
    36
420
  8339200
370
    -3
100
AcDbVertex
100
AcDb2dVertex
 10
-76.88289296441566
 20
-323.4454091832179
 30
0.0
  0
VERTEX
  5
16D
330
160
100
AcDbEntity
  8
Graypants_Roest_75h
 62
    36
420
  8339200
370
    -3
100
AcDbVertex
100
AcDb2dVertex
 10
-76.92796555640471
 20
-323.4267395043259
 30
0.0
  0
VERTEX
  5
16E
330
160
100
AcDbEntity
  8
Graypants_Roest_75h
 62
    36
420
  8339200
370
    -3
100
AcDbVertex
100
AcDb2dVertex
 10
-76.97237446851653
 20
-323.4065418811097
 30
0.0
  0
VERTEX
  5
16F
330
160
100
AcDbEntity
  8
Graypants_Roest_75h
 62
    36
420
  8339200
370
    -3
100
AcDbVertex
100
AcDb2dVertex
 10
-77.01606792194615
 20
-323.3848398630943
 30
0.0
  0
VERTEX
  5
170
330
160
100
AcDbEntity
  8
Graypants_Roest_75h
 62
    36
420
  8339200
370
    -3
100
AcDbVertex
100
AcDb2dVertex
 10
-77.05899497208135
 20
-323.3616587538621
 30
0.0
  0
VERTEX
  5
171
330
160
100
AcDbEntity
  8
Graypants_Roest_75h
 62
    36
420
  8339200
370
    -3
100
AcDbVertex
100
AcDb2dVertex
 10
-77.1011055679019
 20
-323.3370255815495
 30
0.0
  0
VERTEX
  5
172
330
160
100
AcDbEntity
  8
Graypants_Roest_75h
 62
    36
420
  8339200
370
    -3
100
AcDbVertex
100
AcDb2dVertex
 10
-77.14235061033678
 20
-323.3109690673336
 30
0.0
  0
VERTEX
  5
173
330
160
100
AcDbEntity
  8
Graypants_Roest_75h
 62
    36
420
  8339200
370
    -3
100
AcDbVertex
100
AcDb2dVertex
 10
-77.18268200951151
 20
-323.2835195919442
 30
0.0
  0
VERTEX
  5
174
330
160
100
AcDbEntity
  8
Graypants_Roest_75h
 62
    36
420
  8339200
370
    -3
100
AcDbVertex
100
AcDb2dVertex
 10
-77.22205274081877
 20
-323.2547091602419
 30
0.0
  0
VERTEX
  5
175
330
160
100
AcDbEntity
  8
Graypants_Roest_75h
 62
    36
420
  8339200
370
    -3
100
AcDbVertex
100
AcDb2dVertex
 10
-77.260416899747
 20
-323.2245713639012
 30
0.0
  0
VERTEX
  5
176
330
160
100
AcDbEntity
  8
Graypants_Roest_75h
 62
    36
420
  8339200
370
    -3
100
AcDbVertex
100
AcDb2dVertex
 10
-77.297729755403
 20
-323.1931413422445
 30
0.0
  0
VERTEX
  5
177
330
160
100
AcDbEntity
  8
Graypants_Roest_75h
 62
    36
420
  8339200
370
    -3
100
AcDbVertex
100
AcDb2dVertex
 10
-77.33394780266616
 20
-323.1604557412713
 30
0.0
  0
VERTEX
  5
178
330
160
100
AcDbEntity
  8
Graypants_Roest_75h
 62
    36
420
  8339200
370
    -3
100
AcDbVertex
100
AcDb2dVertex
 10
-77.36902881291351
 20
-323.1265526709299
 30
0.0
  0
VERTEX
  5
179
330
160
100
AcDbEntity
  8
Graypants_Roest_75h
 62
    36
420
  8339200
370
    -3
100
AcDbVertex
100
AcDb2dVertex
 10
-77.40293188325636
 20
-323.091471660684
 30
0.0
  0
VERTEX
  5
17A
330
160
100
AcDbEntity
  8
Graypants_Roest_75h
 62
    36
420
  8339200
370
    -3
100
AcDbVertex
100
AcDb2dVertex
 10
-77.43561748423123
 20
-323.0552536134223
 30
0.0
  0
VERTEX
  5
17B
330
160
100
AcDbEntity
  8
Graypants_Roest_75h
 62
    36
420
  8339200
370
    -3
100
AcDbVertex
100
AcDb2dVertex
 10
-77.46704750588951
 20
-323.0179407577677
 30
0.0
  0
VERTEX
  5
17C
330
160
100
AcDbEntity
  8
Graypants_Roest_75h
 62
    36
420
  8339200
370
    -3
100
AcDbVertex
100
AcDb2dVertex
 10
-77.49718530223187
 20
-322.9795765988408
 30
0.0
  0
VERTEX
  5
17D
330
160
100
AcDbEntity
  8
Graypants_Roest_75h
 62
    36
420
  8339200
370
    -3
100
AcDbVertex
100
AcDb2dVertex
 10
-77.52599573393591
 20
-322.9402058675348
 30
0.0
  0
VERTEX
  5
17E
330
160
100
AcDbEntity
  8
Graypants_Roest_75h
 62
    36
420
  8339200
370
    -3
100
AcDbVertex
100
AcDb2dVertex
 10
-77.55344520932704
 20
-322.8998744683612
 30
0.0
  0
VERTEX
  5
17F
330
160
100
AcDbEntity
  8
Graypants_Roest_75h
 62
    36
420
  8339200
370
    -3
100
AcDbVertex
100
AcDb2dVertex
 10
-77.57950172354481
 20
-322.8586294259275
 30
0.0
  0
VERTEX
  5
180
330
160
100
AcDbEntity
  8
Graypants_Roest_75h
 62
    36
420
  8339200
370
    -3
100
AcDbVertex
100
AcDb2dVertex
 10
-77.60413489585922
 20
-322.816518830108
 30
0.0
  0
VERTEX
  5
181
330
160
100
AcDbEntity
  8
Graypants_Roest_75h
 62
    36
420
  8339200
370
    -3
100
AcDbVertex
100
AcDb2dVertex
 10
-77.62731600509325
 20
-322.7735917799738
 30
0.0
  0
VERTEX
  5
182
330
160
100
AcDbEntity
  8
Graypants_Roest_75h
 62
    36
420
  8339200
370
    -3
100
AcDbVertex
100
AcDb2dVertex
 10
-77.64901802311047
 20
-322.7298983265451
 30
0.0
  0
VERTEX
  5
183
330
160
100
AcDbEntity
  8
Graypants_Roest_75h
 62
    36
420
  8339200
370
    -3
100
AcDbVertex
100
AcDb2dVertex
 10
-77.66921564632868
 20
-322.6854894144342
 30
0.0
  0
VERTEX
  5
184
330
160
100
AcDbEntity
  8
Graypants_Roest_75h
 62
    36
420
  8339200
370
    -3
100
AcDbVertex
100
AcDb2dVertex
 10
-77.68788532522268
 20
-322.640416822446
 30
0.0
  0
VERTEX
  5
185
330
160
100
AcDbEntity
  8
Graypants_Roest_75h
 62
    36
420
  8339200
370
    -3
100
AcDbVertex
100
AcDb2dVertex
 10
-77.70500529178203
 20
-322.5947331032065
 30
0.0
  0
VERTEX
  5
186
330
160
100
AcDbEntity
  8
Graypants_Roest_75h
 62
    36
420
  8339200
370
    -3
100
AcDbVertex
100
AcDb2dVertex
 10
-77.7205555848915
 20
-322.5484915218889
 30
0.0
  0
VERTEX
  5
187
330
160
100
AcDbEntity
  8
Graypants_Roest_75h
 62
    36
420
  8339200
370
    -3
100
AcDbVertex
100
AcDb2dVertex
 10
-77.73451807360495
 20
-322.5017459941085
 30
0.0
  0
VERTEX
  5
188
330
160
100
AcDbEntity
  8
Graypants_Roest_75h
 62
    36
420
  8339200
370
    -3
100
AcDbVertex
100
AcDb2dVertex
 10
-77.74687647828513
 20
-322.4545510230596
 30
0.0
  0
VERTEX
  5
189
330
160
100
AcDbEntity
  8
Graypants_Roest_75h
 62
    36
420
  8339200
370
    -3
100
AcDbVertex
100
AcDb2dVertex
 10
-77.757616389585
 20
-322.4069616359674
 30
0.0
  0
VERTEX
  5
18A
330
160
100
AcDbEntity
  8
Graypants_Roest_75h
 62
    36
420
  8339200
370
    -3
100
AcDbVertex
100
AcDb2dVertex
 10
-77.76672528524837
 20
-322.3590333199284
 30
0.0
  0
VERTEX
  5
18B
330
160
100
AcDbEntity
  8
Graypants_Roest_75h
 62
    36
420
  8339200
370
    -3
100
AcDbVertex
100
AcDb2dVertex
 10
-77.7741925447104
 20
-322.3108219572151
 30
0.0
  0
VERTEX
  5
18C
330
160
100
AcDbEntity
  8
Graypants_Roest_75h
 62
    36
420
  8339200
370
    -3
100
AcDbVertex
100
AcDb2dVertex
 10
-77.78000946148056
 20
-322.2623837601199
 30
0.0
  0
VERTEX
  5
18D
330
160
100
AcDbEntity
  8
Graypants_Roest_75h
 62
    36
420
  8339200
370
    -3
100
AcDbVertex
100
AcDb2dVertex
 10
-77.78416925329411
 20
-322.2137752054139
 30
0.0
  0
VERTEX
  5
18E
330
160
100
AcDbEntity
  8
Graypants_Roest_75h
 62
    36
420
  8339200
370
    -3
100
AcDbVertex
100
AcDb2dVertex
 10
-77.78666707001989
 20
-322.1650529684974
 30
0.0
  0
VERTEX
  5
18F
330
160
100
AcDbEntity
  8
Graypants_Roest_75h
 62
    36
420
  8339200
370
    -3
100
AcDbVertex
100
AcDb2dVertex
 10
-77.78749999931529
 20
-322.1162738573192
 30
0.0
  0
VERTEX
  5
190
330
160
100
AcDbEntity
  8
Graypants_Roest_75h
 62
    36
420
  8339200
370
    -3
100
AcDbVertex
100
AcDb2dVertex
 10
-77.78749999995352
 20
-291.7950238572792
 30
0.0
  0
SEQEND
  5
191
330
160
100
AcDbEntity
  8
Graypants_Roest_75h
 62
    36
420
  8339200
370
    -3
  0
LINE
  5
192
330
1F
100
AcDbEntity
  8
Graypants_Roest_75h
 62
    36
420
  8339200
370
    -3
100
AcDbLine
 10
77.78749999991203
 20
-291.7950238572784
 30
0.0
 11
-0.0000000000204636
 21
-291.7950238553083
 31
0.0
  0
POLYLINE
  5
193
330
1F
100
AcDbEntity
  8
Graypants_Roest_75h
 62
    36
420
  8339200
370
    -3
100
AcDb2dPolyline
 66
     1
 10
0.0
 20
0.0
 30
0.0
  0
VERTEX
  5
194
330
193
100
AcDbEntity
  8
Graypants_Roest_75h
 62
    36
420
  8339200
370
    -3
100
AcDbVertex
100
AcDb2dVertex
 10
77.7874999999126
 20
-291.7950238572792
 30
0.0
  0
VERTEX
  5
195
330
193
100
AcDbEntity
  8
Graypants_Roest_75h
 62
    36
420
  8339200
370
    -3
100
AcDbVertex
100
AcDb2dVertex
 10
77.78749999927436
 20
-322.1162738573192
 30
0.0
  0
VERTEX
  5
196
330
193
100
AcDbEntity
  8
Graypants_Roest_75h
 62
    36
420
  8339200
370
    -3
100
AcDbVertex
100
AcDb2dVertex
 10
77.78666706997895
 20
-322.1650529684974
 30
0.0
  0
VERTEX
  5
197
330
193
100
AcDbEntity
  8
Graypants_Roest_75h
 62
    36
420
  8339200
370
    -3
100
AcDbVertex
100
AcDb2dVertex
 10
77.78416925325318
 20
-322.2137752054139
 30
0.0
  0
VERTEX
  5
198
330
193
100
AcDbEntity
  8
Graypants_Roest_75h
 62
    36
420
  8339200
370
    -3
100
AcDbVertex
100
AcDb2dVertex
 10
77.78000946143965
 20
-322.2623837601199
 30
0.0
  0
VERTEX
  5
199
330
193
100
AcDbEntity
  8
Graypants_Roest_75h
 62
    36
420
  8339200
370
    -3
100
AcDbVertex
100
AcDb2dVertex
 10
77.77419254466948
 20
-322.3108219572151
 30
0.0
  0
VERTEX
  5
19A
330
193
100
AcDbEntity
  8
Graypants_Roest_75h
 62
    36
420
  8339200
370
    -3
100
AcDbVertex
100
AcDb2dVertex
 10
77.76672528520746
 20
-322.3590333199284
 30
0.0
  0
VERTEX
  5
19B
330
193
100
AcDbEntity
  8
Graypants_Roest_75h
 62
    36
420
  8339200
370
    -3
100
AcDbVertex
100
AcDb2dVertex
 10
77.75761638954408
 20
-322.4069616359674
 30
0.0
  0
VERTEX
  5
19C
330
193
100
AcDbEntity
  8
Graypants_Roest_75h
 62
    36
420
  8339200
370
    -3
100
AcDbVertex
100
AcDb2dVertex
 10
77.74687647824422
 20
-322.4545510230596
 30
0.0
  0
VERTEX
  5
19D
330
193
100
AcDbEntity
  8
Graypants_Roest_75h
 62
    36
420
  8339200
370
    -3
100
AcDbVertex
100
AcDb2dVertex
 10
77.73451807356405
 20
-322.5017459941084
 30
0.0
  0
VERTEX
  5
19E
330
193
100
AcDbEntity
  8
Graypants_Roest_75h
 62
    36
420
  8339200
370
    -3
100
AcDbVertex
100
AcDb2dVertex
 10
77.72055558485059
 20
-322.5484915218889
 30
0.0
  0
VERTEX
  5
19F
330
193
100
AcDbEntity
  8
Graypants_Roest_75h
 62
    36
420
  8339200
370
    -3
100
AcDbVertex
100
AcDb2dVertex
 10
77.7050052917411
 20
-322.5947331032065
 30
0.0
  0
VERTEX
  5
1A0
330
193
100
AcDbEntity
  8
Graypants_Roest_75h
 62
    36
420
  8339200
370
    -3
100
AcDbVertex
100
AcDb2dVertex
 10
77.68788532518177
 20
-322.640416822446
 30
0.0
  0
VERTEX
  5
1A1
330
193
100
AcDbEntity
  8
Graypants_Roest_75h
 62
    36
420
  8339200
370
    -3
100
AcDbVertex
100
AcDb2dVertex
 10
77.66921564628778
 20
-322.6854894144342
 30
0.0
  0
VERTEX
  5
1A2
330
193
100
AcDbEntity
  8
Graypants_Roest_75h
 62
    36
420
  8339200
370
    -3
100
AcDbVertex
100
AcDb2dVertex
 10
77.64901802306957
 20
-322.7298983265451
 30
0.0
  0
VERTEX
  5
1A3
330
193
100
AcDbEntity
  8
Graypants_Roest_75h
 62
    36
420
  8339200
370
    -3
100
AcDbVertex
100
AcDb2dVertex
 10
77.62731600505234
 20
-322.7735917799739
 30
0.0
  0
VERTEX
  5
1A4
330
193
100
AcDbEntity
  8
Graypants_Roest_75h
 62
    36
420
  8339200
370
    -3
100
AcDbVertex
100
AcDb2dVertex
 10
77.6041348958183
 20
-322.816518830108
 30
0.0
  0
VERTEX
  5
1A5
330
193
100
AcDbEntity
  8
Graypants_Roest_75h
 62
    36
420
  8339200
370
    -3
100
AcDbVertex
100
AcDb2dVertex
 10
77.5795017235039
 20
-322.8586294259275
 30
0.0
  0
VERTEX
  5
1A6
330
193
100
AcDbEntity
  8
Graypants_Roest_75h
 62
    36
420
  8339200
370
    -3
100
AcDbVertex
100
AcDb2dVertex
 10
77.55344520928612
 20
-322.8998744683612
 30
0.0
  0
VERTEX
  5
1A7
330
193
100
AcDbEntity
  8
Graypants_Roest_75h
 62
    36
420
  8339200
370
    -3
100
AcDbVertex
100
AcDb2dVertex
 10
77.525995733895
 20
-322.9402058675348
 30
0.0
  0
VERTEX
  5
1A8
330
193
100
AcDbEntity
  8
Graypants_Roest_75h
 62
    36
420
  8339200
370
    -3
100
AcDbVertex
100
AcDb2dVertex
 10
77.49718530219096
 20
-322.9795765988408
 30
0.0
  0
VERTEX
  5
1A9
330
193
100
AcDbEntity
  8
Graypants_Roest_75h
 62
    36
420
  8339200
370
    -3
100
AcDbVertex
100
AcDb2dVertex
 10
77.4670475058486
 20
-323.0179407577677
 30
0.0
  0
VERTEX
  5
1AA
330
193
100
AcDbEntity
  8
Graypants_Roest_75h
 62
    36
420
  8339200
370
    -3
100
AcDbVertex
100
AcDb2dVertex
 10
77.43561748419032
 20
-323.0552536134223
 30
0.0
  0
VERTEX
  5
1AB
330
193
100
AcDbEntity
  8
Graypants_Roest_75h
 62
    36
420
  8339200
370
    -3
100
AcDbVertex
100
AcDb2dVertex
 10
77.40293188321544
 20
-323.0914716606841
 30
0.0
  0
VERTEX
  5
1AC
330
193
100
AcDbEntity
  8
Graypants_Roest_75h
 62
    36
420
  8339200
370
    -3
100
AcDbVertex
100
AcDb2dVertex
 10
77.3690288128726
 20
-323.1265526709299
 30
0.0
  0
VERTEX
  5
1AD
330
193
100
AcDbEntity
  8
Graypants_Roest_75h
 62
    36
420
  8339200
370
    -3
100
AcDbVertex
100
AcDb2dVertex
 10
77.33394780262526
 20
-323.1604557412712
 30
0.0
  0
VERTEX
  5
1AE
330
193
100
AcDbEntity
  8
Graypants_Roest_75h
 62
    36
420
  8339200
370
    -3
100
AcDbVertex
100
AcDb2dVertex
 10
77.29772975536208
 20
-323.1931413422445
 30
0.0
  0
VERTEX
  5
1AF
330
193
100
AcDbEntity
  8
Graypants_Roest_75h
 62
    36
420
  8339200
370
    -3
100
AcDbVertex
100
AcDb2dVertex
 10
77.26041689970609
 20
-323.2245713639012
 30
0.0
  0
VERTEX
  5
1B0
330
193
100
AcDbEntity
  8
Graypants_Roest_75h
 62
    36
420
  8339200
370
    -3
100
AcDbVertex
100
AcDb2dVertex
 10
77.22205274077787
 20
-323.2547091602419
 30
0.0
  0
VERTEX
  5
1B1
330
193
100
AcDbEntity
  8
Graypants_Roest_75h
 62
    36
420
  8339200
370
    -3
100
AcDbVertex
100
AcDb2dVertex
 10
77.1826820094706
 20
-323.2835195919442
 30
0.0
  0
VERTEX
  5
1B2
330
193
100
AcDbEntity
  8
Graypants_Roest_75h
 62
    36
420
  8339200
370
    -3
100
AcDbVertex
100
AcDb2dVertex
 10
77.14235061029586
 20
-323.3109690673336
 30
0.0
  0
VERTEX
  5
1B3
330
193
100
AcDbEntity
  8
Graypants_Roest_75h
 62
    36
420
  8339200
370
    -3
100
AcDbVertex
100
AcDb2dVertex
 10
77.10110556786098
 20
-323.3370255815496
 30
0.0
  0
VERTEX
  5
1B4
330
193
100
AcDbEntity
  8
Graypants_Roest_75h
 62
    36
420
  8339200
370
    -3
100
AcDbVertex
100
AcDb2dVertex
 10
77.05899497204042
 20
-323.3616587538622
 30
0.0
  0
VERTEX
  5
1B5
330
193
100
AcDbEntity
  8
Graypants_Roest_75h
 62
    36
420
  8339200
370
    -3
100
AcDbVertex
100
AcDb2dVertex
 10
77.01606792190523
 20
-323.3848398630943
 30
0.0
  0
VERTEX
  5
1B6
330
193
100
AcDbEntity
  8
Graypants_Roest_75h
 62
    36
420
  8339200
370
    -3
100
AcDbVertex
100
AcDb2dVertex
 10
76.97237446847564
 20
-323.4065418811097
 30
0.0
  0
VERTEX
  5
1B7
330
193
100
AcDbEntity
  8
Graypants_Roest_75h
 62
    36
420
  8339200
370
    -3
100
AcDbVertex
100
AcDb2dVertex
 10
76.92796555636379
 20
-323.426739504326
 30
0.0
  0
VERTEX
  5
1B8
330
193
100
AcDbEntity
  8
Graypants_Roest_75h
 62
    36
420
  8339200
370
    -3
100
AcDbVertex
100
AcDb2dVertex
 10
76.88289296437475
 20
-323.445409183218
 30
0.0
  0
VERTEX
  5
1B9
330
193
100
AcDbEntity
  8
Graypants_Roest_75h
 62
    36
420
  8339200
370
    -3
100
AcDbVertex
100
AcDb2dVertex
 10
76.83720924513453
 20
-323.4625291497753
 30
0.0
  0
VERTEX
  5
1BA
330
193
100
AcDbEntity
  8
Graypants_Roest_75h
 62
    36
420
  8339200
370
    -3
100
AcDbVertex
100
AcDb2dVertex
 10
76.79096766381625
 20
-323.4780794428827
 30
0.0
  0
VERTEX
  5
1BB
330
193
100
AcDbEntity
  8
Graypants_Roest_75h
 62
    36
420
  8339200
370
    -3
100
AcDbVertex
100
AcDb2dVertex
 10
76.74422213603522
 20
-323.4920419315942
 30
0.0
  0
VERTEX
  5
1BC
330
193
100
AcDbEntity
  8
Graypants_Roest_75h
 62
    36
420
  8339200
370
    -3
100
AcDbVertex
100
AcDb2dVertex
 10
76.69702716498581
 20
-323.5044003362723
 30
0.0
  0
VERTEX
  5
1BD
330
193
100
AcDbEntity
  8
Graypants_Roest_75h
 62
    36
420
  8339200
370
    -3
100
AcDbVertex
100
AcDb2dVertex
 10
76.64943777789313
 20
-323.5151402475701
 30
0.0
  0
VERTEX
  5
1BE
330
193
100
AcDbEntity
  8
Graypants_Roest_75h
 62
    36
420
  8339200
370
    -3
100
AcDbVertex
100
AcDb2dVertex
 10
76.6015094618537
 20
-323.5242491432314
 30
0.0
  0
VERTEX
  5
1BF
330
193
100
AcDbEntity
  8
Graypants_Roest_75h
 62
    36
420
  8339200
370
    -3
100
AcDbVertex
100
AcDb2dVertex
 10
76.55329809914011
 20
-323.5317164026914
 30
0.0
  0
VERTEX
  5
1C0
330
193
100
AcDbEntity
  8
Graypants_Roest_75h
 62
    36
420
  8339200
370
    -3
100
AcDbVertex
100
AcDb2dVertex
 10
76.50485990204467
 20
-323.5375333194594
 30
0.0
  0
VERTEX
  5
1C1
330
193
100
AcDbEntity
  8
Graypants_Roest_75h
 62
    36
420
  8339200
370
    -3
100
AcDbVertex
100
AcDb2dVertex
 10
76.45625134733844
 20
-323.5416931112708
 30
0.0
  0
VERTEX
  5
1C2
330
193
100
AcDbEntity
  8
Graypants_Roest_75h
 62
    36
420
  8339200
370
    -3
100
AcDbVertex
100
AcDb2dVertex
 10
76.40752911042183
 20
-323.5441909279945
 30
0.0
  0
VERTEX
  5
1C3
330
193
100
AcDbEntity
  8
Graypants_Roest_75h
 62
    36
420
  8339200
370
    -3
100
AcDbVertex
100
AcDb2dVertex
 10
76.35874999924363
 20
-323.5450238572877
 30
0.0
  0
SEQEND
  5
1C4
330
193
100
AcDbEntity
  8
Graypants_Roest_75h
 62
    36
420
  8339200
370
    -3
  0
LINE
  5
1C5
330
1F
100
AcDbEntity
  8
Graypants_Roest_75h
 62
    36
420
  8339200
370
    -3
100
AcDbLine
 10
76.35874999924306
 20
-323.5450238572868
 30
0.0
 11
-0.0000000000204636
 21
-323.545023855353
 31
0.0
  0
LINE
  5
1C6
330
1F
100
AcDbEntity
  8
Graypants_Roest_75h
370
    -3
100
AcDbLine
 10
697.9999999997251
 20
-319.7950238572793
 30
0.0
 11
703.9999999997251
 21
-319.7950238572793
 31
0.0
  0
LINE
  5
1C7
330
1F
100
AcDbEntity
  8
Graypants_Roest_75h
370
    -3
100
AcDbLine
 10
703.9999999997251
 20
-323.7950238572793
 30
0.0
 11
702.9999999997251
 21
-323.7950238572793
 31
0.0
  0
LINE
  5
1C8
330
1F
100
AcDbEntity
  8
Graypants_Roest_75h
370
    -3
100
AcDbLine
 10
703.9999999997251
 20
-319.7950238572793
 30
0.0
 11
709.9999999997251
 21
-319.7950238572793
 31
0.0
  0
LINE
  5
1C9
330
1F
100
AcDbEntity
  8
Graypants_Roest_75h
370
    -3
100
AcDbLine
 10
703.9999999997251
 20
-323.7950238572793
 30
0.0
 11
704.9999999997251
 21
-323.7950238572793
 31
0.0
  0
LINE
  5
1CA
330
1F
100
AcDbEntity
  8
Graypants_Roest_75h
370
    -3
100
AcDbLine
 10
695.9999999999793
 20
-293.7950238572792
 30
0.0
 11
711.9999999999793
 21
-293.7950238572792
 31
0.0
  0
LINE
  5
1CB
330
1F
100
AcDbEntity
  8
Graypants_Roest_75h
370
    -3
100
AcDbLine
 10
702.9999999997251
 20
-323.7950238572792
 30
0.0
 11
702.9999999997251
 21
-319.7950238572793
 31
0.0
  0
LINE
  5
1CC
330
1F
100
AcDbEntity
  8
Graypants_Roest_75h
370
    -3
100
AcDbLine
 10
697.9999999997251
 20
-319.7950238572793
 30
0.0
 11
697.9999999997251
 21
-317.7950238572793
 31
0.0
  0
LINE
  5
1CD
330
1F
100
AcDbEntity
  8
Graypants_Roest_75h
370
    -3
100
AcDbLine
 10
709.9999999997251
 20
-317.7950238572793
 30
0.0
 11
709.9999999997251
 21
-319.7950238572793
 31
0.0
  0
LINE
  5
1CE
330
1F
100
AcDbEntity
  8
Graypants_Roest_75h
370
    -3
100
AcDbLine
 10
704.9999999997251
 20
-319.7950238572793
 30
0.0
 11
704.9999999997251
 21
-323.7950238572793
 31
0.0
  0
LINE
  5
1CF
330
1F
100
AcDbEntity
  8
Graypants_Roest_75h
370
    -3
100
AcDbLine
 10
711.9999999999793
 20
-291.7950238572792
 30
0.0
 11
711.9999999999793
 21
-293.7950238572792
 31
0.0
  0
LINE
  5
1D0
330
1F
100
AcDbEntity
  8
Graypants_Roest_75h
370
    -3
100
AcDbLine
 10
695.9999999999793
 20
-293.7950238572792
 30
0.0
 11
695.9999999999793
 21
-291.7950238572792
 31
0.0
  0
LINE
  5
1D1
330
1F
100
AcDbEntity
  8
Graypants_Roest_75h
370
    -3
100
AcDbLine
 10
709.9999999999793
 20
-293.7950238572792
 30
0.0
 11
709.9999999999793
 21
-317.7950238572792
 31
0.0
  0
LINE
  5
1D2
330
1F
100
AcDbEntity
  8
Graypants_Roest_75h
370
    -3
100
AcDbLine
 10
697.9999999999793
 20
-317.7950238572792
 30
0.0
 11
697.9999999999793
 21
-293.7950238572792
 31
0.0
  0
LINE
  5
1D3
330
1F
100
AcDbEntity
  8
Graypants_Roest_75h
370
    -3
100
AcDbLine
 10
711.9999999999793
 20
-291.7950238572792
 30
0.0
 11
695.9999999999793
 21
-291.7950238572792
 31
0.0
  0
LINE
  5
1D4
330
1F
100
AcDbEntity
  8
Graypants_Roest_75h
370
    -3
100
AcDbLine
 10
704.499999999725
 20
-323.7950238572793
 30
0.0
 11
704.4999999999791
 21
-932.5408742771953
 31
0.0
  0
LINE
  5
1D5
330
1F
100
AcDbEntity
  8
Graypants_Roest_75h
370
    -3
100
AcDbLine
 10
703.4999999999794
 20
-932.5408715882446
 30
0.0
 11
703.4999999997252
 21
-323.7950238572793
 31
0.0
  0
LINE
  5
1D6
330
1F
100
AcDbEntity
  8
Graypants_Roest_75h
370
    -3
100
AcDbLine
 10
1003.016273855415
 20
-293.7950238572792
 30
0.0
 11
1011.016273855415
 21
-293.7950238572792
 31
0.0
  0
LINE
  5
1D7
330
1F
100
AcDbEntity
  8
Graypants_Roest_75h
370
    -3
100
AcDbLine
 10
1005.016273855415
 20
-319.7950238572793
 30
0.0
 11
1017.016273855415
 21
-319.7950238572793
 31
0.0
  0
LINE
  5
1D8
330
1F
100
AcDbEntity
  8
Graypants_Roest_75h
370
    -3
100
AcDbLine
 10
1010.016273855415
 20
-323.7950238572793
 30
0.0
 11
1012.016273855415
 21
-323.7950238572793
 31
0.0
  0
LINE
  5
1D9
330
1F
100
AcDbEntity
  8
Graypants_Roest_75h
370
    -3
100
AcDbLine
 10
1011.016273855415
 20
-293.7950238572792
 30
0.0
 11
1019.016273855415
 21
-293.7950238572792
 31
0.0
  0
LINE
  5
1DA
330
1F
100
AcDbEntity
  8
Graypants_Roest_75h
370
    -3
100
AcDbLine
 10
1017.016273855415
 20
-317.7950238572793
 30
0.0
 11
1017.016273855415
 21
-319.7950238572793
 31
0.0
  0
LINE
  5
1DB
330
1F
100
AcDbEntity
  8
Graypants_Roest_75h
370
    -3
100
AcDbLine
 10
1005.016273855415
 20
-319.7950238572793
 30
0.0
 11
1005.016273855415
 21
-317.7950238572793
 31
0.0
  0
LINE
  5
1DC
330
1F
100
AcDbEntity
  8
Graypants_Roest_75h
370
    -3
100
AcDbLine
 10
1012.016273855415
 20
-319.7950238572793
 30
0.0
 11
1012.016273855415
 21
-323.7950238572793
 31
0.0
  0
LINE
  5
1DD
330
1F
100
AcDbEntity
  8
Graypants_Roest_75h
370
    -3
100
AcDbLine
 10
1010.016273855415
 20
-323.7950238572793
 30
0.0
 11
1010.016273855415
 21
-319.7950238572793
 31
0.0
  0
LINE
  5
1DE
330
1F
100
AcDbEntity
  8
Graypants_Roest_75h
370
    -3
100
AcDbLine
 10
1017.016273855415
 20
-293.7950238572791
 30
0.0
 11
1017.016273855415
 21
-317.7950238572793
 31
0.0
  0
LINE
  5
1DF
330
1F
100
AcDbEntity
  8
Graypants_Roest_75h
370
    -3
100
AcDbLine
 10
1019.016273855415
 20
-291.7950238572792
 30
0.0
 11
1011.016273855415
 21
-291.7950238572792
 31
0.0
  0
LINE
  5
1E0
330
1F
100
AcDbEntity
  8
Graypants_Roest_75h
370
    -3
100
AcDbLine
 10
1019.016273855415
 20
-291.7950238572792
 30
0.0
 11
1019.016273855415
 21
-293.7950238572791
 31
0.0
  0
LINE
  5
1E1
330
1F
100
AcDbEntity
  8
Graypants_Roest_75h
370
    -3
100
AcDbLine
 10
1003.016273855415
 20
-293.7950238572791
 30
0.0
 11
1003.016273855415
 21
-291.7950238572792
 31
0.0
  0
LINE
  5
1E2
330
1F
100
AcDbEntity
  8
Graypants_Roest_75h
370
    -3
100
AcDbLine
 10
1005.016273855415
 20
-317.7950238572792
 30
0.0
 11
1005.016273855415
 21
-293.7950238572792
 31
0.0
  0
LINE
  5
1E3
330
1F
100
AcDbEntity
  8
Graypants_Roest_75h
370
    -3
100
AcDbLine
 10
1011.016273855415
 20
-291.7950238572792
 30
0.0
 11
1003.016273855415
 21
-291.7950238572792
 31
0.0
  0
LINE
  5
1E4
330
1F
100
AcDbEntity
  8
Graypants_Roest_75h
 62
    36
420
  8339200
370
    -3
100
AcDbLine
 10
1011.016273855415
 20
-291.7950238572792
 30
0.0
 11
933.2287738554821
 21
-291.7950238592493
 31
0.0
  0
POLYLINE
  5
1E5
330
1F
100
AcDbEntity
  8
Graypants_Roest_75h
 62
    36
420
  8339200
370
    -3
100
AcDb2dPolyline
 66
     1
 10
0.0
 20
0.0
 30
0.0
  0
VERTEX
  5
1E6
330
1E5
100
AcDbEntity
  8
Graypants_Roest_75h
 62
    36
420
  8339200
370
    -3
100
AcDbVertex
100
AcDb2dVertex
 10
934.6575238561506
 20
-323.5450238592586
 30
0.0
  0
VERTEX
  5
1E7
330
1E5
100
AcDbEntity
  8
Graypants_Roest_75h
 62
    36
420
  8339200
370
    -3
100
AcDbVertex
100
AcDb2dVertex
 10
934.6087447449725
 20
-323.5441909299653
 30
0.0
  0
VERTEX
  5
1E8
330
1E5
100
AcDbEntity
  8
Graypants_Roest_75h
 62
    36
420
  8339200
370
    -3
100
AcDbVertex
100
AcDb2dVertex
 10
934.5600225080558
 20
-323.5416931132417
 30
0.0
  0
VERTEX
  5
1E9
330
1E5
100
AcDbEntity
  8
Graypants_Roest_75h
 62
    36
420
  8339200
370
    -3
100
AcDbVertex
100
AcDb2dVertex
 10
934.5114139533497
 20
-323.5375333214303
 30
0.0
  0
VERTEX
  5
1EA
330
1E5
100
AcDbEntity
  8
Graypants_Roest_75h
 62
    36
420
  8339200
370
    -3
100
AcDbVertex
100
AcDb2dVertex
 10
934.4629757562541
 20
-323.5317164046622
 30
0.0
  0
VERTEX
  5
1EB
330
1E5
100
AcDbEntity
  8
Graypants_Roest_75h
 62
    36
420
  8339200
370
    -3
100
AcDbVertex
100
AcDb2dVertex
 10
934.4147643935405
 20
-323.5242491452023
 30
0.0
  0
VERTEX
  5
1EC
330
1E5
100
AcDbEntity
  8
Graypants_Roest_75h
 62
    36
420
  8339200
370
    -3
100
AcDbVertex
100
AcDb2dVertex
 10
934.3668360775011
 20
-323.515140249541
 30
0.0
  0
VERTEX
  5
1ED
330
1E5
100
AcDbEntity
  8
Graypants_Roest_75h
 62
    36
420
  8339200
370
    -3
100
AcDbVertex
100
AcDb2dVertex
 10
934.3192466904084
 20
-323.5044003382433
 30
0.0
  0
VERTEX
  5
1EE
330
1E5
100
AcDbEntity
  8
Graypants_Roest_75h
 62
    36
420
  8339200
370
    -3
100
AcDbVertex
100
AcDb2dVertex
 10
934.2720517193591
 20
-323.4920419335651
 30
0.0
  0
VERTEX
  5
1EF
330
1E5
100
AcDbEntity
  8
Graypants_Roest_75h
 62
    36
420
  8339200
370
    -3
100
AcDbVertex
100
AcDb2dVertex
 10
934.2253061915779
 20
-323.4780794448537
 30
0.0
  0
VERTEX
  5
1F0
330
1E5
100
AcDbEntity
  8
Graypants_Roest_75h
 62
    36
420
  8339200
370
    -3
100
AcDbVertex
100
AcDb2dVertex
 10
934.1790646102596
 20
-323.4625291517463
 30
0.0
  0
VERTEX
  5
1F1
330
1E5
100
AcDbEntity
  8
Graypants_Roest_75h
 62
    36
420
  8339200
370
    -3
100
AcDbVertex
100
AcDb2dVertex
 10
934.1333808910194
 20
-323.445409185189
 30
0.0
  0
VERTEX
  5
1F2
330
1E5
100
AcDbEntity
  8
Graypants_Roest_75h
 62
    36
420
  8339200
370
    -3
100
AcDbVertex
100
AcDb2dVertex
 10
934.0883082990304
 20
-323.4267395062969
 30
0.0
  0
VERTEX
  5
1F3
330
1E5
100
AcDbEntity
  8
Graypants_Roest_75h
 62
    36
420
  8339200
370
    -3
100
AcDbVertex
100
AcDb2dVertex
 10
934.0438993869186
 20
-323.4065418830806
 30
0.0
  0
VERTEX
  5
1F4
330
1E5
100
AcDbEntity
  8
Graypants_Roest_75h
 62
    36
420
  8339200
370
    -3
100
AcDbVertex
100
AcDb2dVertex
 10
934.000205933489
 20
-323.3848398650653
 30
0.0
  0
VERTEX
  5
1F5
330
1E5
100
AcDbEntity
  8
Graypants_Roest_75h
 62
    36
420
  8339200
370
    -3
100
AcDbVertex
100
AcDb2dVertex
 10
933.9572788833538
 20
-323.3616587558332
 30
0.0
  0
VERTEX
  5
1F6
330
1E5
100
AcDbEntity
  8
Graypants_Roest_75h
 62
    36
420
  8339200
370
    -3
100
AcDbVertex
100
AcDb2dVertex
 10
933.9151682875332
 20
-323.3370255835206
 30
0.0
  0
VERTEX
  5
1F7
330
1E5
100
AcDbEntity
  8
Graypants_Roest_75h
 62
    36
420
  8339200
370
    -3
100
AcDbVertex
100
AcDb2dVertex
 10
933.8739232450982
 20
-323.3109690693046
 30
0.0
  0
VERTEX
  5
1F8
330
1E5
100
AcDbEntity
  8
Graypants_Roest_75h
 62
    36
420
  8339200
370
    -3
100
AcDbVertex
100
AcDb2dVertex
 10
933.8335918459236
 20
-323.2835195939152
 30
0.0
  0
VERTEX
  5
1F9
330
1E5
100
AcDbEntity
  8
Graypants_Roest_75h
 62
    36
420
  8339200
370
    -3
100
AcDbVertex
100
AcDb2dVertex
 10
933.7942211146163
 20
-323.2547091622129
 30
0.0
  0
VERTEX
  5
1FA
330
1E5
100
AcDbEntity
  8
Graypants_Roest_75h
 62
    36
420
  8339200
370
    -3
100
AcDbVertex
100
AcDb2dVertex
 10
933.755856955688
 20
-323.2245713658722
 30
0.0
  0
VERTEX
  5
1FB
330
1E5
100
AcDbEntity
  8
Graypants_Roest_75h
 62
    36
420
  8339200
370
    -3
100
AcDbVertex
100
AcDb2dVertex
 10
933.7185441000321
 20
-323.1931413442156
 30
0.0
  0
VERTEX
  5
1FC
330
1E5
100
AcDbEntity
  8
Graypants_Roest_75h
 62
    36
420
  8339200
370
    -3
100
AcDbVertex
100
AcDb2dVertex
 10
933.682326052769
 20
-323.1604557432422
 30
0.0
  0
VERTEX
  5
1FD
330
1E5
100
AcDbEntity
  8
Graypants_Roest_75h
 62
    36
420
  8339200
370
    -3
100
AcDbVertex
100
AcDb2dVertex
 10
933.6472450425215
 20
-323.126552672901
 30
0.0
  0
VERTEX
  5
1FE
330
1E5
100
AcDbEntity
  8
Graypants_Roest_75h
 62
    36
420
  8339200
370
    -3
100
AcDbVertex
100
AcDb2dVertex
 10
933.6133419721788
 20
-323.0914716626551
 30
0.0
  0
VERTEX
  5
1FF
330
1E5
100
AcDbEntity
  8
Graypants_Roest_75h
 62
    36
420
  8339200
370
    -3
100
AcDbVertex
100
AcDb2dVertex
 10
933.5806563712039
 20
-323.0552536153933
 30
0.0
  0
VERTEX
  5
200
330
1E5
100
AcDbEntity
  8
Graypants_Roest_75h
 62
    36
420
  8339200
370
    -3
100
AcDbVertex
100
AcDb2dVertex
 10
933.5492263495456
 20
-323.0179407597387
 30
0.0
  0
VERTEX
  5
201
330
1E5
100
AcDbEntity
  8
Graypants_Roest_75h
 62
    36
420
  8339200
370
    -3
100
AcDbVertex
100
AcDb2dVertex
 10
933.5190885532031
 20
-322.9795766008117
 30
0.0
  0
VERTEX
  5
202
330
1E5
100
AcDbEntity
  8
Graypants_Roest_75h
 62
    36
420
  8339200
370
    -3
100
AcDbVertex
100
AcDb2dVertex
 10
933.4902781214992
 20
-322.9402058695057
 30
0.0
  0
VERTEX
  5
203
330
1E5
100
AcDbEntity
  8
Graypants_Roest_75h
 62
    36
420
  8339200
370
    -3
100
AcDbVertex
100
AcDb2dVertex
 10
933.462828646108
 20
-322.8998744703322
 30
0.0
  0
VERTEX
  5
204
330
1E5
100
AcDbEntity
  8
Graypants_Roest_75h
 62
    36
420
  8339200
370
    -3
100
AcDbVertex
100
AcDb2dVertex
 10
933.4367721318903
 20
-322.8586294278984
 30
0.0
  0
VERTEX
  5
205
330
1E5
100
AcDbEntity
  8
Graypants_Roest_75h
 62
    36
420
  8339200
370
    -3
100
AcDbVertex
100
AcDb2dVertex
 10
933.4121389595758
 20
-322.8165188320789
 30
0.0
  0
VERTEX
  5
206
330
1E5
100
AcDbEntity
  8
Graypants_Roest_75h
 62
    36
420
  8339200
370
    -3
100
AcDbVertex
100
AcDb2dVertex
 10
933.3889578503419
 20
-322.7735917819447
 30
0.0
  0
VERTEX
  5
207
330
1E5
100
AcDbEntity
  8
Graypants_Roest_75h
 62
    36
420
  8339200
370
    -3
100
AcDbVertex
100
AcDb2dVertex
 10
933.3672558323246
 20
-322.7298983285161
 30
0.0
  0
VERTEX
  5
208
330
1E5
100
AcDbEntity
  8
Graypants_Roest_75h
 62
    36
420
  8339200
370
    -3
100
AcDbVertex
100
AcDb2dVertex
 10
933.3470582091063
 20
-322.6854894164051
 30
0.0
  0
VERTEX
  5
209
330
1E5
100
AcDbEntity
  8
Graypants_Roest_75h
 62
    36
420
  8339200
370
    -3
100
AcDbVertex
100
AcDb2dVertex
 10
933.3283885302125
 20
-322.6404168244169
 30
0.0
  0
VERTEX
  5
20A
330
1E5
100
AcDbEntity
  8
Graypants_Roest_75h
 62
    36
420
  8339200
370
    -3
100
AcDbVertex
100
AcDb2dVertex
 10
933.3112685636531
 20
-322.5947331051775
 30
0.0
  0
VERTEX
  5
20B
330
1E5
100
AcDbEntity
  8
Graypants_Roest_75h
 62
    36
420
  8339200
370
    -3
100
AcDbVertex
100
AcDb2dVertex
 10
933.2957182705436
 20
-322.5484915238599
 30
0.0
  0
VERTEX
  5
20C
330
1E5
100
AcDbEntity
  8
Graypants_Roest_75h
 62
    36
420
  8339200
370
    -3
100
AcDbVertex
100
AcDb2dVertex
 10
933.2817557818302
 20
-322.5017459960794
 30
0.0
  0
VERTEX
  5
20D
330
1E5
100
AcDbEntity
  8
Graypants_Roest_75h
 62
    36
420
  8339200
370
    -3
100
AcDbVertex
100
AcDb2dVertex
 10
933.26939737715
 20
-322.4545510250305
 30
0.0
  0
VERTEX
  5
20E
330
1E5
100
AcDbEntity
  8
Graypants_Roest_75h
 62
    36
420
  8339200
370
    -3
100
AcDbVertex
100
AcDb2dVertex
 10
933.2586574658501
 20
-322.4069616379383
 30
0.0
  0
VERTEX
  5
20F
330
1E5
100
AcDbEntity
  8
Graypants_Roest_75h
 62
    36
420
  8339200
370
    -3
100
AcDbVertex
100
AcDb2dVertex
 10
933.2495485701868
 20
-322.3590333218992
 30
0.0
  0
VERTEX
  5
210
330
1E5
100
AcDbEntity
  8
Graypants_Roest_75h
 62
    36
420
  8339200
370
    -3
100
AcDbVertex
100
AcDb2dVertex
 10
933.2420813107248
 20
-322.310821959186
 30
0.0
  0
VERTEX
  5
211
330
1E5
100
AcDbEntity
  8
Graypants_Roest_75h
 62
    36
420
  8339200
370
    -3
100
AcDbVertex
100
AcDb2dVertex
 10
933.2362643939546
 20
-322.2623837620908
 30
0.0
  0
VERTEX
  5
212
330
1E5
100
AcDbEntity
  8
Graypants_Roest_75h
 62
    36
420
  8339200
370
    -3
100
AcDbVertex
100
AcDb2dVertex
 10
933.2321046021411
 20
-322.2137752073847
 30
0.0
  0
VERTEX
  5
213
330
1E5
100
AcDbEntity
  8
Graypants_Roest_75h
 62
    36
420
  8339200
370
    -3
100
AcDbVertex
100
AcDb2dVertex
 10
933.2296067854153
 20
-322.1650529704683
 30
0.0
  0
VERTEX
  5
214
330
1E5
100
AcDbEntity
  8
Graypants_Roest_75h
 62
    36
420
  8339200
370
    -3
100
AcDbVertex
100
AcDb2dVertex
 10
933.2287738561199
 20
-322.1162738592901
 30
0.0
  0
VERTEX
  5
215
330
1E5
100
AcDbEntity
  8
Graypants_Roest_75h
 62
    36
420
  8339200
370
    -3
100
AcDbVertex
100
AcDb2dVertex
 10
933.2287738554817
 20
-291.7950238592501
 30
0.0
  0
SEQEND
  5
216
330
1E5
100
AcDbEntity
  8
Graypants_Roest_75h
 62
    36
420
  8339200
370
    -3
  0
LINE
  5
217
330
1F
100
AcDbEntity
  8
Graypants_Roest_75h
 62
    36
420
  8339200
370
    -3
100
AcDbLine
 10
1088.803773855347
 20
-291.7950238592493
 30
0.0
 11
1011.016273855415
 21
-291.7950238572792
 31
0.0
  0
POLYLINE
  5
218
330
1F
100
AcDbEntity
  8
Graypants_Roest_75h
 62
    36
420
  8339200
370
    -3
100
AcDb2dPolyline
 66
     1
 10
0.0
 20
0.0
 30
0.0
  0
VERTEX
  5
219
330
218
100
AcDbEntity
  8
Graypants_Roest_75h
 62
    36
420
  8339200
370
    -3
100
AcDbVertex
100
AcDb2dVertex
 10
1088.803773855348
 20
-291.7950238592501
 30
0.0
  0
VERTEX
  5
21A
330
218
100
AcDbEntity
  8
Graypants_Roest_75h
 62
    36
420
  8339200
370
    -3
100
AcDbVertex
100
AcDb2dVertex
 10
1088.80377385471
 20
-322.1162738592901
 30
0.0
  0
VERTEX
  5
21B
330
218
100
AcDbEntity
  8
Graypants_Roest_75h
 62
    36
420
  8339200
370
    -3
100
AcDbVertex
100
AcDb2dVertex
 10
1088.802940925414
 20
-322.1650529704683
 30
0.0
  0
VERTEX
  5
21C
330
218
100
AcDbEntity
  8
Graypants_Roest_75h
 62
    36
420
  8339200
370
    -3
100
AcDbVertex
100
AcDb2dVertex
 10
1088.800443108689
 20
-322.2137752073847
 30
0.0
  0
VERTEX
  5
21D
330
218
100
AcDbEntity
  8
Graypants_Roest_75h
 62
    36
420
  8339200
370
    -3
100
AcDbVertex
100
AcDb2dVertex
 10
1088.796283316875
 20
-322.2623837620908
 30
0.0
  0
VERTEX
  5
21E
330
218
100
AcDbEntity
  8
Graypants_Roest_75h
 62
    36
420
  8339200
370
    -3
100
AcDbVertex
100
AcDb2dVertex
 10
1088.790466400105
 20
-322.310821959186
 30
0.0
  0
VERTEX
  5
21F
330
218
100
AcDbEntity
  8
Graypants_Roest_75h
 62
    36
420
  8339200
370
    -3
100
AcDbVertex
100
AcDb2dVertex
 10
1088.782999140643
 20
-322.3590333218992
 30
0.0
  0
VERTEX
  5
220
330
218
100
AcDbEntity
  8
Graypants_Roest_75h
 62
    36
420
  8339200
370
    -3
100
AcDbVertex
100
AcDb2dVertex
 10
1088.773890244979
 20
-322.4069616379383
 30
0.0
  0
VERTEX
  5
221
330
218
100
AcDbEntity
  8
Graypants_Roest_75h
 62
    36
420
  8339200
370
    -3
100
AcDbVertex
100
AcDb2dVertex
 10
1088.763150333679
 20
-322.4545510250305
 30
0.0
  0
VERTEX
  5
222
330
218
100
AcDbEntity
  8
Graypants_Roest_75h
 62
    36
420
  8339200
370
    -3
100
AcDbVertex
100
AcDb2dVertex
 10
1088.750791928999
 20
-322.5017459960794
 30
0.0
  0
VERTEX
  5
223
330
218
100
AcDbEntity
  8
Graypants_Roest_75h
 62
    36
420
  8339200
370
    -3
100
AcDbVertex
100
AcDb2dVertex
 10
1088.736829440286
 20
-322.5484915238598
 30
0.0
  0
VERTEX
  5
224
330
218
100
AcDbEntity
  8
Graypants_Roest_75h
 62
    36
420
  8339200
370
    -3
100
AcDbVertex
100
AcDb2dVertex
 10
1088.721279147176
 20
-322.5947331051774
 30
0.0
  0
VERTEX
  5
225
330
218
100
AcDbEntity
  8
Graypants_Roest_75h
 62
    36
420
  8339200
370
    -3
100
AcDbVertex
100
AcDb2dVertex
 10
1088.704159180617
 20
-322.6404168244169
 30
0.0
  0
VERTEX
  5
226
330
218
100
AcDbEntity
  8
Graypants_Roest_75h
 62
    36
420
  8339200
370
    -3
100
AcDbVertex
100
AcDb2dVertex
 10
1088.685489501723
 20
-322.6854894164051
 30
0.0
  0
VERTEX
  5
227
330
218
100
AcDbEntity
  8
Graypants_Roest_75h
 62
    36
420
  8339200
370
    -3
100
AcDbVertex
100
AcDb2dVertex
 10
1088.665291878505
 20
-322.7298983285161
 30
0.0
  0
VERTEX
  5
228
330
218
100
AcDbEntity
  8
Graypants_Roest_75h
 62
    36
420
  8339200
370
    -3
100
AcDbVertex
100
AcDb2dVertex
 10
1088.643589860488
 20
-322.7735917819447
 30
0.0
  0
VERTEX
  5
229
330
218
100
AcDbEntity
  8
Graypants_Roest_75h
 62
    36
420
  8339200
370
    -3
100
AcDbVertex
100
AcDb2dVertex
 10
1088.620408751254
 20
-322.8165188320789
 30
0.0
  0
VERTEX
  5
22A
330
218
100
AcDbEntity
  8
Graypants_Roest_75h
 62
    36
420
  8339200
370
    -3
100
AcDbVertex
100
AcDb2dVertex
 10
1088.595775578939
 20
-322.8586294278984
 30
0.0
  0
VERTEX
  5
22B
330
218
100
AcDbEntity
  8
Graypants_Roest_75h
 62
    36
420
  8339200
370
    -3
100
AcDbVertex
100
AcDb2dVertex
 10
1088.569719064722
 20
-322.8998744703322
 30
0.0
  0
VERTEX
  5
22C
330
218
100
AcDbEntity
  8
Graypants_Roest_75h
 62
    36
420
  8339200
370
    -3
100
AcDbVertex
100
AcDb2dVertex
 10
1088.54226958933
 20
-322.9402058695057
 30
0.0
  0
VERTEX
  5
22D
330
218
100
AcDbEntity
  8
Graypants_Roest_75h
 62
    36
420
  8339200
370
    -3
100
AcDbVertex
100
AcDb2dVertex
 10
1088.513459157626
 20
-322.9795766008118
 30
0.0
  0
VERTEX
  5
22E
330
218
100
AcDbEntity
  8
Graypants_Roest_75h
 62
    36
420
  8339200
370
    -3
100
AcDbVertex
100
AcDb2dVertex
 10
1088.483321361284
 20
-323.0179407597387
 30
0.0
  0
VERTEX
  5
22F
330
218
100
AcDbEntity
  8
Graypants_Roest_75h
 62
    36
420
  8339200
370
    -3
100
AcDbVertex
100
AcDb2dVertex
 10
1088.451891339626
 20
-323.0552536153933
 30
0.0
  0
VERTEX
  5
230
330
218
100
AcDbEntity
  8
Graypants_Roest_75h
 62
    36
420
  8339200
370
    -3
100
AcDbVertex
100
AcDb2dVertex
 10
1088.419205738651
 20
-323.0914716626551
 30
0.0
  0
VERTEX
  5
231
330
218
100
AcDbEntity
  8
Graypants_Roest_75h
 62
    36
420
  8339200
370
    -3
100
AcDbVertex
100
AcDb2dVertex
 10
1088.385302668308
 20
-323.1265526729009
 30
0.0
  0
VERTEX
  5
232
330
218
100
AcDbEntity
  8
Graypants_Roest_75h
 62
    36
420
  8339200
370
    -3
100
AcDbVertex
100
AcDb2dVertex
 10
1088.350221658061
 20
-323.1604557432422
 30
0.0
  0
VERTEX
  5
233
330
218
100
AcDbEntity
  8
Graypants_Roest_75h
 62
    36
420
  8339200
370
    -3
100
AcDbVertex
100
AcDb2dVertex
 10
1088.314003610797
 20
-323.1931413442155
 30
0.0
  0
VERTEX
  5
234
330
218
100
AcDbEntity
  8
Graypants_Roest_75h
 62
    36
420
  8339200
370
    -3
100
AcDbVertex
100
AcDb2dVertex
 10
1088.276690755141
 20
-323.2245713658722
 30
0.0
  0
VERTEX
  5
235
330
218
100
AcDbEntity
  8
Graypants_Roest_75h
 62
    36
420
  8339200
370
    -3
100
AcDbVertex
100
AcDb2dVertex
 10
1088.238326596213
 20
-323.2547091622129
 30
0.0
  0
VERTEX
  5
236
330
218
100
AcDbEntity
  8
Graypants_Roest_75h
 62
    36
420
  8339200
370
    -3
100
AcDbVertex
100
AcDb2dVertex
 10
1088.198955864906
 20
-323.2835195939152
 30
0.0
  0
VERTEX
  5
237
330
218
100
AcDbEntity
  8
Graypants_Roest_75h
 62
    36
420
  8339200
370
    -3
100
AcDbVertex
100
AcDb2dVertex
 10
1088.158624465731
 20
-323.3109690693046
 30
0.0
  0
VERTEX
  5
238
330
218
100
AcDbEntity
  8
Graypants_Roest_75h
 62
    36
420
  8339200
370
    -3
100
AcDbVertex
100
AcDb2dVertex
 10
1088.117379423296
 20
-323.3370255835206
 30
0.0
  0
VERTEX
  5
239
330
218
100
AcDbEntity
  8
Graypants_Roest_75h
 62
    36
420
  8339200
370
    -3
100
AcDbVertex
100
AcDb2dVertex
 10
1088.075268827476
 20
-323.3616587558332
 30
0.0
  0
VERTEX
  5
23A
330
218
100
AcDbEntity
  8
Graypants_Roest_75h
 62
    36
420
  8339200
370
    -3
100
AcDbVertex
100
AcDb2dVertex
 10
1088.03234177734
 20
-323.3848398650653
 30
0.0
  0
VERTEX
  5
23B
330
218
100
AcDbEntity
  8
Graypants_Roest_75h
 62
    36
420
  8339200
370
    -3
100
AcDbVertex
100
AcDb2dVertex
 10
1087.988648323911
 20
-323.4065418830806
 30
0.0
  0
VERTEX
  5
23C
330
218
100
AcDbEntity
  8
Graypants_Roest_75h
 62
    36
420
  8339200
370
    -3
100
AcDbVertex
100
AcDb2dVertex
 10
1087.944239411799
 20
-323.4267395062969
 30
0.0
  0
VERTEX
  5
23D
330
218
100
AcDbEntity
  8
Graypants_Roest_75h
 62
    36
420
  8339200
370
    -3
100
AcDbVertex
100
AcDb2dVertex
 10
1087.89916681981
 20
-323.4454091851889
 30
0.0
  0
VERTEX
  5
23E
330
218
100
AcDbEntity
  8
Graypants_Roest_75h
 62
    36
420
  8339200
370
    -3
100
AcDbVertex
100
AcDb2dVertex
 10
1087.85348310057
 20
-323.4625291517463
 30
0.0
  0
VERTEX
  5
23F
330
218
100
AcDbEntity
  8
Graypants_Roest_75h
 62
    36
420
  8339200
370
    -3
100
AcDbVertex
100
AcDb2dVertex
 10
1087.807241519251
 20
-323.4780794448537
 30
0.0
  0
VERTEX
  5
240
330
218
100
AcDbEntity
  8
Graypants_Roest_75h
 62
    36
420
  8339200
370
    -3
100
AcDbVertex
100
AcDb2dVertex
 10
1087.760495991471
 20
-323.4920419335651
 30
0.0
  0
VERTEX
  5
241
330
218
100
AcDbEntity
  8
Graypants_Roest_75h
 62
    36
420
  8339200
370
    -3
100
AcDbVertex
100
AcDb2dVertex
 10
1087.713301020421
 20
-323.5044003382432
 30
0.0
  0
VERTEX
  5
242
330
218
100
AcDbEntity
  8
Graypants_Roest_75h
 62
    36
420
  8339200
370
    -3
100
AcDbVertex
100
AcDb2dVertex
 10
1087.665711633328
 20
-323.515140249541
 30
0.0
  0
VERTEX
  5
243
330
218
100
AcDbEntity
  8
Graypants_Roest_75h
 62
    36
420
  8339200
370
    -3
100
AcDbVertex
100
AcDb2dVertex
 10
1087.617783317289
 20
-323.5242491452023
 30
0.0
  0
VERTEX
  5
244
330
218
100
AcDbEntity
  8
Graypants_Roest_75h
 62
    36
420
  8339200
370
    -3
100
AcDbVertex
100
AcDb2dVertex
 10
1087.569571954575
 20
-323.5317164046622
 30
0.0
  0
VERTEX
  5
245
330
218
100
AcDbEntity
  8
Graypants_Roest_75h
 62
    36
420
  8339200
370
    -3
100
AcDbVertex
100
AcDb2dVertex
 10
1087.52113375748
 20
-323.5375333214303
 30
0.0
  0
VERTEX
  5
246
330
218
100
AcDbEntity
  8
Graypants_Roest_75h
 62
    36
420
  8339200
370
    -3
100
AcDbVertex
100
AcDb2dVertex
 10
1087.472525202774
 20
-323.5416931132417
 30
0.0
  0
VERTEX
  5
247
330
218
100
AcDbEntity
  8
Graypants_Roest_75h
 62
    36
420
  8339200
370
    -3
100
AcDbVertex
100
AcDb2dVertex
 10
1087.423802965857
 20
-323.5441909299653
 30
0.0
  0
VERTEX
  5
248
330
218
100
AcDbEntity
  8
Graypants_Roest_75h
 62
    36
420
  8339200
370
    -3
100
AcDbVertex
100
AcDb2dVertex
 10
1087.375023854679
 20
-323.5450238592586
 30
0.0
  0
SEQEND
  5
249
330
218
100
AcDbEntity
  8
Graypants_Roest_75h
 62
    36
420
  8339200
370
    -3
  0
LINE
  5
24A
330
1F
100
AcDbEntity
  8
Graypants_Roest_75h
 62
    36
420
  8339200
370
    -3
100
AcDbLine
 10
1087.375023854678
 20
-323.5450238592577
 30
0.0
 11
1012.016273855415
 21
-323.5450238573241
 31
0.0
  0
LINE
  5
24B
330
1F
100
AcDbEntity
  8
Graypants_Roest_75h
 62
    36
420
  8339200
370
    -3
100
AcDbLine
 10
1010.016273855415
 20
-323.5450238573241
 30
0.0
 11
934.6575238561511
 21
-323.5450238592577
 31
0.0
  0
LINE
  5
24C
330
1F
100
AcDbEntity
  8
Graypants_Roest_75h
370
    -3
100
AcDbLine
 10
1013.266273855462
 20
-323.5450238573248
 30
0.0
 11
1013.266273855462
 21
-932.6125079847598
 31
0.0
  0
LINE
  5
24D
330
1F
100
AcDbEntity
  8
Graypants_Roest_75h
370
    -3
100
AcDbLine
 10
1008.766273855462
 20
-932.6122960456969
 30
0.0
 11
1008.766273855463
 21
-323.5450238573247
 31
0.0
  0
LINE
  5
24E
330
1F
100
AcDbEntity
  8
Graypants_Roest_75h
370
    -3
100
AcDbLine
 10
1010.51627385546
 20
-932.5325817661171
 30
0.0
 11
1010.516273855416
 21
-323.7950238572796
 31
0.0
  0
LINE
  5
24F
330
1F
100
AcDbEntity
  8
Graypants_Roest_75h
370
    -3
100
AcDbLine
 10
1011.516273855415
 20
-323.7950238572794
 30
0.0
 11
1011.51627385546
 21
-932.5325817661171
 31
0.0
  0
ENDSEC
  0
SECTION
  2
OBJECTS
  0
DICTIONARY
  5
C
330
0
100
AcDbDictionary
281
     1
  3
ACAD_DETAILVIEWSTYLE
350
28B
  3
ACAD_GROUP
350
D
  3
ACAD_LAYOUT
350
1A
  3
ACAD_MATERIAL
350
43
  3
ACAD_MLEADERSTYLE
350
6B
  3
ACAD_MLINESTYLE
350
17
  3
ACAD_PLOTSETTINGS
350
19
  3
ACAD_PLOTSTYLENAME
350
E
  3
ACAD_SCALELIST
350
47
  3
ACAD_SECTIONVIEWSTYLE
350
28C
  3
ACAD_TABLESTYLE
350
69
  3
ACAD_VISUALSTYLE
350
2A
  3
AcDbVariableDictionary
350
250
  3
ACDB_RECOMPOSE_DATA
350
288
  0
SUN
  5
6D
330
29
100
AcDbSun
 90
        1
290
     0
 63
     7
421
 16777215
 40
1.0
291
     1
 91
  2455826
 92
 54000000
292
     0
 70
     2
 71
   256
280
     1
  0
DICTIONARY
  5
28B
102
{ACAD_REACTORS
330
C
102
}
330
C
100
AcDbDictionary
281
     1
  0
DICTIONARY
  5
D
102
{ACAD_REACTORS
330
C
102
}
330
C
100
AcDbDictionary
281
     1
  0
DICTIONARY
  5
1A
102
{ACAD_REACTORS
330
C
102
}
330
C
100
AcDbDictionary
281
     1
  3
Layout1
350
1E
  3
Layout2
350
26
  3
Model
350
22
  0
DICTIONARY
  5
43
102
{ACAD_REACTORS
330
C
102
}
330
C
100
AcDbDictionary
281
     1
  3
ByBlock
350
45
  3
ByLayer
350
44
  3
Global
350
46
  0
DICTIONARY
  5
6B
102
{ACAD_REACTORS
330
C
102
}
330
C
100
AcDbDictionary
281
     1
  3
Standard
350
6C
  0
DICTIONARY
  5
17
102
{ACAD_REACTORS
330
C
102
}
330
C
100
AcDbDictionary
281
     1
  3
Standard
350
18
  0
DICTIONARY
  5
19
102
{ACAD_REACTORS
330
C
102
}
330
C
100
AcDbDictionary
281
     1
  0
ACDBDICTIONARYWDFLT
  5
E
102
{ACAD_REACTORS
330
C
102
}
330
C
100
AcDbDictionary
281
     1
  3
Normal
350
F
100
AcDbDictionaryWithDefault
340
F
  0
DICTIONARY
  5
47
102
{ACAD_REACTORS
330
C
102
}
330
C
100
AcDbDictionary
281
     1
  3
A0
350
48
  3
A1
350
49
  3
A2
350
4A
  3
A3
350
4B
  3
A4
350
4C
  3
A5
350
4D
  3
A6
350
4E
  3
A7
350
4F
  3
A8
350
50
  3
A9
350
51
  3
B0
350
52
  3
B1
350
53
  3
B2
350
54
  3
B3
350
55
  3
B4
350
56
  3
B5
350
57
  3
B6
350
58
  3
B7
350
59
  3
B8
350
5A
  3
B9
350
5B
  3
C0
350
5C
  3
C1
350
5D
  3
C2
350
5E
  3
C3
350
5F
  3
C4
350
60
  3
C5
350
61
  3
C6
350
62
  3
C7
350
63
  3
C8
350
64
  3
C9
350
65
  3
D0
350
66
  3
D1
350
67
  3
D2
350
68
  0
DICTIONARY
  5
28C
102
{ACAD_REACTORS
330
C
102
}
330
C
100
AcDbDictionary
281
     1
  0
DICTIONARY
  5
69
102
{ACAD_REACTORS
330
C
102
}
330
C
100
AcDbDictionary
281
     1
  3
Standard
350
6A
  0
DICTIONARY
  5
2A
102
{ACAD_REACTORS
330
C
102
}
330
C
100
AcDbDictionary
281
     1
  3
2dWireframe
350
2F
  3
Basic
350
32
  3
Brighten
350
36
  3
ColorChange
350
3A
  3
Conceptual
350
34
  3
Dim
350
35
  3
EdgeColorOff
350
3D
  3
Facepattern
350
39
  3
Flat
350
2B
  3
FlatWithEdges
350
2C
  3
Gouraud
350
2D
  3
GouraudWithEdges
350
2E
  3
Hidden
350
31
  3
JitterOff
350
3B
  3
Linepattern
350
38
  3
OverhangOff
350
3C
  3
Realistic
350
33
  3
Shaded
350
42
  3
Shaded with edges
350
41
  3
Shades of Gray
350
3E
  3
Sketchy
350
3F
  3
Thicken
350
37
  3
Wireframe
350
30
  3
X-Ray
350
40
  0
DICTIONARY
  5
250
102
{ACAD_REACTORS
330
C
102
}
330
C
100
AcDbDictionary
281
     1
  3
CANNOSCALE
350
251
  3
CMLEADERSTYLE
350
28A
  3
CTABLESTYLE
350
289
  3
XCLIPFRAME
350
252
  0
XRECORD
  5
288
102
{ACAD_REACTORS
330
C
102
}
330
C
100
AcDbXrecord
280
     1
 90
        1
330
6A
  0
LAYOUT
  5
1E
102
{ACAD_REACTORS
330
1A
102
}
330
1A
100
AcDbPlotSettings
  1

  2
none_device
  4

  6

 40
0.0
 41
0.0
 42
0.0
 43
0.0
 44
0.0
 45
0.0
 46
0.0
 47
0.0
 48
0.0
 49
0.0
140
0.0
141
0.0
142
1.0
143
1.0
 70
   688
 72
     0
 73
     0
 74
     5
  7

 75
    16
 76
     0
 77
     2
 78
   300
147
1.0
148
0.0
149
0.0
100
AcDbLayout
  1
Layout1
 70
     1
 71
     1
 10
0.0
 20
0.0
 11
12.0
 21
9.0
 12
0.0
 22
0.0
 32
0.0
 14
1.000000000000000E+20
 24
1.000000000000000E+20
 34
1.000000000000000E+20
 15
-1.000000000000000E+20
 25
-1.000000000000000E+20
 35
-1.000000000000000E+20
146
0.0
 13
0.0
 23
0.0
 33
0.0
 16
1.0
 26
0.0
 36
0.0
 17
0.0
 27
1.0
 37
0.0
 76
     0
330
1B
  0
LAYOUT
  5
26
102
{ACAD_REACTORS
330
1A
102
}
330
1A
100
AcDbPlotSettings
  1

  2
none_device
  4

  6

 40
0.0
 41
0.0
 42
0.0
 43
0.0
 44
0.0
 45
0.0
 46
0.0
 47
0.0
 48
0.0
 49
0.0
140
0.0
141
0.0
142
1.0
143
1.0
 70
   688
 72
     0
 73
     0
 74
     5
  7

 75
    16
 76
     0
 77
     2
 78
   300
147
1.0
148
0.0
149
0.0
100
AcDbLayout
  1
Layout2
 70
     1
 71
     2
 10
0.0
 20
0.0
 11
0.0
 21
0.0
 12
0.0
 22
0.0
 32
0.0
 14
0.0
 24
0.0
 34
0.0
 15
0.0
 25
0.0
 35
0.0
146
0.0
 13
0.0
 23
0.0
 33
0.0
 16
1.0
 26
0.0
 36
0.0
 17
0.0
 27
1.0
 37
0.0
 76
     0
330
23
  0
LAYOUT
  5
22
102
{ACAD_REACTORS
330
1A
102
}
330
1A
100
AcDbPlotSettings
  1

  2
none_device
  4
Letter_(8.50_x_11.00_Inches)
  6

 40
6.35
 41
6.35
 42
6.35000508
 43
6.35000508
 44
215.9
 45
279.4
 46
0.0
 47
0.0
 48
0.0
 49
0.0
140
0.0
141
0.0
142
1.0
143
1.0
 70
  1712
 72
     0
 73
     0
 74
     0
  7

 75
     0
 76
     0
 77
     2
 78
   300
147
1.0
148
0.0
149
0.0
100
AcDbLayout
  1
Model
 70
     1
 71
     0
 10
0.0
 20
0.0
 11
12.0
 21
9.0
 12
0.0
 22
0.0
 32
0.0
 14
1.000000000000000E+20
 24
1.000000000000000E+20
 34
1.000000000000000E+20
 15
-1.000000000000000E+20
 25
-1.000000000000000E+20
 35
-1.000000000000000E+20
146
0.0
 13
0.0
 23
0.0
 33
0.0
 16
1.0
 26
0.0
 36
0.0
 17
0.0
 27
1.0
 37
0.0
 76
     0
330
1F
331
29
  0
MATERIAL
  5
45
102
{ACAD_REACTORS
330
43
102
}
330
43
100
AcDbMaterial
  1
ByBlock
 72
     1
 94
      127
  0
MATERIAL
  5
44
102
{ACAD_REACTORS
330
43
102
}
330
43
100
AcDbMaterial
  1
ByLayer
 72
     1
 94
      127
  0
MATERIAL
  5
46
102
{ACAD_REACTORS
330
43
102
}
330
43
100
AcDbMaterial
  1
Global
 72
     1
 94
      127
  0
MLEADERSTYLE
  5
6C
102
{ACAD_REACTORS
330
6B
102
}
102
{ACAD_XDICTIONARY
360
286
102
}
330
6B
100
AcDbMLeaderStyle
170
     2
171
     1
172
     0
 90
        2
 40
0.0
 41
0.0
173
     1
 91
-1056964608
340
14
 92
       -2
290
     1
 42
0.09
291
     1
 43
0.36
  3
Standard
341
0
 44
0.18
300

342
11
174
     1
178
     6
175
     1
176
     0
 93
-1056964608
 45
0.18
292
     0
297
     0
 46
0.18
343
0
 94
-1056964608
 47
1.0
 49
1.0
140
1.0
293
     1
141
0.0
294
     1
177
     0
142
1.0
295
     0
296
     0
143
0.125
1001
ACAD_MLEADERVER
1070
     2
  0
MLINESTYLE
  5
18
102
{ACAD_REACTORS
330
17
102
}
330
17
100
AcDbMlineStyle
  2
Standard
 70
     0
  3

 62
   256
 51
90.0
 52
90.0
 71
     2
 49
0.5
 62
   256
  6
BYLAYER
 49
-0.5
 62
   256
  6
BYLAYER
  0
ACDBPLACEHOLDER
  5
F
102
{ACAD_REACTORS
330
E
102
}
330
E
  0
SCALE
  5
48
102
{ACAD_REACTORS
330
47
102
}
330
47
100
AcDbScale
 70
     0
300
1:1
140
1.0
141
1.0
290
     1
  0
SCALE
  5
49
102
{ACAD_REACTORS
330
47
102
}
330
47
100
AcDbScale
 70
     0
300
1:2
140
1.0
141
2.0
290
     0
  0
SCALE
  5
4A
102
{ACAD_REACTORS
330
47
102
}
330
47
100
AcDbScale
 70
     0
300
1:4
140
1.0
141
4.0
290
     0
  0
SCALE
  5
4B
102
{ACAD_REACTORS
330
47
102
}
330
47
100
AcDbScale
 70
     0
300
1:5
140
1.0
141
5.0
290
     0
  0
SCALE
  5
4C
102
{ACAD_REACTORS
330
47
102
}
330
47
100
AcDbScale
 70
     0
300
1:8
140
1.0
141
8.0
290
     0
  0
SCALE
  5
4D
102
{ACAD_REACTORS
330
47
102
}
330
47
100
AcDbScale
 70
     0
300
1:10
140
1.0
141
10.0
290
     0
  0
SCALE
  5
4E
102
{ACAD_REACTORS
330
47
102
}
330
47
100
AcDbScale
 70
     0
300
1:16
140
1.0
141
16.0
290
     0
  0
SCALE
  5
4F
102
{ACAD_REACTORS
330
47
102
}
330
47
100
AcDbScale
 70
     0
300
1:20
140
1.0
141
20.0
290
     0
  0
SCALE
  5
50
102
{ACAD_REACTORS
330
47
102
}
330
47
100
AcDbScale
 70
     0
300
1:30
140
1.0
141
30.0
290
     0
  0
SCALE
  5
51
102
{ACAD_REACTORS
330
47
102
}
330
47
100
AcDbScale
 70
     0
300
1:40
140
1.0
141
40.0
290
     0
  0
SCALE
  5
52
102
{ACAD_REACTORS
330
47
102
}
330
47
100
AcDbScale
 70
     0
300
1:50
140
1.0
141
50.0
290
     0
  0
SCALE
  5
53
102
{ACAD_REACTORS
330
47
102
}
330
47
100
AcDbScale
 70
     0
300
1:100
140
1.0
141
100.0
290
     0
  0
SCALE
  5
54
102
{ACAD_REACTORS
330
47
102
}
330
47
100
AcDbScale
 70
     0
300
2:1
140
2.0
141
1.0
290
     0
  0
SCALE
  5
55
102
{ACAD_REACTORS
330
47
102
}
330
47
100
AcDbScale
 70
     0
300
4:1
140
4.0
141
1.0
290
     0
  0
SCALE
  5
56
102
{ACAD_REACTORS
330
47
102
}
330
47
100
AcDbScale
 70
     0
300
8:1
140
8.0
141
1.0
290
     0
  0
SCALE
  5
57
102
{ACAD_REACTORS
330
47
102
}
330
47
100
AcDbScale
 70
     0
300
10:1
140
10.0
141
1.0
290
     0
  0
SCALE
  5
58
102
{ACAD_REACTORS
330
47
102
}
330
47
100
AcDbScale
 70
     0
300
100:1
140
100.0
141
1.0
290
     0
  0
SCALE
  5
59
102
{ACAD_REACTORS
330
47
102
}
330
47
100
AcDbScale
 70
     0
300
1/128" = 1'-0"
140
0.0078125
141
12.0
290
     0
  0
SCALE
  5
5A
102
{ACAD_REACTORS
330
47
102
}
330
47
100
AcDbScale
 70
     0
300
1/64" = 1'-0"
140
0.015625
141
12.0
290
     0
  0
SCALE
  5
5B
102
{ACAD_REACTORS
330
47
102
}
330
47
100
AcDbScale
 70
     0
300
1/32" = 1'-0"
140
0.03125
141
12.0
290
     0
  0
SCALE
  5
5C
102
{ACAD_REACTORS
330
47
102
}
330
47
100
AcDbScale
 70
     0
300
1/16" = 1'-0"
140
0.0625
141
12.0
290
     0
  0
SCALE
  5
5D
102
{ACAD_REACTORS
330
47
102
}
330
47
100
AcDbScale
 70
     0
300
3/32" = 1'-0"
140
0.09375
141
12.0
290
     0
  0
SCALE
  5
5E
102
{ACAD_REACTORS
330
47
102
}
330
47
100
AcDbScale
 70
     0
300
1/8" = 1'-0"
140
0.125
141
12.0
290
     0
  0
SCALE
  5
5F
102
{ACAD_REACTORS
330
47
102
}
330
47
100
AcDbScale
 70
     0
300
3/16" = 1'-0"
140
0.1875
141
12.0
290
     0
  0
SCALE
  5
60
102
{ACAD_REACTORS
330
47
102
}
330
47
100
AcDbScale
 70
     0
300
1/4" = 1'-0"
140
0.25
141
12.0
290
     0
  0
SCALE
  5
61
102
{ACAD_REACTORS
330
47
102
}
330
47
100
AcDbScale
 70
     0
300
3/8" = 1'-0"
140
0.375
141
12.0
290
     0
  0
SCALE
  5
62
102
{ACAD_REACTORS
330
47
102
}
330
47
100
AcDbScale
 70
     0
300
1/2" = 1'-0"
140
0.5
141
12.0
290
     0
  0
SCALE
  5
63
102
{ACAD_REACTORS
330
47
102
}
330
47
100
AcDbScale
 70
     0
300
3/4" = 1'-0"
140
0.75
141
12.0
290
     0
  0
SCALE
  5
64
102
{ACAD_REACTORS
330
47
102
}
330
47
100
AcDbScale
 70
     0
300
1" = 1'-0"
140
1.0
141
12.0
290
     0
  0
SCALE
  5
65
102
{ACAD_REACTORS
330
47
102
}
330
47
100
AcDbScale
 70
     0
300
1-1/2" = 1'-0"
140
1.5
141
12.0
290
     0
  0
SCALE
  5
66
102
{ACAD_REACTORS
330
47
102
}
330
47
100
AcDbScale
 70
     0
300
3" = 1'-0"
140
3.0
141
12.0
290
     0
  0
SCALE
  5
67
102
{ACAD_REACTORS
330
47
102
}
330
47
100
AcDbScale
 70
     0
300
6" = 1'-0"
140
6.0
141
12.0
290
     0
  0
SCALE
  5
68
102
{ACAD_REACTORS
330
47
102
}
330
47
100
AcDbScale
 70
     0
300
1'-0" = 1'-0"
140
12.0
141
12.0
290
     0
  0
TABLESTYLE
  5
6A
102
{ACAD_REACTORS
330
69
102
}
102
{ACAD_XDICTIONARY
360
283
102
}
330
69
100
AcDbTableStyle
  3
Standard
 70
     0
 71
     0
 40
0.06
 41
0.06
280
     0
281
     0
  7
Standard
140
0.18
170
     2
 62
     0
 63
   257
283
     0
 90
        4
 91
        0
  1

274
    -2
284
     1
 64
     0
275
    -2
285
     1
 65
     0
276
    -2
286
     1
 66
     0
277
    -2
287
     1
 67
     0
278
    -2
288
     1
 68
     0
279
    -2
289
     1
 69
     0
  7
Standard
140
0.25
170
     5
 62
     0
 63
   257
283
     0
 90
        4
 91
        0
  1

274
    -2
284
     1
 64
     0
275
    -2
285
     1
 65
     0
276
    -2
286
     1
 66
     0
277
    -2
287
     1
 67
     0
278
    -2
288
     1
 68
     0
279
    -2
289
     1
 69
     0
  7
Standard
140
0.18
170
     5
 62
     0
 63
   257
283
     0
 90
        4
 91
        0
  1

274
    -2
284
     1
 64
     0
275
    -2
285
     1
 65
     0
276
    -2
286
     1
 66
     0
277
    -2
287
     1
 67
     0
278
    -2
288
     1
 68
     0
279
    -2
289
     1
 69
     0
  0
VISUALSTYLE
  5
2F
102
{ACAD_REACTORS
330
2A
102
}
102
{ACAD_XDICTIONARY
360
25B
102
}
330
2A
100
AcDbVisualStyle
  2
2dWireframe
 70
     4
 71
     0
 72
     2
 73
     0
 90
        0
 40
0.6
 41
30.0
 62
     5
 63
     7
421
 16777215
 74
     1
 91
        4
 64
     7
 65
   257
 75
     1
175
     1
 42
1.0
 92
        0
 66
   257
 43
1.0
 76
     1
 77
     6
 78
     2
 67
     7
 79
     5
170
     0
171
     0
290
     0
174
     0
 93
        1
 44
0.0
173
     0
291
     0
 45
0.0
  0
VISUALSTYLE
  5
32
102
{ACAD_REACTORS
330
2A
102
}
102
{ACAD_XDICTIONARY
360
261
102
}
330
2A
100
AcDbVisualStyle
  2
Basic
 70
     7
 71
     1
 72
     0
 73
     1
 90
        0
 40
0.6
 41
30.0
 62
     5
 63
     7
421
 16777215
 74
     0
 91
        4
 64
     7
 65
   257
 75
     1
175
     1
 42
1.0
 92
        8
 66
     7
 43
1.0
 76
     1
 77
     6
 78
     2
 67
     7
 79
     5
170
     0
171
     0
290
     0
174
     0
 93
        1
 44
0.0
173
     0
291
     1
 45
0.0
  0
VISUALSTYLE
  5
36
102
{ACAD_REACTORS
330
2A
102
}
102
{ACAD_XDICTIONARY
360
269
102
}
330
2A
100
AcDbVisualStyle
  2
Brighten
 70
    12
 71
     2
 72
     2
 73
     0
 90
        0
 40
0.6
 41
30.0
 62
     5
 63
     7
421
 16777215
 74
     1
 91
        4
 64
     7
 65
   257
 75
     1
175
     1
 42
1.0
 92
        8
 66
     7
 43
1.0
 76
     1
 77
     6
 78
     2
 67
     7
 79
     5
170
     0
171
     0
290
     0
174
     0
 93
        1
 44
50.0
173
     0
291
     1
 45
0.0
  0
VISUALSTYLE
  5
3A
102
{ACAD_REACTORS
330
2A
102
}
102
{ACAD_XDICTIONARY
360
271
102
}
330
2A
100
AcDbVisualStyle
  2
ColorChange
 70
    16
 71
     2
 72
     2
 73
     3
 90
        0
 40
0.6
 41
30.0
 62
     5
 63
     8
421
  8421504
 74
     1
 91
        4
 64
     7
 65
   257
 75
     1
175
     1
 42
1.0
 92
        8
 66
     8
424
  8421504
 43
1.0
 76
     1
 77
     6
 78
     2
 67
     7
 79
     5
170
     0
171
     0
290
     0
174
     0
 93
        1
 44
0.0
173
     0
291
     1
 45
0.0
  0
VISUALSTYLE
  5
34
102
{ACAD_REACTORS
330
2A
102
}
102
{ACAD_XDICTIONARY
360
265
102
}
330
2A
100
AcDbVisualStyle
  2
Conceptual
 70
     9
 71
     3
 72
     2
 73
     0
 90
        0
 40
0.6
 41
30.0
 62
     5
 63
     7
421
 16777215
 74
     2
 91
        2
 64
     7
 65
   257
 75
     1
175
     1
 42
179.0
 92
        8
 66
     7
 43
1.0
 76
     1
 77
     6
 78
     2
 67
     7
 79
     3
170
     0
171
     0
290
     0
174
     0
 93
        1
 44
0.0
173
     0
291
     0
 45
0.0
  0
VISUALSTYLE
  5
35
102
{ACAD_REACTORS
330
2A
102
}
102
{ACAD_XDICTIONARY
360
267
102
}
330
2A
100
AcDbVisualStyle
  2
Dim
 70
    11
 71
     2
 72
     2
 73
     0
 90
        0
 40
0.6
 41
30.0
 62
     5
 63
     7
421
 16777215
 74
     1
 91
        4
 64
     7
 65
   257
 75
     1
175
     1
 42
1.0
 92
        8
 66
     7
 43
1.0
 76
     1
 77
     6
 78
     2
 67
     7
 79
     5
170
     0
171
     0
290
     0
174
     0
 93
        1
 44
-50.0
173
     0
291
     1
 45
0.0
  0
VISUALSTYLE
  5
3D
102
{ACAD_REACTORS
330
2A
102
}
102
{ACAD_XDICTIONARY
360
277
102
}
330
2A
100
AcDbVisualStyle
  2
EdgeColorOff
 70
    22
 71
     2
 72
     2
 73
     0
 90
        0
 40
0.6
 41
30.0
 62
     5
 63
     7
421
 16777215
 74
     1
 91
        4
 64
     7
 65
   257
 75
     1
175
     1
 42
1.0
 92
        8
 66
     7
 43
1.0
 76
     1
 77
     6
 78
     2
 67
     7
 79
     5
170
     0
171
     0
290
     0
174
     0
 93
        1
 44
0.0
173
     0
291
     1
 45
0.0
  0
VISUALSTYLE
  5
39
102
{ACAD_REACTORS
330
2A
102
}
102
{ACAD_XDICTIONARY
360
26F
102
}
330
2A
100
AcDbVisualStyle
  2
Facepattern
 70
    15
 71
     2
 72
     2
 73
     0
 90
        0
 40
0.6
 41
30.0
 62
     5
 63
     7
421
 16777215
 74
     1
 91
        4
 64
     7
 65
   257
 75
     1
175
     1
 42
1.0
 92
        8
 66
     7
 43
1.0
 76
     1
 77
     6
 78
     2
 67
     7
 79
     5
170
     0
171
     0
290
     0
174
     0
 93
        1
 44
0.0
173
     0
291
     1
 45
0.0
  0
VISUALSTYLE
  5
2B
102
{ACAD_REACTORS
330
2A
102
}
102
{ACAD_XDICTIONARY
360
253
102
}
330
2A
100
AcDbVisualStyle
  2
Flat
 70
     0
 71
     2
 72
     1
 73
     1
 90
        2
 40
0.6
 41
30.0
 62
     5
 63
     7
421
 16777215
 74
     0
 91
        0
 64
     7
 65
   257
 75
     1
175
     1
 42
1.0
 92
        8
 66
     7
 43
1.0
 76
     1
 77
     6
 78
     2
 67
     7
 79
     5
170
     0
171
     0
290
     0
174
     0
 93
       13
 44
0.0
173
     0
291
     1
 45
0.0
  0
VISUALSTYLE
  5
2C
102
{ACAD_REACTORS
330
2A
102
}
102
{ACAD_XDICTIONARY
360
255
102
}
330
2A
100
AcDbVisualStyle
  2
FlatWithEdges
 70
     1
 71
     2
 72
     1
 73
     1
 90
        2
 40
0.6
 41
30.0
 62
     5
 63
     7
421
 16777215
 74
     1
 91
        0
 64
     7
 65
   257
 75
     1
175
     1
 42
1.0
 92
        0
 66
   257
 43
1.0
 76
     1
 77
     6
 78
     2
 67
     7
 79
     5
170
     0
171
     0
290
     0
174
     0
 93
       13
 44
0.0
173
     0
291
     1
 45
0.0
  0
VISUALSTYLE
  5
2D
102
{ACAD_REACTORS
330
2A
102
}
102
{ACAD_XDICTIONARY
360
257
102
}
330
2A
100
AcDbVisualStyle
  2
Gouraud
 70
     2
 71
     2
 72
     2
 73
     1
 90
        2
 40
0.6
 41
30.0
 62
     5
 63
     7
421
 16777215
 74
     0
 91
        0
 64
     7
 65
   257
 75
     1
175
     1
 42
1.0
 92
        0
 66
     7
 43
1.0
 76
     1
 77
     6
 78
     2
 67
     7
 79
     5
170
     0
171
     0
290
     0
174
     0
 93
       13
 44
0.0
173
     0
291
     1
 45
0.0
  0
VISUALSTYLE
  5
2E
102
{ACAD_REACTORS
330
2A
102
}
102
{ACAD_XDICTIONARY
360
259
102
}
330
2A
100
AcDbVisualStyle
  2
GouraudWithEdges
 70
     3
 71
     2
 72
     2
 73
     1
 90
        2
 40
0.6
 41
30.0
 62
     5
 63
     7
421
 16777215
 74
     1
 91
        0
 64
     7
 65
   257
 75
     1
175
     1
 42
1.0
 92
        0
 66
   257
 43
1.0
 76
     1
 77
     6
 78
     2
 67
     7
 79
     5
170
     0
171
     0
290
     0
174
     0
 93
       13
 44
0.0
173
     0
291
     1
 45
0.0
  0
VISUALSTYLE
  5
31
102
{ACAD_REACTORS
330
2A
102
}
102
{ACAD_XDICTIONARY
360
25F
102
}
330
2A
100
AcDbVisualStyle
  2
Hidden
 70
     6
 71
     1
 72
     2
 73
     2
 90
        0
 40
0.6
 41
30.0
 62
     5
 63
     7
421
 16777215
 74
     2
 91
        2
 64
     7
 65
   257
 75
     2
175
     1
 42
40.0
 92
        0
 66
   257
 43
1.0
 76
     1
 77
     6
 78
     2
 67
     7
 79
     3
170
     0
171
     0
290
     0
174
     0
 93
        1
 44
0.0
173
     0
291
     0
 45
0.0
  0
VISUALSTYLE
  5
3B
102
{ACAD_REACTORS
330
2A
102
}
102
{ACAD_XDICTIONARY
360
273
102
}
330
2A
100
AcDbVisualStyle
  2
JitterOff
 70
    20
 71
     2
 72
     2
 73
     0
 90
        0
 40
0.6
 41
30.0
 62
     5
 63
     7
421
 16777215
 74
     1
 91
        4
 64
     7
 65
   257
 75
     1
175
     1
 42
1.0
 92
       10
 66
     7
 43
1.0
 76
     1
 77
     6
 78
     2
 67
     7
 79
     5
170
     0
171
     0
290
     0
174
     0
 93
        1
 44
0.0
173
     0
291
     1
 45
0.0
  0
VISUALSTYLE
  5
38
102
{ACAD_REACTORS
330
2A
102
}
102
{ACAD_XDICTIONARY
360
26D
102
}
330
2A
100
AcDbVisualStyle
  2
Linepattern
 70
    14
 71
     2
 72
     2
 73
     0
 90
        0
 40
0.6
 41
30.0
 62
     5
 63
     7
421
 16777215
 74
     1
 91
        4
 64
     7
 65
   257
 75
     7
175
     7
 42
1.0
 92
        8
 66
     7
 43
1.0
 76
     1
 77
     6
 78
     2
 67
     7
 79
     5
170
     0
171
     0
290
     0
174
     0
 93
        1
 44
0.0
173
     0
291
     1
 45
0.0
  0
VISUALSTYLE
  5
3C
102
{ACAD_REACTORS
330
2A
102
}
102
{ACAD_XDICTIONARY
360
275
102
}
330
2A
100
AcDbVisualStyle
  2
OverhangOff
 70
    21
 71
     2
 72
     2
 73
     0
 90
        0
 40
0.6
 41
30.0
 62
     5
 63
     7
421
 16777215
 74
     1
 91
        4
 64
     7
 65
   257
 75
     1
175
     1
 42
1.0
 92
        9
 66
     7
 43
1.0
 76
     1
 77
     6
 78
     2
 67
     7
 79
     5
170
     0
171
     0
290
     0
174
     0
 93
        1
 44
0.0
173
     0
291
     1
 45
0.0
  0
VISUALSTYLE
  5
33
102
{ACAD_REACTORS
330
2A
102
}
102
{ACAD_XDICTIONARY
360
263
102
}
330
2A
100
AcDbVisualStyle
  2
Realistic
 70
     8
 71
     2
 72
     3
 73
     0
 90
        2
 40
0.6
 41
30.0
 62
     5
 63
     7
421
 16777215
 74
     0
 91
        0
 64
     7
 65
   257
 75
     1
175
     1
 42
1.0
 92
        8
 66
   257
 43
1.0
 76
     1
 77
     6
 78
     2
 67
     7
 79
     3
170
     0
171
     0
290
     0
174
     0
 93
       13
 44
0.0
173
     0
291
     0
 45
0.0
  0
VISUALSTYLE
  5
42
102
{ACAD_REACTORS
330
2A
102
}
102
{ACAD_XDICTIONARY
360
281
102
}
330
2A
100
AcDbVisualStyle
  2
Shaded
 70
    27
 71
     2
 72
     2
 73
     1
 90
        2
 40
0.6
 41
30.0
 62
     5
 63
     7
421
 16777215
 74
     0
 91
        4
 64
     7
 65
   257
 75
     1
175
     1
 42
1.0
 92
        8
 66
   257
 43
1.0
 76
     1
 77
     6
 78
     2
 67
     8
425
  7895160
 79
     3
170
     0
171
     0
290
     0
174
     0
 93
        5
 44
0.0
173
     0
291
     0
 45
0.0
  0
VISUALSTYLE
  5
41
102
{ACAD_REACTORS
330
2A
102
}
102
{ACAD_XDICTIONARY
360
27F
102
}
330
2A
100
AcDbVisualStyle
  2
Shaded with edges
 70
    26
 71
     2
 72
     2
 73
     1
 90
        2
 40
0.6
 41
30.0
 62
     5
 63
     7
421
 16777215
 74
     1
 91
       10
 64
     7
 65
   257
 75
     2
175
     1
 42
1.0
 92
        8
 66
   257
 43
1.0
 76
     1
 77
     6
 78
     2
 67
     7
 79
     3
170
     0
171
     0
290
     0
174
     0
 93
        5
 44
0.0
173
     0
291
     0
 45
0.0
  0
VISUALSTYLE
  5
3E
102
{ACAD_REACTORS
330
2A
102
}
102
{ACAD_XDICTIONARY
360
279
102
}
330
2A
100
AcDbVisualStyle
  2
Shades of Gray
 70
    23
 71
     2
 72
     2
 73
     3
 90
        0
 40
0.6
 41
30.0
 62
     5
 63
     7
421
 16777215
 74
     2
 91
        2
 64
     7
 65
     7
 75
     1
175
     1
 42
40.0
 92
        8
 66
     7
 43
1.0
 76
     1
 77
     6
 78
     2
 67
     7
 79
     3
170
     0
171
     0
290
     0
174
     0
 93
        1
 44
0.0
173
     0
291
     0
 45
0.0
  0
VISUALSTYLE
  5
3F
102
{ACAD_REACTORS
330
2A
102
}
102
{ACAD_XDICTIONARY
360
27B
102
}
330
2A
100
AcDbVisualStyle
  2
Sketchy
 70
    24
 71
     1
 72
     2
 73
     2
 90
        0
 40
0.6
 41
30.0
 62
     5
 63
     7
421
 16777215
 74
     2
 91
        2
 64
     7
 65
     7
 75
     1
175
     1
 42
40.0
 92
       11
 66
     7
 43
1.0
 76
     1
 77
     6
 78
     2
 67
     7
 79
     6
170
     0
171
     0
290
     0
174
     0
 93
        1
 44
0.0
173
     0
291
     0
 45
0.0
  0
VISUALSTYLE
  5
37
102
{ACAD_REACTORS
330
2A
102
}
102
{ACAD_XDICTIONARY
360
26B
102
}
330
2A
100
AcDbVisualStyle
  2
Thicken
 70
    13
 71
     2
 72
     2
 73
     0
 90
        0
 40
0.6
 41
30.0
 62
     5
 63
     7
421
 16777215
 74
     1
 91
        4
 64
     7
 65
   257
 75
     1
175
     1
 42
1.0
 92
       12
 66
     7
 43
1.0
 76
     1
 77
     6
 78
     2
 67
     7
 79
     5
170
     0
171
     0
290
     0
174
     0
 93
        1
 44
0.0
173
     0
291
     1
 45
0.0
  0
VISUALSTYLE
  5
30
102
{ACAD_REACTORS
330
2A
102
}
102
{ACAD_XDICTIONARY
360
25D
102
}
330
2A
100
AcDbVisualStyle
  2
Wireframe
 70
     5
 71
     0
 72
     2
 73
     0
 90
        0
 40
0.6
 41
30.0
 62
     5
 63
     7
421
 16777215
 74
     1
 91
        4
 64
     7
 65
   257
 75
     1
175
     1
 42
1.0
 92
        0
 66
   257
 43
1.0
 76
     1
 77
     6
 78
     2
 67
     7
 79
     3
170
     0
171
     0
290
     0
174
     0
 93
        1
 44
0.0
173
     0
291
     0
 45
0.0
  0
VISUALSTYLE
  5
40
102
{ACAD_REACTORS
330
2A
102
}
102
{ACAD_XDICTIONARY
360
27D
102
}
330
2A
100
AcDbVisualStyle
  2
X-Ray
 70
    25
 71
     2
 72
     2
 73
     1
 90
        1
 40
0.5
 41
30.0
 62
     5
 63
     7
421
 16777215
 74
     1
 91
        0
 64
     7
 65
   257
 75
     1
175
     1
 42
1.0
 92
        8
 66
     7
 43
1.0
 76
     1
 77
     6
 78
     2
 67
     7
 79
     3
170
     0
171
     0
290
     0
174
     0
 93
       13
 44
0.0
173
     0
291
     0
 45
0.0
  0
DICTIONARYVAR
  5
251
102
{ACAD_REACTORS
330
250
102
}
330
250
100
DictionaryVariables
280
     0
  1
1:1
  0
DICTIONARYVAR
  5
28A
102
{ACAD_REACTORS
330
250
102
}
330
250
100
DictionaryVariables
280
     0
  1
Standard
  0
DICTIONARYVAR
  5
289
102
{ACAD_REACTORS
330
250
102
}
330
250
100
DictionaryVariables
280
     0
  1
Standard
  0
DICTIONARYVAR
  5
252
102
{ACAD_REACTORS
330
250
102
}
330
250
100
DictionaryVariables
280
     0
  1
2
  0
DICTIONARY
  5
286
330
6C
100
AcDbDictionary
280
     1
281
     1
  3
ACAD_XREC_ROUNDTRIP
360
287
  0
DICTIONARY
  5
283
330
6A
100
AcDbDictionary
280
     1
281
     1
  3
ACAD_ROUNDTRIP_2008_TABLESTYLE_CELLSTYLEMAP
360
284
  0
DICTIONARY
  5
25B
330
2F
100
AcDbDictionary
280
     1
281
     1
  3
ACAD_XREC_ROUNDTRIP
360
25C
  0
DICTIONARY
  5
261
330
32
100
AcDbDictionary
280
     1
281
     1
  3
ACAD_XREC_ROUNDTRIP
360
262
  0
DICTIONARY
  5
269
330
36
100
AcDbDictionary
280
     1
281
     1
  3
ACAD_XREC_ROUNDTRIP
360
26A
  0
DICTIONARY
  5
271
330
3A
100
AcDbDictionary
280
     1
281
     1
  3
ACAD_XREC_ROUNDTRIP
360
272
  0
DICTIONARY
  5
265
330
34
100
AcDbDictionary
280
     1
281
     1
  3
ACAD_XREC_ROUNDTRIP
360
266
  0
DICTIONARY
  5
267
330
35
100
AcDbDictionary
280
     1
281
     1
  3
ACAD_XREC_ROUNDTRIP
360
268
  0
DICTIONARY
  5
277
330
3D
100
AcDbDictionary
280
     1
281
     1
  3
ACAD_XREC_ROUNDTRIP
360
278
  0
DICTIONARY
  5
26F
330
39
100
AcDbDictionary
280
     1
281
     1
  3
ACAD_XREC_ROUNDTRIP
360
270
  0
DICTIONARY
  5
253
330
2B
100
AcDbDictionary
280
     1
281
     1
  3
ACAD_XREC_ROUNDTRIP
360
254
  0
DICTIONARY
  5
255
330
2C
100
AcDbDictionary
280
     1
281
     1
  3
ACAD_XREC_ROUNDTRIP
360
256
  0
DICTIONARY
  5
257
330
2D
100
AcDbDictionary
280
     1
281
     1
  3
ACAD_XREC_ROUNDTRIP
360
258
  0
DICTIONARY
  5
259
330
2E
100
AcDbDictionary
280
     1
281
     1
  3
ACAD_XREC_ROUNDTRIP
360
25A
  0
DICTIONARY
  5
25F
330
31
100
AcDbDictionary
280
     1
281
     1
  3
ACAD_XREC_ROUNDTRIP
360
260
  0
DICTIONARY
  5
273
330
3B
100
AcDbDictionary
280
     1
281
     1
  3
ACAD_XREC_ROUNDTRIP
360
274
  0
DICTIONARY
  5
26D
330
38
100
AcDbDictionary
280
     1
281
     1
  3
ACAD_XREC_ROUNDTRIP
360
26E
  0
DICTIONARY
  5
275
330
3C
100
AcDbDictionary
280
     1
281
     1
  3
ACAD_XREC_ROUNDTRIP
360
276
  0
DICTIONARY
  5
263
330
33
100
AcDbDictionary
280
     1
281
     1
  3
ACAD_XREC_ROUNDTRIP
360
264
  0
DICTIONARY
  5
281
330
42
100
AcDbDictionary
280
     1
281
     1
  3
ACAD_XREC_ROUNDTRIP
360
282
  0
DICTIONARY
  5
27F
330
41
100
AcDbDictionary
280
     1
281
     1
  3
ACAD_XREC_ROUNDTRIP
360
280
  0
DICTIONARY
  5
279
330
3E
100
AcDbDictionary
280
     1
281
     1
  3
ACAD_XREC_ROUNDTRIP
360
27A
  0
DICTIONARY
  5
27B
330
3F
100
AcDbDictionary
280
     1
281
     1
  3
ACAD_XREC_ROUNDTRIP
360
27C
  0
DICTIONARY
  5
26B
330
37
100
AcDbDictionary
280
     1
281
     1
  3
ACAD_XREC_ROUNDTRIP
360
26C
  0
DICTIONARY
  5
25D
330
30
100
AcDbDictionary
280
     1
281
     1
  3
ACAD_XREC_ROUNDTRIP
360
25E
  0
DICTIONARY
  5
27D
330
40
100
AcDbDictionary
280
     1
281
     1
  3
ACAD_XREC_ROUNDTRIP
360
27E
  0
XRECORD
  5
287
102
{ACAD_REACTORS
330
286
102
}
330
286
100
AcDbXrecord
280
     1
102
ACAD_ROUNDTRIP_2010_MLEADER_STYLE
  0
CELLSTYLEMAP
  5
284
102
{ACAD_REACTORS
330
283
102
}
330
283
100
AcDbCellStyleMap
 90
        3
300
CELLSTYLE
  1
TABLEFORMAT_BEGIN
 90
        5
170
     1
 91
        0
 92
    32768
 62
   257
 93
        1
300
CONTENTFORMAT
  1
CONTENTFORMAT_BEGIN
 90
        0
 91
        0
 92
        4
 93
        0
300

 40
0.0
140
1.0
 94
        5
 62
     0
340
11
144
0.25
309
CONTENTFORMAT_END
171
     1
301
MARGIN
  1
CELLMARGIN_BEGIN
 40
0.06
 40
0.06
 40
0.06
 40
0.06
 40
0.06
 40
0.06
309
CELLMARGIN_END
 94
        6
 95
        1
302
GRIDFORMAT
  1
GRIDFORMAT_BEGIN
 90
        0
 91
        1
 62
     0
 92
       -2
340
14
 93
        0
 40
0.045
309
GRIDFORMAT_END
 95
        2
302
GRIDFORMAT
  1
GRIDFORMAT_BEGIN
 90
        0
 91
        1
 62
     0
 92
       -2
340
14
 93
        0
 40
0.045
309
GRIDFORMAT_END
 95
        4
302
GRIDFORMAT
  1
GRIDFORMAT_BEGIN
 90
        0
 91
        1
 62
     0
 92
       -2
340
14
 93
        0
 40
0.045
309
GRIDFORMAT_END
 95
        8
302
GRIDFORMAT
  1
GRIDFORMAT_BEGIN
 90
        0
 91
        1
 62
     0
 92
       -2
340
14
 93
        0
 40
0.045
309
GRIDFORMAT_END
 95
       16
302
GRIDFORMAT
  1
GRIDFORMAT_BEGIN
 90
        0
 91
        1
 62
     0
 92
       -2
340
14
 93
        0
 40
0.045
309
GRIDFORMAT_END
 95
       32
302
GRIDFORMAT
  1
GRIDFORMAT_BEGIN
 90
        0
 91
        1
 62
     0
 92
       -2
340
14
 93
        0
 40
0.045
309
GRIDFORMAT_END
309
TABLEFORMAT_END
  1
CELLSTYLE_BEGIN
 90
        1
 91
        1
300
_TITLE
309
CELLSTYLE_END
300
CELLSTYLE
  1
TABLEFORMAT_BEGIN
 90
        5
170
     1
 91
        0
 92
        0
 62
   257
 93
        1
300
CONTENTFORMAT
  1
CONTENTFORMAT_BEGIN
 90
        0
 91
        0
 92
        4
 93
        0
300

 40
0.0
140
1.0
 94
        5
 62
     0
340
11
144
0.18
309
CONTENTFORMAT_END
171
     1
301
MARGIN
  1
CELLMARGIN_BEGIN
 40
0.06
 40
0.06
 40
0.06
 40
0.06
 40
0.06
 40
0.06
309
CELLMARGIN_END
 94
        6
 95
        1
302
GRIDFORMAT
  1
GRIDFORMAT_BEGIN
 90
        0
 91
        1
 62
     0
 92
       -2
340
14
 93
        0
 40
0.045
309
GRIDFORMAT_END
 95
        2
302
GRIDFORMAT
  1
GRIDFORMAT_BEGIN
 90
        0
 91
        1
 62
     0
 92
       -2
340
14
 93
        0
 40
0.045
309
GRIDFORMAT_END
 95
        4
302
GRIDFORMAT
  1
GRIDFORMAT_BEGIN
 90
        0
 91
        1
 62
     0
 92
       -2
340
14
 93
        0
 40
0.045
309
GRIDFORMAT_END
 95
        8
302
GRIDFORMAT
  1
GRIDFORMAT_BEGIN
 90
        0
 91
        1
 62
     0
 92
       -2
340
14
 93
        0
 40
0.045
309
GRIDFORMAT_END
 95
       16
302
GRIDFORMAT
  1
GRIDFORMAT_BEGIN
 90
        0
 91
        1
 62
     0
 92
       -2
340
14
 93
        0
 40
0.045
309
GRIDFORMAT_END
 95
       32
302
GRIDFORMAT
  1
GRIDFORMAT_BEGIN
 90
        0
 91
        1
 62
     0
 92
       -2
340
14
 93
        0
 40
0.045
309
GRIDFORMAT_END
309
TABLEFORMAT_END
  1
CELLSTYLE_BEGIN
 90
        2
 91
        1
300
_HEADER
309
CELLSTYLE_END
300
CELLSTYLE
  1
TABLEFORMAT_BEGIN
 90
        5
170
     1
 91
        0
 92
        0
 62
   257
 93
        1
300
CONTENTFORMAT
  1
CONTENTFORMAT_BEGIN
 90
        0
 91
        0
 92
        4
 93
        0
300

 40
0.0
140
1.0
 94
        2
 62
     0
340
11
144
0.18
309
CONTENTFORMAT_END
171
     1
301
MARGIN
  1
CELLMARGIN_BEGIN
 40
0.06
 40
0.06
 40
0.06
 40
0.06
 40
0.06
 40
0.06
309
CELLMARGIN_END
 94
        6
 95
        1
302
GRIDFORMAT
  1
GRIDFORMAT_BEGIN
 90
        0
 91
        1
 62
     0
 92
       -2
340
14
 93
        0
 40
0.045
309
GRIDFORMAT_END
 95
        2
302
GRIDFORMAT
  1
GRIDFORMAT_BEGIN
 90
        0
 91
        1
 62
     0
 92
       -2
340
14
 93
        0
 40
0.045
309
GRIDFORMAT_END
 95
        4
302
GRIDFORMAT
  1
GRIDFORMAT_BEGIN
 90
        0
 91
        1
 62
     0
 92
       -2
340
14
 93
        0
 40
0.045
309
GRIDFORMAT_END
 95
        8
302
GRIDFORMAT
  1
GRIDFORMAT_BEGIN
 90
        0
 91
        1
 62
     0
 92
       -2
340
14
 93
        0
 40
0.045
309
GRIDFORMAT_END
 95
       16
302
GRIDFORMAT
  1
GRIDFORMAT_BEGIN
 90
        0
 91
        1
 62
     0
 92
       -2
340
14
 93
        0
 40
0.045
309
GRIDFORMAT_END
 95
       32
302
GRIDFORMAT
  1
GRIDFORMAT_BEGIN
 90
        0
 91
        1
 62
     0
 92
       -2
340
14
 93
        0
 40
0.045
309
GRIDFORMAT_END
309
TABLEFORMAT_END
  1
CELLSTYLE_BEGIN
 90
        3
 91
        2
300
_DATA
309
CELLSTYLE_END
  0
XRECORD
  5
25C
102
{ACAD_REACTORS
330
25B
102
}
330
25B
100
AcDbXrecord
280
     1
102
RTVSPropertyOp0
 70
     1
102
RTVSPropertyOp1
 70
     1
102
RTVSPropertyOp2
 70
     1
102
RTVSPropertyOp3
 70
     1
102
RTVSPropertyOp4
 70
     1
102
RTVSPropertyOp5
 70
     1
102
RTVSPropertyOp6
 70
     1
102
RTVSPropertyOp7
 70
     1
102
RTVSPropertyOp8
 70
     1
102
RTVSPropertyOp9
 70
     1
102
RTVSPropertyOp10
 70
     1
102
RTVSPropertyOp11
 70
     1
102
RTVSPropertyOp12
 70
     1
102
RTVSPropertyOp13
 70
     1
102
RTVSPropertyOp14
 70
     1
102
RTVSPropertyOp15
 70
     1
102
RTVSPropertyOp16
 70
     1
102
RTVSPropertyOp17
 70
     1
102
RTVSPropertyOp18
 70
     1
102
RTVSPropertyOp19
 70
     1
102
RTVSPropertyOp20
 70
     1
102
RTVSPropertyOp21
 70
     1
102
RTVSPropertyOp22
 70
     1
102
RTVSPropertyOp23
 70
     1
102
RTVSPropertyOp24
 70
     1
102
RTVSPropertyOp25
 70
     1
102
RTVSPropertyOp26
 70
     1
102
RTVSPropertyOp27
 70
     1
102
RTVSPropertyOp28
 70
     1
102
RTVSPropertyOp29
 70
     1
102
RTVSPropertyOp30
 70
     1
102
RTVSPropertyOp31
 70
     1
102
RTVSPropertyOp32
 70
     1
102
RTVSPropertyOp33
 70
     1
102
RTVSPropertyOp34
 70
     1
102
RTVSPropertyOp35
 70
     1
102
RTVSPropertyOp36
 70
     1
102
RTVSPropertyOp37
 70
     1
102
RTVSPropertyOp38
 70
     1
102
RTVSPropertyOp39
 70
     1
102
RTVSPropertyOp40
 70
     1
102
RTVSPropertyOp41
 70
     1
102
RTVSPropertyOp42
 70
     1
102
RTVSPropertyOp43
 70
     1
102
RTVSPropertyOp44
 70
     1
102
RTVSPropertyOp45
 70
     1
102
RTVSPropertyOp46
 70
     1
102
RTVSPropertyOp47
 70
     1
102
RTVSPropertyOp48
 70
     1
102
RTVSPropertyOp49
 70
     1
102
RTVSPropertyOp50
 70
     1
102
RTVSPropertyOp51
 70
     0
102
RTVSPropertyOp52
 70
     0
102
RTVSPropertyOp53
 70
     1
102
RTVSPropertyOp54
 70
     1
102
RTVSPropertyOp55
 70
     1
102
RTVSPropertyOp56
 70
     1
102
RTVSPropertyOp57
 70
     1
102
RTVSPost2010Prop28
280
     1
102
RTVSPost2010PropOp28
 70
     1
102
RTVSPost2010Prop29
280
     1
102
RTVSPost2010PropOp29
 70
     1
102
RTVSPost2010Prop30
280
     0
102
RTVSPost2010PropOp30
 70
     1
102
RTVSPost2010Prop31
280
     0
102
RTVSPost2010PropOp31
 70
     1
102
RTVSPost2010Prop32
280
     0
102
RTVSPost2010PropOp32
 70
     1
102
RTVSPost2010Prop33
280
     0
102
RTVSPost2010PropOp33
 70
     1
102
RTVSPost2010Prop34
280
     0
102
RTVSPost2010PropOp34
 70
     1
102
RTVSPost2010Prop35
280
     0
102
RTVSPost2010PropOp35
 70
     1
102
RTVSPost2010Prop36
280
     0
102
RTVSPost2010PropOp36
 70
     1
102
RTVSPost2010Prop37
 90
       50
102
RTVSPost2010PropOp37
 70
     1
102
RTVSPost2010Prop38
140
0.0
102
RTVSPost2010PropOp38
 70
     1
102
RTVSPost2010Prop39
140
1.0
102
RTVSPost2010PropOp39
 70
     1
102
RTVSPost2010Prop40
 90
        0
102
RTVSPost2010PropOp40
 70
     1
102
RTVSPost2010Prop41ColorIndex
 90
      178
102
RTVSPost2010Prop41ColorRGB
 90
        0
102
RTVSPost2010PropOp41
 70
     1
102
RTVSPost2010Prop42
 90
       50
102
RTVSPost2010PropOp42
 70
     1
102
RTVSPost2010Prop43
 90
        3
102
RTVSPost2010PropOp43
 70
     1
102
RTVSPost2010Prop44ColorIndex
 90
        5
102
RTVSPost2010Prop44ColorRGB
 90
      255
102
RTVSPost2010PropOp44
 70
     1
102
RTVSPost2010Prop45
280
     0
102
RTVSPost2010PropOp45
 70
     1
102
RTVSPost2010Prop46
 90
       50
102
RTVSPost2010PropOp46
 70
     1
102
RTVSPost2010Prop47
 90
       50
102
RTVSPost2010PropOp47
 70
     1
102
RTVSPost2010Prop48
 90
       50
102
RTVSPost2010PropOp48
 70
     1
102
RTVSPost2010Prop49
280
     0
102
RTVSPost2010PropOp49
 70
     1
102
RTVSPost2010Prop50
 90
       50
102
RTVSPost2010PropOp50
 70
     1
102
RTVSPost2010Prop51ColorIndex
 90
      256
102
RTVSPost2010Prop51ColorRGB
 90
-16777216
102
RTVSPost2010PropOp51
 70
     0
102
RTVSPost2010Prop52
140
1.0
102
RTVSPost2010PropOp52
 70
     0
102
RTVSPost2010Prop53
 90
        2
102
RTVSPost2010PropOp53
 70
     1
102
RTVSPost2010Prop54
  1
strokes_ogs.tif
102
RTVSPost2010PropOp54
 70
     1
102
RTVSPost2010Prop55
280
     0
102
RTVSPost2010PropOp55
 70
     1
102
RTVSPost2010Prop56
140
1.0
102
RTVSPost2010PropOp56
 70
     1
102
RTVSPost2010Prop57
140
1.0
102
RTVSPost2010PropOp57
 70
     1
  0
XRECORD
  5
262
102
{ACAD_REACTORS
330
261
102
}
330
261
100
AcDbXrecord
280
     1
102
RTVSPropertyOp0
 70
     1
102
RTVSPropertyOp1
 70
     1
102
RTVSPropertyOp2
 70
     1
102
RTVSPropertyOp3
 70
     1
102
RTVSPropertyOp4
 70
     1
102
RTVSPropertyOp5
 70
     1
102
RTVSPropertyOp6
 70
     1
102
RTVSPropertyOp7
 70
     1
102
RTVSPropertyOp8
 70
     1
102
RTVSPropertyOp9
 70
     1
102
RTVSPropertyOp10
 70
     1
102
RTVSPropertyOp11
 70
     1
102
RTVSPropertyOp12
 70
     1
102
RTVSPropertyOp13
 70
     1
102
RTVSPropertyOp14
 70
     1
102
RTVSPropertyOp15
 70
     1
102
RTVSPropertyOp16
 70
     1
102
RTVSPropertyOp17
 70
     1
102
RTVSPropertyOp18
 70
     1
102
RTVSPropertyOp19
 70
     1
102
RTVSPropertyOp20
 70
     1
102
RTVSPropertyOp21
 70
     1
102
RTVSPropertyOp22
 70
     1
102
RTVSPropertyOp23
 70
     1
102
RTVSPropertyOp24
 70
     1
102
RTVSPropertyOp25
 70
     1
102
RTVSPropertyOp26
 70
     1
102
RTVSPropertyOp27
 70
     1
102
RTVSPropertyOp28
 70
     1
102
RTVSPropertyOp29
 70
     1
102
RTVSPropertyOp30
 70
     1
102
RTVSPropertyOp31
 70
     1
102
RTVSPropertyOp32
 70
     1
102
RTVSPropertyOp33
 70
     1
102
RTVSPropertyOp34
 70
     1
102
RTVSPropertyOp35
 70
     1
102
RTVSPropertyOp36
 70
     1
102
RTVSPropertyOp37
 70
     1
102
RTVSPropertyOp38
 70
     1
102
RTVSPropertyOp39
 70
     1
102
RTVSPropertyOp40
 70
     1
102
RTVSPropertyOp41
 70
     1
102
RTVSPropertyOp42
 70
     1
102
RTVSPropertyOp43
 70
     1
102
RTVSPropertyOp44
 70
     1
102
RTVSPropertyOp45
 70
     1
102
RTVSPropertyOp46
 70
     1
102
RTVSPropertyOp47
 70
     1
102
RTVSPropertyOp48
 70
     1
102
RTVSPropertyOp49
 70
     1
102
RTVSPropertyOp50
 70
     1
102
RTVSPropertyOp51
 70
     0
102
RTVSPropertyOp52
 70
     0
102
RTVSPropertyOp53
 70
     1
102
RTVSPropertyOp54
 70
     1
102
RTVSPropertyOp55
 70
     1
102
RTVSPropertyOp56
 70
     1
102
RTVSPropertyOp57
 70
     1
102
RTVSPost2010Prop28
280
     0
102
RTVSPost2010PropOp28
 70
     1
102
RTVSPost2010Prop29
280
     1
102
RTVSPost2010PropOp29
 70
     1
102
RTVSPost2010Prop30
280
     1
102
RTVSPost2010PropOp30
 70
     1
102
RTVSPost2010Prop31
280
     0
102
RTVSPost2010PropOp31
 70
     1
102
RTVSPost2010Prop32
280
     0
102
RTVSPost2010PropOp32
 70
     1
102
RTVSPost2010Prop33
280
     0
102
RTVSPost2010PropOp33
 70
     1
102
RTVSPost2010Prop34
280
     0
102
RTVSPost2010PropOp34
 70
     1
102
RTVSPost2010Prop35
280
     0
102
RTVSPost2010PropOp35
 70
     1
102
RTVSPost2010Prop36
280
     0
102
RTVSPost2010PropOp36
 70
     1
102
RTVSPost2010Prop37
 90
       50
102
RTVSPost2010PropOp37
 70
     1
102
RTVSPost2010Prop38
140
0.0
102
RTVSPost2010PropOp38
 70
     1
102
RTVSPost2010Prop39
140
1.0
102
RTVSPost2010PropOp39
 70
     1
102
RTVSPost2010Prop40
 90
        0
102
RTVSPost2010PropOp40
 70
     1
102
RTVSPost2010Prop41ColorIndex
 90
      178
102
RTVSPost2010Prop41ColorRGB
 90
        0
102
RTVSPost2010PropOp41
 70
     1
102
RTVSPost2010Prop42
 90
       50
102
RTVSPost2010PropOp42
 70
     1
102
RTVSPost2010Prop43
 90
        3
102
RTVSPost2010PropOp43
 70
     1
102
RTVSPost2010Prop44ColorIndex
 90
        5
102
RTVSPost2010Prop44ColorRGB
 90
      255
102
RTVSPost2010PropOp44
 70
     1
102
RTVSPost2010Prop45
280
     0
102
RTVSPost2010PropOp45
 70
     1
102
RTVSPost2010Prop46
 90
       50
102
RTVSPost2010PropOp46
 70
     1
102
RTVSPost2010Prop47
 90
       50
102
RTVSPost2010PropOp47
 70
     1
102
RTVSPost2010Prop48
 90
       50
102
RTVSPost2010PropOp48
 70
     1
102
RTVSPost2010Prop49
280
     0
102
RTVSPost2010PropOp49
 70
     1
102
RTVSPost2010Prop50
 90
       50
102
RTVSPost2010PropOp50
 70
     1
102
RTVSPost2010Prop51ColorIndex
 90
      256
102
RTVSPost2010Prop51ColorRGB
 90
-16777216
102
RTVSPost2010PropOp51
 70
     0
102
RTVSPost2010Prop52
140
1.0
102
RTVSPost2010PropOp52
 70
     0
102
RTVSPost2010Prop53
 90
        2
102
RTVSPost2010PropOp53
 70
     1
102
RTVSPost2010Prop54
  1
strokes_ogs.tif
102
RTVSPost2010PropOp54
 70
     1
102
RTVSPost2010Prop55
280
     0
102
RTVSPost2010PropOp55
 70
     1
102
RTVSPost2010Prop56
140
1.0
102
RTVSPost2010PropOp56
 70
     1
102
RTVSPost2010Prop57
140
1.0
102
RTVSPost2010PropOp57
 70
     1
  0
XRECORD
  5
26A
102
{ACAD_REACTORS
330
269
102
}
330
269
100
AcDbXrecord
280
     1
102
RTVSPropertyOp0
 70
     1
102
RTVSPropertyOp1
 70
     1
102
RTVSPropertyOp2
 70
     1
102
RTVSPropertyOp3
 70
     1
102
RTVSPropertyOp4
 70
     1
102
RTVSPropertyOp5
 70
     1
102
RTVSPropertyOp6
 70
     1
102
RTVSPropertyOp7
 70
     1
102
RTVSPropertyOp8
 70
     1
102
RTVSPropertyOp9
 70
     1
102
RTVSPropertyOp10
 70
     1
102
RTVSPropertyOp11
 70
     1
102
RTVSPropertyOp12
 70
     1
102
RTVSPropertyOp13
 70
     1
102
RTVSPropertyOp14
 70
     1
102
RTVSPropertyOp15
 70
     1
102
RTVSPropertyOp16
 70
     1
102
RTVSPropertyOp17
 70
     1
102
RTVSPropertyOp18
 70
     1
102
RTVSPropertyOp19
 70
     1
102
RTVSPropertyOp20
 70
     1
102
RTVSPropertyOp21
 70
     1
102
RTVSPropertyOp22
 70
     1
102
RTVSPropertyOp23
 70
     1
102
RTVSPropertyOp24
 70
     1
102
RTVSPropertyOp25
 70
     1
102
RTVSPropertyOp26
 70
     1
102
RTVSPropertyOp27
 70
     1
102
RTVSPropertyOp28
 70
     1
102
RTVSPropertyOp29
 70
     1
102
RTVSPropertyOp30
 70
     1
102
RTVSPropertyOp31
 70
     1
102
RTVSPropertyOp32
 70
     1
102
RTVSPropertyOp33
 70
     1
102
RTVSPropertyOp34
 70
     1
102
RTVSPropertyOp35
 70
     1
102
RTVSPropertyOp36
 70
     1
102
RTVSPropertyOp37
 70
     1
102
RTVSPropertyOp38
 70
     1
102
RTVSPropertyOp39
 70
     1
102
RTVSPropertyOp40
 70
     1
102
RTVSPropertyOp41
 70
     1
102
RTVSPropertyOp42
 70
     1
102
RTVSPropertyOp43
 70
     1
102
RTVSPropertyOp44
 70
     1
102
RTVSPropertyOp45
 70
     1
102
RTVSPropertyOp46
 70
     1
102
RTVSPropertyOp47
 70
     1
102
RTVSPropertyOp48
 70
     1
102
RTVSPropertyOp49
 70
     1
102
RTVSPropertyOp50
 70
     1
102
RTVSPropertyOp51
 70
     0
102
RTVSPropertyOp52
 70
     0
102
RTVSPropertyOp53
 70
     1
102
RTVSPropertyOp54
 70
     1
102
RTVSPropertyOp55
 70
     1
102
RTVSPropertyOp56
 70
     1
102
RTVSPropertyOp57
 70
     1
102
RTVSPost2010Prop28
280
     0
102
RTVSPost2010PropOp28
 70
     1
102
RTVSPost2010Prop29
280
     1
102
RTVSPost2010PropOp29
 70
     1
102
RTVSPost2010Prop30
280
     1
102
RTVSPost2010PropOp30
 70
     1
102
RTVSPost2010Prop31
280
     0
102
RTVSPost2010PropOp31
 70
     1
102
RTVSPost2010Prop32
280
     0
102
RTVSPost2010PropOp32
 70
     1
102
RTVSPost2010Prop33
280
     0
102
RTVSPost2010PropOp33
 70
     1
102
RTVSPost2010Prop34
280
     0
102
RTVSPost2010PropOp34
 70
     1
102
RTVSPost2010Prop35
280
     0
102
RTVSPost2010PropOp35
 70
     1
102
RTVSPost2010Prop36
280
     0
102
RTVSPost2010PropOp36
 70
     1
102
RTVSPost2010Prop37
 90
       50
102
RTVSPost2010PropOp37
 70
     1
102
RTVSPost2010Prop38
140
0.0
102
RTVSPost2010PropOp38
 70
     1
102
RTVSPost2010Prop39
140
1.0
102
RTVSPost2010PropOp39
 70
     1
102
RTVSPost2010Prop40
 90
        0
102
RTVSPost2010PropOp40
 70
     1
102
RTVSPost2010Prop41ColorIndex
 90
      178
102
RTVSPost2010Prop41ColorRGB
 90
        0
102
RTVSPost2010PropOp41
 70
     1
102
RTVSPost2010Prop42
 90
       50
102
RTVSPost2010PropOp42
 70
     1
102
RTVSPost2010Prop43
 90
        3
102
RTVSPost2010PropOp43
 70
     1
102
RTVSPost2010Prop44ColorIndex
 90
        5
102
RTVSPost2010Prop44ColorRGB
 90
      255
102
RTVSPost2010PropOp44
 70
     1
102
RTVSPost2010Prop45
280
     0
102
RTVSPost2010PropOp45
 70
     1
102
RTVSPost2010Prop46
 90
       50
102
RTVSPost2010PropOp46
 70
     1
102
RTVSPost2010Prop47
 90
       50
102
RTVSPost2010PropOp47
 70
     1
102
RTVSPost2010Prop48
 90
       50
102
RTVSPost2010PropOp48
 70
     1
102
RTVSPost2010Prop49
280
     0
102
RTVSPost2010PropOp49
 70
     1
102
RTVSPost2010Prop50
 90
       50
102
RTVSPost2010PropOp50
 70
     1
102
RTVSPost2010Prop51ColorIndex
 90
      256
102
RTVSPost2010Prop51ColorRGB
 90
-16777216
102
RTVSPost2010PropOp51
 70
     0
102
RTVSPost2010Prop52
140
1.0
102
RTVSPost2010PropOp52
 70
     0
102
RTVSPost2010Prop53
 90
        2
102
RTVSPost2010PropOp53
 70
     1
102
RTVSPost2010Prop54
  1
strokes_ogs.tif
102
RTVSPost2010PropOp54
 70
     1
102
RTVSPost2010Prop55
280
     0
102
RTVSPost2010PropOp55
 70
     1
102
RTVSPost2010Prop56
140
1.0
102
RTVSPost2010PropOp56
 70
     1
102
RTVSPost2010Prop57
140
1.0
102
RTVSPost2010PropOp57
 70
     1
  0
XRECORD
  5
272
102
{ACAD_REACTORS
330
271
102
}
330
271
100
AcDbXrecord
280
     1
102
RTVSPropertyOp0
 70
     1
102
RTVSPropertyOp1
 70
     1
102
RTVSPropertyOp2
 70
     1
102
RTVSPropertyOp3
 70
     1
102
RTVSPropertyOp4
 70
     1
102
RTVSPropertyOp5
 70
     1
102
RTVSPropertyOp6
 70
     1
102
RTVSPropertyOp7
 70
     1
102
RTVSPropertyOp8
 70
     1
102
RTVSPropertyOp9
 70
     1
102
RTVSPropertyOp10
 70
     1
102
RTVSPropertyOp11
 70
     1
102
RTVSPropertyOp12
 70
     1
102
RTVSPropertyOp13
 70
     1
102
RTVSPropertyOp14
 70
     1
102
RTVSPropertyOp15
 70
     1
102
RTVSPropertyOp16
 70
     1
102
RTVSPropertyOp17
 70
     1
102
RTVSPropertyOp18
 70
     1
102
RTVSPropertyOp19
 70
     1
102
RTVSPropertyOp20
 70
     1
102
RTVSPropertyOp21
 70
     1
102
RTVSPropertyOp22
 70
     1
102
RTVSPropertyOp23
 70
     1
102
RTVSPropertyOp24
 70
     1
102
RTVSPropertyOp25
 70
     1
102
RTVSPropertyOp26
 70
     1
102
RTVSPropertyOp27
 70
     1
102
RTVSPropertyOp28
 70
     1
102
RTVSPropertyOp29
 70
     1
102
RTVSPropertyOp30
 70
     1
102
RTVSPropertyOp31
 70
     1
102
RTVSPropertyOp32
 70
     1
102
RTVSPropertyOp33
 70
     1
102
RTVSPropertyOp34
 70
     1
102
RTVSPropertyOp35
 70
     1
102
RTVSPropertyOp36
 70
     1
102
RTVSPropertyOp37
 70
     1
102
RTVSPropertyOp38
 70
     1
102
RTVSPropertyOp39
 70
     1
102
RTVSPropertyOp40
 70
     1
102
RTVSPropertyOp41
 70
     1
102
RTVSPropertyOp42
 70
     1
102
RTVSPropertyOp43
 70
     1
102
RTVSPropertyOp44
 70
     1
102
RTVSPropertyOp45
 70
     1
102
RTVSPropertyOp46
 70
     1
102
RTVSPropertyOp47
 70
     1
102
RTVSPropertyOp48
 70
     1
102
RTVSPropertyOp49
 70
     1
102
RTVSPropertyOp50
 70
     1
102
RTVSPropertyOp51
 70
     0
102
RTVSPropertyOp52
 70
     0
102
RTVSPropertyOp53
 70
     1
102
RTVSPropertyOp54
 70
     1
102
RTVSPropertyOp55
 70
     1
102
RTVSPropertyOp56
 70
     1
102
RTVSPropertyOp57
 70
     1
102
RTVSPost2010Prop28
280
     0
102
RTVSPost2010PropOp28
 70
     1
102
RTVSPost2010Prop29
280
     1
102
RTVSPost2010PropOp29
 70
     1
102
RTVSPost2010Prop30
280
     1
102
RTVSPost2010PropOp30
 70
     1
102
RTVSPost2010Prop31
280
     0
102
RTVSPost2010PropOp31
 70
     1
102
RTVSPost2010Prop32
280
     0
102
RTVSPost2010PropOp32
 70
     1
102
RTVSPost2010Prop33
280
     0
102
RTVSPost2010PropOp33
 70
     1
102
RTVSPost2010Prop34
280
     0
102
RTVSPost2010PropOp34
 70
     1
102
RTVSPost2010Prop35
280
     0
102
RTVSPost2010PropOp35
 70
     1
102
RTVSPost2010Prop36
280
     0
102
RTVSPost2010PropOp36
 70
     1
102
RTVSPost2010Prop37
 90
       50
102
RTVSPost2010PropOp37
 70
     1
102
RTVSPost2010Prop38
140
0.0
102
RTVSPost2010PropOp38
 70
     1
102
RTVSPost2010Prop39
140
1.0
102
RTVSPost2010PropOp39
 70
     1
102
RTVSPost2010Prop40
 90
        0
102
RTVSPost2010PropOp40
 70
     1
102
RTVSPost2010Prop41ColorIndex
 90
      178
102
RTVSPost2010Prop41ColorRGB
 90
        0
102
RTVSPost2010PropOp41
 70
     1
102
RTVSPost2010Prop42
 90
       50
102
RTVSPost2010PropOp42
 70
     1
102
RTVSPost2010Prop43
 90
        3
102
RTVSPost2010PropOp43
 70
     1
102
RTVSPost2010Prop44ColorIndex
 90
        5
102
RTVSPost2010Prop44ColorRGB
 90
      255
102
RTVSPost2010PropOp44
 70
     1
102
RTVSPost2010Prop45
280
     0
102
RTVSPost2010PropOp45
 70
     1
102
RTVSPost2010Prop46
 90
       50
102
RTVSPost2010PropOp46
 70
     1
102
RTVSPost2010Prop47
 90
       50
102
RTVSPost2010PropOp47
 70
     1
102
RTVSPost2010Prop48
 90
       50
102
RTVSPost2010PropOp48
 70
     1
102
RTVSPost2010Prop49
280
     0
102
RTVSPost2010PropOp49
 70
     1
102
RTVSPost2010Prop50
 90
       50
102
RTVSPost2010PropOp50
 70
     1
102
RTVSPost2010Prop51ColorIndex
 90
      256
102
RTVSPost2010Prop51ColorRGB
 90
-16777216
102
RTVSPost2010PropOp51
 70
     0
102
RTVSPost2010Prop52
140
1.0
102
RTVSPost2010PropOp52
 70
     0
102
RTVSPost2010Prop53
 90
        2
102
RTVSPost2010PropOp53
 70
     1
102
RTVSPost2010Prop54
  1
strokes_ogs.tif
102
RTVSPost2010PropOp54
 70
     1
102
RTVSPost2010Prop55
280
     0
102
RTVSPost2010PropOp55
 70
     1
102
RTVSPost2010Prop56
140
1.0
102
RTVSPost2010PropOp56
 70
     1
102
RTVSPost2010Prop57
140
1.0
102
RTVSPost2010PropOp57
 70
     1
  0
XRECORD
  5
266
102
{ACAD_REACTORS
330
265
102
}
330
265
100
AcDbXrecord
280
     1
102
RTVSPropertyOp0
 70
     1
102
RTVSPropertyOp1
 70
     1
102
RTVSPropertyOp2
 70
     1
102
RTVSPropertyOp3
 70
     1
102
RTVSPropertyOp4
 70
     1
102
RTVSPropertyOp5
 70
     1
102
RTVSPropertyOp6
 70
     1
102
RTVSPropertyOp7
 70
     1
102
RTVSPropertyOp8
 70
     1
102
RTVSPropertyOp9
 70
     1
102
RTVSPropertyOp10
 70
     1
102
RTVSPropertyOp11
 70
     1
102
RTVSPropertyOp12
 70
     1
102
RTVSPropertyOp13
 70
     1
102
RTVSPropertyOp14
 70
     1
102
RTVSPropertyOp15
 70
     1
102
RTVSPropertyOp16
 70
     1
102
RTVSPropertyOp17
 70
     1
102
RTVSPropertyOp18
 70
     1
102
RTVSPropertyOp19
 70
     1
102
RTVSPropertyOp20
 70
     1
102
RTVSPropertyOp21
 70
     1
102
RTVSPropertyOp22
 70
     1
102
RTVSPropertyOp23
 70
     1
102
RTVSPropertyOp24
 70
     1
102
RTVSPropertyOp25
 70
     1
102
RTVSPropertyOp26
 70
     1
102
RTVSPropertyOp27
 70
     1
102
RTVSPropertyOp28
 70
     1
102
RTVSPropertyOp29
 70
     1
102
RTVSPropertyOp30
 70
     1
102
RTVSPropertyOp31
 70
     1
102
RTVSPropertyOp32
 70
     1
102
RTVSPropertyOp33
 70
     1
102
RTVSPropertyOp34
 70
     1
102
RTVSPropertyOp35
 70
     1
102
RTVSPropertyOp36
 70
     1
102
RTVSPropertyOp37
 70
     1
102
RTVSPropertyOp38
 70
     1
102
RTVSPropertyOp39
 70
     1
102
RTVSPropertyOp40
 70
     1
102
RTVSPropertyOp41
 70
     1
102
RTVSPropertyOp42
 70
     1
102
RTVSPropertyOp43
 70
     1
102
RTVSPropertyOp44
 70
     1
102
RTVSPropertyOp45
 70
     1
102
RTVSPropertyOp46
 70
     1
102
RTVSPropertyOp47
 70
     1
102
RTVSPropertyOp48
 70
     1
102
RTVSPropertyOp49
 70
     1
102
RTVSPropertyOp50
 70
     1
102
RTVSPropertyOp51
 70
     0
102
RTVSPropertyOp52
 70
     0
102
RTVSPropertyOp53
 70
     1
102
RTVSPropertyOp54
 70
     1
102
RTVSPropertyOp55
 70
     1
102
RTVSPropertyOp56
 70
     1
102
RTVSPropertyOp57
 70
     1
102
RTVSPost2010Prop28
280
     0
102
RTVSPost2010PropOp28
 70
     1
102
RTVSPost2010Prop29
280
     1
102
RTVSPost2010PropOp29
 70
     1
102
RTVSPost2010Prop30
280
     1
102
RTVSPost2010PropOp30
 70
     1
102
RTVSPost2010Prop31
280
     0
102
RTVSPost2010PropOp31
 70
     1
102
RTVSPost2010Prop32
280
     0
102
RTVSPost2010PropOp32
 70
     1
102
RTVSPost2010Prop33
280
     0
102
RTVSPost2010PropOp33
 70
     1
102
RTVSPost2010Prop34
280
     0
102
RTVSPost2010PropOp34
 70
     1
102
RTVSPost2010Prop35
280
     0
102
RTVSPost2010PropOp35
 70
     1
102
RTVSPost2010Prop36
280
     0
102
RTVSPost2010PropOp36
 70
     1
102
RTVSPost2010Prop37
 90
       50
102
RTVSPost2010PropOp37
 70
     1
102
RTVSPost2010Prop38
140
0.0
102
RTVSPost2010PropOp38
 70
     1
102
RTVSPost2010Prop39
140
1.0
102
RTVSPost2010PropOp39
 70
     1
102
RTVSPost2010Prop40
 90
        0
102
RTVSPost2010PropOp40
 70
     1
102
RTVSPost2010Prop41ColorIndex
 90
      178
102
RTVSPost2010Prop41ColorRGB
 90
        0
102
RTVSPost2010PropOp41
 70
     1
102
RTVSPost2010Prop42
 90
       50
102
RTVSPost2010PropOp42
 70
     1
102
RTVSPost2010Prop43
 90
        3
102
RTVSPost2010PropOp43
 70
     1
102
RTVSPost2010Prop44ColorIndex
 90
        5
102
RTVSPost2010Prop44ColorRGB
 90
      255
102
RTVSPost2010PropOp44
 70
     1
102
RTVSPost2010Prop45
280
     0
102
RTVSPost2010PropOp45
 70
     1
102
RTVSPost2010Prop46
 90
       50
102
RTVSPost2010PropOp46
 70
     1
102
RTVSPost2010Prop47
 90
       50
102
RTVSPost2010PropOp47
 70
     1
102
RTVSPost2010Prop48
 90
       50
102
RTVSPost2010PropOp48
 70
     1
102
RTVSPost2010Prop49
280
     0
102
RTVSPost2010PropOp49
 70
     1
102
RTVSPost2010Prop50
 90
       50
102
RTVSPost2010PropOp50
 70
     1
102
RTVSPost2010Prop51ColorIndex
 90
      256
102
RTVSPost2010Prop51ColorRGB
 90
-16777216
102
RTVSPost2010PropOp51
 70
     0
102
RTVSPost2010Prop52
140
1.0
102
RTVSPost2010PropOp52
 70
     0
102
RTVSPost2010Prop53
 90
        2
102
RTVSPost2010PropOp53
 70
     1
102
RTVSPost2010Prop54
  1
strokes_ogs.tif
102
RTVSPost2010PropOp54
 70
     1
102
RTVSPost2010Prop55
280
     0
102
RTVSPost2010PropOp55
 70
     1
102
RTVSPost2010Prop56
140
1.0
102
RTVSPost2010PropOp56
 70
     1
102
RTVSPost2010Prop57
140
1.0
102
RTVSPost2010PropOp57
 70
     1
  0
XRECORD
  5
268
102
{ACAD_REACTORS
330
267
102
}
330
267
100
AcDbXrecord
280
     1
102
RTVSPropertyOp0
 70
     1
102
RTVSPropertyOp1
 70
     1
102
RTVSPropertyOp2
 70
     1
102
RTVSPropertyOp3
 70
     1
102
RTVSPropertyOp4
 70
     1
102
RTVSPropertyOp5
 70
     1
102
RTVSPropertyOp6
 70
     1
102
RTVSPropertyOp7
 70
     1
102
RTVSPropertyOp8
 70
     1
102
RTVSPropertyOp9
 70
     1
102
RTVSPropertyOp10
 70
     1
102
RTVSPropertyOp11
 70
     1
102
RTVSPropertyOp12
 70
     1
102
RTVSPropertyOp13
 70
     1
102
RTVSPropertyOp14
 70
     1
102
RTVSPropertyOp15
 70
     1
102
RTVSPropertyOp16
 70
     1
102
RTVSPropertyOp17
 70
     1
102
RTVSPropertyOp18
 70
     1
102
RTVSPropertyOp19
 70
     1
102
RTVSPropertyOp20
 70
     1
102
RTVSPropertyOp21
 70
     1
102
RTVSPropertyOp22
 70
     1
102
RTVSPropertyOp23
 70
     1
102
RTVSPropertyOp24
 70
     1
102
RTVSPropertyOp25
 70
     1
102
RTVSPropertyOp26
 70
     1
102
RTVSPropertyOp27
 70
     1
102
RTVSPropertyOp28
 70
     1
102
RTVSPropertyOp29
 70
     1
102
RTVSPropertyOp30
 70
     1
102
RTVSPropertyOp31
 70
     1
102
RTVSPropertyOp32
 70
     1
102
RTVSPropertyOp33
 70
     1
102
RTVSPropertyOp34
 70
     1
102
RTVSPropertyOp35
 70
     1
102
RTVSPropertyOp36
 70
     1
102
RTVSPropertyOp37
 70
     1
102
RTVSPropertyOp38
 70
     1
102
RTVSPropertyOp39
 70
     1
102
RTVSPropertyOp40
 70
     1
102
RTVSPropertyOp41
 70
     1
102
RTVSPropertyOp42
 70
     1
102
RTVSPropertyOp43
 70
     1
102
RTVSPropertyOp44
 70
     1
102
RTVSPropertyOp45
 70
     1
102
RTVSPropertyOp46
 70
     1
102
RTVSPropertyOp47
 70
     1
102
RTVSPropertyOp48
 70
     1
102
RTVSPropertyOp49
 70
     1
102
RTVSPropertyOp50
 70
     1
102
RTVSPropertyOp51
 70
     0
102
RTVSPropertyOp52
 70
     0
102
RTVSPropertyOp53
 70
     1
102
RTVSPropertyOp54
 70
     1
102
RTVSPropertyOp55
 70
     1
102
RTVSPropertyOp56
 70
     1
102
RTVSPropertyOp57
 70
     1
102
RTVSPost2010Prop28
280
     0
102
RTVSPost2010PropOp28
 70
     1
102
RTVSPost2010Prop29
280
     1
102
RTVSPost2010PropOp29
 70
     1
102
RTVSPost2010Prop30
280
     1
102
RTVSPost2010PropOp30
 70
     1
102
RTVSPost2010Prop31
280
     0
102
RTVSPost2010PropOp31
 70
     1
102
RTVSPost2010Prop32
280
     0
102
RTVSPost2010PropOp32
 70
     1
102
RTVSPost2010Prop33
280
     0
102
RTVSPost2010PropOp33
 70
     1
102
RTVSPost2010Prop34
280
     0
102
RTVSPost2010PropOp34
 70
     1
102
RTVSPost2010Prop35
280
     0
102
RTVSPost2010PropOp35
 70
     1
102
RTVSPost2010Prop36
280
     0
102
RTVSPost2010PropOp36
 70
     1
102
RTVSPost2010Prop37
 90
       50
102
RTVSPost2010PropOp37
 70
     1
102
RTVSPost2010Prop38
140
0.0
102
RTVSPost2010PropOp38
 70
     1
102
RTVSPost2010Prop39
140
1.0
102
RTVSPost2010PropOp39
 70
     1
102
RTVSPost2010Prop40
 90
        0
102
RTVSPost2010PropOp40
 70
     1
102
RTVSPost2010Prop41ColorIndex
 90
      178
102
RTVSPost2010Prop41ColorRGB
 90
        0
102
RTVSPost2010PropOp41
 70
     1
102
RTVSPost2010Prop42
 90
       50
102
RTVSPost2010PropOp42
 70
     1
102
RTVSPost2010Prop43
 90
        3
102
RTVSPost2010PropOp43
 70
     1
102
RTVSPost2010Prop44ColorIndex
 90
        5
102
RTVSPost2010Prop44ColorRGB
 90
      255
102
RTVSPost2010PropOp44
 70
     1
102
RTVSPost2010Prop45
280
     0
102
RTVSPost2010PropOp45
 70
     1
102
RTVSPost2010Prop46
 90
       50
102
RTVSPost2010PropOp46
 70
     1
102
RTVSPost2010Prop47
 90
       50
102
RTVSPost2010PropOp47
 70
     1
102
RTVSPost2010Prop48
 90
       50
102
RTVSPost2010PropOp48
 70
     1
102
RTVSPost2010Prop49
280
     0
102
RTVSPost2010PropOp49
 70
     1
102
RTVSPost2010Prop50
 90
       50
102
RTVSPost2010PropOp50
 70
     1
102
RTVSPost2010Prop51ColorIndex
 90
      256
102
RTVSPost2010Prop51ColorRGB
 90
-16777216
102
RTVSPost2010PropOp51
 70
     0
102
RTVSPost2010Prop52
140
1.0
102
RTVSPost2010PropOp52
 70
     0
102
RTVSPost2010Prop53
 90
        2
102
RTVSPost2010PropOp53
 70
     1
102
RTVSPost2010Prop54
  1
strokes_ogs.tif
102
RTVSPost2010PropOp54
 70
     1
102
RTVSPost2010Prop55
280
     0
102
RTVSPost2010PropOp55
 70
     1
102
RTVSPost2010Prop56
140
1.0
102
RTVSPost2010PropOp56
 70
     1
102
RTVSPost2010Prop57
140
1.0
102
RTVSPost2010PropOp57
 70
     1
  0
XRECORD
  5
278
102
{ACAD_REACTORS
330
277
102
}
330
277
100
AcDbXrecord
280
     1
102
RTVSPropertyOp0
 70
     0
102
RTVSPropertyOp1
 70
     0
102
RTVSPropertyOp2
 70
     0
102
RTVSPropertyOp3
 70
     0
102
RTVSPropertyOp4
 70
     0
102
RTVSPropertyOp5
 70
     0
102
RTVSPropertyOp6
 70
     0
102
RTVSPropertyOp7
 70
     0
102
RTVSPropertyOp8
 70
     0
102
RTVSPropertyOp9
 70
     0
102
RTVSPropertyOp10
 70
     0
102
RTVSPropertyOp11
 70
     0
102
RTVSPropertyOp12
 70
     0
102
RTVSPropertyOp13
 70
     0
102
RTVSPropertyOp14
 70
     2
102
RTVSPropertyOp15
 70
     0
102
RTVSPropertyOp16
 70
     0
102
RTVSPropertyOp17
 70
     0
102
RTVSPropertyOp18
 70
     0
102
RTVSPropertyOp19
 70
     0
102
RTVSPropertyOp20
 70
     0
102
RTVSPropertyOp21
 70
     0
102
RTVSPropertyOp22
 70
     0
102
RTVSPropertyOp23
 70
     0
102
RTVSPropertyOp24
 70
     0
102
RTVSPropertyOp25
 70
     0
102
RTVSPropertyOp26
 70
     0
102
RTVSPropertyOp27
 70
     0
102
RTVSPropertyOp28
 70
     0
102
RTVSPropertyOp29
 70
     0
102
RTVSPropertyOp30
 70
     0
102
RTVSPropertyOp31
 70
     0
102
RTVSPropertyOp32
 70
     0
102
RTVSPropertyOp33
 70
     0
102
RTVSPropertyOp34
 70
     0
102
RTVSPropertyOp35
 70
     0
102
RTVSPropertyOp36
 70
     0
102
RTVSPropertyOp37
 70
     0
102
RTVSPropertyOp38
 70
     0
102
RTVSPropertyOp39
 70
     0
102
RTVSPropertyOp40
 70
     0
102
RTVSPropertyOp41
 70
     0
102
RTVSPropertyOp42
 70
     0
102
RTVSPropertyOp43
 70
     0
102
RTVSPropertyOp44
 70
     0
102
RTVSPropertyOp45
 70
     0
102
RTVSPropertyOp46
 70
     0
102
RTVSPropertyOp47
 70
     0
102
RTVSPropertyOp48
 70
     0
102
RTVSPropertyOp49
 70
     0
102
RTVSPropertyOp50
 70
     0
102
RTVSPropertyOp51
 70
     0
102
RTVSPropertyOp52
 70
     0
102
RTVSPropertyOp53
 70
     0
102
RTVSPropertyOp54
 70
     0
102
RTVSPropertyOp55
 70
     0
102
RTVSPropertyOp56
 70
     0
102
RTVSPropertyOp57
 70
     0
102
RTVSPost2010Prop28
280
     0
102
RTVSPost2010PropOp28
 70
     0
102
RTVSPost2010Prop29
280
     1
102
RTVSPost2010PropOp29
 70
     0
102
RTVSPost2010Prop30
280
     1
102
RTVSPost2010PropOp30
 70
     0
102
RTVSPost2010Prop31
280
     0
102
RTVSPost2010PropOp31
 70
     0
102
RTVSPost2010Prop32
280
     0
102
RTVSPost2010PropOp32
 70
     0
102
RTVSPost2010Prop33
280
     0
102
RTVSPost2010PropOp33
 70
     0
102
RTVSPost2010Prop34
280
     0
102
RTVSPost2010PropOp34
 70
     0
102
RTVSPost2010Prop35
280
     0
102
RTVSPost2010PropOp35
 70
     0
102
RTVSPost2010Prop36
280
     0
102
RTVSPost2010PropOp36
 70
     0
102
RTVSPost2010Prop37
 90
       50
102
RTVSPost2010PropOp37
 70
     0
102
RTVSPost2010Prop38
140
0.0
102
RTVSPost2010PropOp38
 70
     0
102
RTVSPost2010Prop39
140
1.0
102
RTVSPost2010PropOp39
 70
     0
102
RTVSPost2010Prop40
 90
        0
102
RTVSPost2010PropOp40
 70
     0
102
RTVSPost2010Prop41ColorIndex
 90
      178
102
RTVSPost2010Prop41ColorRGB
 90
        0
102
RTVSPost2010PropOp41
 70
     0
102
RTVSPost2010Prop42
 90
       50
102
RTVSPost2010PropOp42
 70
     0
102
RTVSPost2010Prop43
 90
        3
102
RTVSPost2010PropOp43
 70
     0
102
RTVSPost2010Prop44ColorIndex
 90
        5
102
RTVSPost2010Prop44ColorRGB
 90
      255
102
RTVSPost2010PropOp44
 70
     0
102
RTVSPost2010Prop45
280
     0
102
RTVSPost2010PropOp45
 70
     0
102
RTVSPost2010Prop46
 90
       50
102
RTVSPost2010PropOp46
 70
     0
102
RTVSPost2010Prop47
 90
       50
102
RTVSPost2010PropOp47
 70
     0
102
RTVSPost2010Prop48
 90
       50
102
RTVSPost2010PropOp48
 70
     0
102
RTVSPost2010Prop49
280
     0
102
RTVSPost2010PropOp49
 70
     0
102
RTVSPost2010Prop50
 90
       50
102
RTVSPost2010PropOp50
 70
     0
102
RTVSPost2010Prop51ColorIndex
 90
      256
102
RTVSPost2010Prop51ColorRGB
 90
-16777216
102
RTVSPost2010PropOp51
 70
     0
102
RTVSPost2010Prop52
140
1.0
102
RTVSPost2010PropOp52
 70
     0
102
RTVSPost2010Prop53
 90
        2
102
RTVSPost2010PropOp53
 70
     0
102
RTVSPost2010Prop54
  1
strokes_ogs.tif
102
RTVSPost2010PropOp54
 70
     0
102
RTVSPost2010Prop55
280
     0
102
RTVSPost2010PropOp55
 70
     0
102
RTVSPost2010Prop56
140
1.0
102
RTVSPost2010PropOp56
 70
     0
102
RTVSPost2010Prop57
140
1.0
102
RTVSPost2010PropOp57
 70
     0
  0
XRECORD
  5
270
102
{ACAD_REACTORS
330
26F
102
}
330
26F
100
AcDbXrecord
280
     1
102
RTVSPropertyOp0
 70
     1
102
RTVSPropertyOp1
 70
     1
102
RTVSPropertyOp2
 70
     1
102
RTVSPropertyOp3
 70
     1
102
RTVSPropertyOp4
 70
     1
102
RTVSPropertyOp5
 70
     1
102
RTVSPropertyOp6
 70
     1
102
RTVSPropertyOp7
 70
     1
102
RTVSPropertyOp8
 70
     1
102
RTVSPropertyOp9
 70
     1
102
RTVSPropertyOp10
 70
     1
102
RTVSPropertyOp11
 70
     1
102
RTVSPropertyOp12
 70
     1
102
RTVSPropertyOp13
 70
     1
102
RTVSPropertyOp14
 70
     1
102
RTVSPropertyOp15
 70
     1
102
RTVSPropertyOp16
 70
     1
102
RTVSPropertyOp17
 70
     1
102
RTVSPropertyOp18
 70
     1
102
RTVSPropertyOp19
 70
     1
102
RTVSPropertyOp20
 70
     1
102
RTVSPropertyOp21
 70
     1
102
RTVSPropertyOp22
 70
     1
102
RTVSPropertyOp23
 70
     1
102
RTVSPropertyOp24
 70
     1
102
RTVSPropertyOp25
 70
     1
102
RTVSPropertyOp26
 70
     1
102
RTVSPropertyOp27
 70
     1
102
RTVSPropertyOp28
 70
     1
102
RTVSPropertyOp29
 70
     1
102
RTVSPropertyOp30
 70
     1
102
RTVSPropertyOp31
 70
     1
102
RTVSPropertyOp32
 70
     1
102
RTVSPropertyOp33
 70
     1
102
RTVSPropertyOp34
 70
     1
102
RTVSPropertyOp35
 70
     1
102
RTVSPropertyOp36
 70
     1
102
RTVSPropertyOp37
 70
     1
102
RTVSPropertyOp38
 70
     1
102
RTVSPropertyOp39
 70
     1
102
RTVSPropertyOp40
 70
     1
102
RTVSPropertyOp41
 70
     1
102
RTVSPropertyOp42
 70
     1
102
RTVSPropertyOp43
 70
     1
102
RTVSPropertyOp44
 70
     1
102
RTVSPropertyOp45
 70
     1
102
RTVSPropertyOp46
 70
     1
102
RTVSPropertyOp47
 70
     1
102
RTVSPropertyOp48
 70
     1
102
RTVSPropertyOp49
 70
     1
102
RTVSPropertyOp50
 70
     1
102
RTVSPropertyOp51
 70
     0
102
RTVSPropertyOp52
 70
     0
102
RTVSPropertyOp53
 70
     1
102
RTVSPropertyOp54
 70
     1
102
RTVSPropertyOp55
 70
     1
102
RTVSPropertyOp56
 70
     1
102
RTVSPropertyOp57
 70
     1
102
RTVSPost2010Prop28
280
     0
102
RTVSPost2010PropOp28
 70
     1
102
RTVSPost2010Prop29
280
     1
102
RTVSPost2010PropOp29
 70
     1
102
RTVSPost2010Prop30
280
     1
102
RTVSPost2010PropOp30
 70
     1
102
RTVSPost2010Prop31
280
     0
102
RTVSPost2010PropOp31
 70
     1
102
RTVSPost2010Prop32
280
     0
102
RTVSPost2010PropOp32
 70
     1
102
RTVSPost2010Prop33
280
     0
102
RTVSPost2010PropOp33
 70
     1
102
RTVSPost2010Prop34
280
     0
102
RTVSPost2010PropOp34
 70
     1
102
RTVSPost2010Prop35
280
     0
102
RTVSPost2010PropOp35
 70
     1
102
RTVSPost2010Prop36
280
     0
102
RTVSPost2010PropOp36
 70
     1
102
RTVSPost2010Prop37
 90
       50
102
RTVSPost2010PropOp37
 70
     1
102
RTVSPost2010Prop38
140
0.0
102
RTVSPost2010PropOp38
 70
     1
102
RTVSPost2010Prop39
140
1.0
102
RTVSPost2010PropOp39
 70
     1
102
RTVSPost2010Prop40
 90
        0
102
RTVSPost2010PropOp40
 70
     1
102
RTVSPost2010Prop41ColorIndex
 90
      178
102
RTVSPost2010Prop41ColorRGB
 90
        0
102
RTVSPost2010PropOp41
 70
     1
102
RTVSPost2010Prop42
 90
       50
102
RTVSPost2010PropOp42
 70
     1
102
RTVSPost2010Prop43
 90
        3
102
RTVSPost2010PropOp43
 70
     1
102
RTVSPost2010Prop44ColorIndex
 90
        5
102
RTVSPost2010Prop44ColorRGB
 90
      255
102
RTVSPost2010PropOp44
 70
     1
102
RTVSPost2010Prop45
280
     0
102
RTVSPost2010PropOp45
 70
     1
102
RTVSPost2010Prop46
 90
       50
102
RTVSPost2010PropOp46
 70
     1
102
RTVSPost2010Prop47
 90
       50
102
RTVSPost2010PropOp47
 70
     1
102
RTVSPost2010Prop48
 90
       50
102
RTVSPost2010PropOp48
 70
     1
102
RTVSPost2010Prop49
280
     0
102
RTVSPost2010PropOp49
 70
     1
102
RTVSPost2010Prop50
 90
       50
102
RTVSPost2010PropOp50
 70
     1
102
RTVSPost2010Prop51ColorIndex
 90
      256
102
RTVSPost2010Prop51ColorRGB
 90
-16777216
102
RTVSPost2010PropOp51
 70
     0
102
RTVSPost2010Prop52
140
1.0
102
RTVSPost2010PropOp52
 70
     0
102
RTVSPost2010Prop53
 90
        2
102
RTVSPost2010PropOp53
 70
     1
102
RTVSPost2010Prop54
  1
strokes_ogs.tif
102
RTVSPost2010PropOp54
 70
     1
102
RTVSPost2010Prop55
280
     0
102
RTVSPost2010PropOp55
 70
     1
102
RTVSPost2010Prop56
140
1.0
102
RTVSPost2010PropOp56
 70
     1
102
RTVSPost2010Prop57
140
1.0
102
RTVSPost2010PropOp57
 70
     1
  0
XRECORD
  5
254
102
{ACAD_REACTORS
330
253
102
}
330
253
100
AcDbXrecord
280
     1
102
RTVSPropertyOp0
 70
     1
102
RTVSPropertyOp1
 70
     1
102
RTVSPropertyOp2
 70
     1
102
RTVSPropertyOp3
 70
     1
102
RTVSPropertyOp4
 70
     1
102
RTVSPropertyOp5
 70
     1
102
RTVSPropertyOp6
 70
     1
102
RTVSPropertyOp7
 70
     1
102
RTVSPropertyOp8
 70
     1
102
RTVSPropertyOp9
 70
     1
102
RTVSPropertyOp10
 70
     1
102
RTVSPropertyOp11
 70
     1
102
RTVSPropertyOp12
 70
     1
102
RTVSPropertyOp13
 70
     1
102
RTVSPropertyOp14
 70
     1
102
RTVSPropertyOp15
 70
     1
102
RTVSPropertyOp16
 70
     1
102
RTVSPropertyOp17
 70
     1
102
RTVSPropertyOp18
 70
     1
102
RTVSPropertyOp19
 70
     1
102
RTVSPropertyOp20
 70
     1
102
RTVSPropertyOp21
 70
     1
102
RTVSPropertyOp22
 70
     1
102
RTVSPropertyOp23
 70
     1
102
RTVSPropertyOp24
 70
     1
102
RTVSPropertyOp25
 70
     1
102
RTVSPropertyOp26
 70
     1
102
RTVSPropertyOp27
 70
     1
102
RTVSPropertyOp28
 70
     1
102
RTVSPropertyOp29
 70
     1
102
RTVSPropertyOp30
 70
     1
102
RTVSPropertyOp31
 70
     1
102
RTVSPropertyOp32
 70
     1
102
RTVSPropertyOp33
 70
     1
102
RTVSPropertyOp34
 70
     1
102
RTVSPropertyOp35
 70
     1
102
RTVSPropertyOp36
 70
     1
102
RTVSPropertyOp37
 70
     1
102
RTVSPropertyOp38
 70
     1
102
RTVSPropertyOp39
 70
     1
102
RTVSPropertyOp40
 70
     1
102
RTVSPropertyOp41
 70
     1
102
RTVSPropertyOp42
 70
     1
102
RTVSPropertyOp43
 70
     1
102
RTVSPropertyOp44
 70
     1
102
RTVSPropertyOp45
 70
     1
102
RTVSPropertyOp46
 70
     1
102
RTVSPropertyOp47
 70
     1
102
RTVSPropertyOp48
 70
     1
102
RTVSPropertyOp49
 70
     1
102
RTVSPropertyOp50
 70
     1
102
RTVSPropertyOp51
 70
     0
102
RTVSPropertyOp52
 70
     0
102
RTVSPropertyOp53
 70
     1
102
RTVSPropertyOp54
 70
     1
102
RTVSPropertyOp55
 70
     1
102
RTVSPropertyOp56
 70
     1
102
RTVSPropertyOp57
 70
     1
102
RTVSPost2010Prop28
280
     0
102
RTVSPost2010PropOp28
 70
     1
102
RTVSPost2010Prop29
280
     1
102
RTVSPost2010PropOp29
 70
     1
102
RTVSPost2010Prop30
280
     1
102
RTVSPost2010PropOp30
 70
     1
102
RTVSPost2010Prop31
280
     0
102
RTVSPost2010PropOp31
 70
     1
102
RTVSPost2010Prop32
280
     0
102
RTVSPost2010PropOp32
 70
     1
102
RTVSPost2010Prop33
280
     0
102
RTVSPost2010PropOp33
 70
     1
102
RTVSPost2010Prop34
280
     0
102
RTVSPost2010PropOp34
 70
     1
102
RTVSPost2010Prop35
280
     0
102
RTVSPost2010PropOp35
 70
     1
102
RTVSPost2010Prop36
280
     0
102
RTVSPost2010PropOp36
 70
     1
102
RTVSPost2010Prop37
 90
       50
102
RTVSPost2010PropOp37
 70
     1
102
RTVSPost2010Prop38
140
0.0
102
RTVSPost2010PropOp38
 70
     1
102
RTVSPost2010Prop39
140
1.0
102
RTVSPost2010PropOp39
 70
     1
102
RTVSPost2010Prop40
 90
        0
102
RTVSPost2010PropOp40
 70
     1
102
RTVSPost2010Prop41ColorIndex
 90
      178
102
RTVSPost2010Prop41ColorRGB
 90
        0
102
RTVSPost2010PropOp41
 70
     1
102
RTVSPost2010Prop42
 90
       50
102
RTVSPost2010PropOp42
 70
     1
102
RTVSPost2010Prop43
 90
        3
102
RTVSPost2010PropOp43
 70
     1
102
RTVSPost2010Prop44ColorIndex
 90
        5
102
RTVSPost2010Prop44ColorRGB
 90
      255
102
RTVSPost2010PropOp44
 70
     1
102
RTVSPost2010Prop45
280
     0
102
RTVSPost2010PropOp45
 70
     1
102
RTVSPost2010Prop46
 90
       50
102
RTVSPost2010PropOp46
 70
     1
102
RTVSPost2010Prop47
 90
       50
102
RTVSPost2010PropOp47
 70
     1
102
RTVSPost2010Prop48
 90
       50
102
RTVSPost2010PropOp48
 70
     1
102
RTVSPost2010Prop49
280
     0
102
RTVSPost2010PropOp49
 70
     1
102
RTVSPost2010Prop50
 90
       50
102
RTVSPost2010PropOp50
 70
     1
102
RTVSPost2010Prop51ColorIndex
 90
      256
102
RTVSPost2010Prop51ColorRGB
 90
-16777216
102
RTVSPost2010PropOp51
 70
     0
102
RTVSPost2010Prop52
140
1.0
102
RTVSPost2010PropOp52
 70
     0
102
RTVSPost2010Prop53
 90
        2
102
RTVSPost2010PropOp53
 70
     1
102
RTVSPost2010Prop54
  1
strokes_ogs.tif
102
RTVSPost2010PropOp54
 70
     1
102
RTVSPost2010Prop55
280
     0
102
RTVSPost2010PropOp55
 70
     1
102
RTVSPost2010Prop56
140
1.0
102
RTVSPost2010PropOp56
 70
     1
102
RTVSPost2010Prop57
140
1.0
102
RTVSPost2010PropOp57
 70
     1
  0
XRECORD
  5
256
102
{ACAD_REACTORS
330
255
102
}
330
255
100
AcDbXrecord
280
     1
102
RTVSPropertyOp0
 70
     1
102
RTVSPropertyOp1
 70
     1
102
RTVSPropertyOp2
 70
     1
102
RTVSPropertyOp3
 70
     1
102
RTVSPropertyOp4
 70
     1
102
RTVSPropertyOp5
 70
     1
102
RTVSPropertyOp6
 70
     1
102
RTVSPropertyOp7
 70
     1
102
RTVSPropertyOp8
 70
     1
102
RTVSPropertyOp9
 70
     1
102
RTVSPropertyOp10
 70
     1
102
RTVSPropertyOp11
 70
     1
102
RTVSPropertyOp12
 70
     1
102
RTVSPropertyOp13
 70
     1
102
RTVSPropertyOp14
 70
     1
102
RTVSPropertyOp15
 70
     1
102
RTVSPropertyOp16
 70
     1
102
RTVSPropertyOp17
 70
     1
102
RTVSPropertyOp18
 70
     1
102
RTVSPropertyOp19
 70
     1
102
RTVSPropertyOp20
 70
     1
102
RTVSPropertyOp21
 70
     1
102
RTVSPropertyOp22
 70
     1
102
RTVSPropertyOp23
 70
     1
102
RTVSPropertyOp24
 70
     1
102
RTVSPropertyOp25
 70
     1
102
RTVSPropertyOp26
 70
     1
102
RTVSPropertyOp27
 70
     1
102
RTVSPropertyOp28
 70
     1
102
RTVSPropertyOp29
 70
     1
102
RTVSPropertyOp30
 70
     1
102
RTVSPropertyOp31
 70
     1
102
RTVSPropertyOp32
 70
     1
102
RTVSPropertyOp33
 70
     1
102
RTVSPropertyOp34
 70
     1
102
RTVSPropertyOp35
 70
     1
102
RTVSPropertyOp36
 70
     1
102
RTVSPropertyOp37
 70
     1
102
RTVSPropertyOp38
 70
     1
102
RTVSPropertyOp39
 70
     1
102
RTVSPropertyOp40
 70
     1
102
RTVSPropertyOp41
 70
     1
102
RTVSPropertyOp42
 70
     1
102
RTVSPropertyOp43
 70
     1
102
RTVSPropertyOp44
 70
     1
102
RTVSPropertyOp45
 70
     1
102
RTVSPropertyOp46
 70
     1
102
RTVSPropertyOp47
 70
     1
102
RTVSPropertyOp48
 70
     1
102
RTVSPropertyOp49
 70
     1
102
RTVSPropertyOp50
 70
     1
102
RTVSPropertyOp51
 70
     0
102
RTVSPropertyOp52
 70
     0
102
RTVSPropertyOp53
 70
     1
102
RTVSPropertyOp54
 70
     1
102
RTVSPropertyOp55
 70
     1
102
RTVSPropertyOp56
 70
     1
102
RTVSPropertyOp57
 70
     1
102
RTVSPost2010Prop28
280
     0
102
RTVSPost2010PropOp28
 70
     1
102
RTVSPost2010Prop29
280
     1
102
RTVSPost2010PropOp29
 70
     1
102
RTVSPost2010Prop30
280
     1
102
RTVSPost2010PropOp30
 70
     1
102
RTVSPost2010Prop31
280
     0
102
RTVSPost2010PropOp31
 70
     1
102
RTVSPost2010Prop32
280
     0
102
RTVSPost2010PropOp32
 70
     1
102
RTVSPost2010Prop33
280
     0
102
RTVSPost2010PropOp33
 70
     1
102
RTVSPost2010Prop34
280
     0
102
RTVSPost2010PropOp34
 70
     1
102
RTVSPost2010Prop35
280
     0
102
RTVSPost2010PropOp35
 70
     1
102
RTVSPost2010Prop36
280
     0
102
RTVSPost2010PropOp36
 70
     1
102
RTVSPost2010Prop37
 90
       50
102
RTVSPost2010PropOp37
 70
     1
102
RTVSPost2010Prop38
140
0.0
102
RTVSPost2010PropOp38
 70
     1
102
RTVSPost2010Prop39
140
1.0
102
RTVSPost2010PropOp39
 70
     1
102
RTVSPost2010Prop40
 90
        0
102
RTVSPost2010PropOp40
 70
     1
102
RTVSPost2010Prop41ColorIndex
 90
      178
102
RTVSPost2010Prop41ColorRGB
 90
        0
102
RTVSPost2010PropOp41
 70
     1
102
RTVSPost2010Prop42
 90
       50
102
RTVSPost2010PropOp42
 70
     1
102
RTVSPost2010Prop43
 90
        3
102
RTVSPost2010PropOp43
 70
     1
102
RTVSPost2010Prop44ColorIndex
 90
        5
102
RTVSPost2010Prop44ColorRGB
 90
      255
102
RTVSPost2010PropOp44
 70
     1
102
RTVSPost2010Prop45
280
     0
102
RTVSPost2010PropOp45
 70
     1
102
RTVSPost2010Prop46
 90
       50
102
RTVSPost2010PropOp46
 70
     1
102
RTVSPost2010Prop47
 90
       50
102
RTVSPost2010PropOp47
 70
     1
102
RTVSPost2010Prop48
 90
       50
102
RTVSPost2010PropOp48
 70
     1
102
RTVSPost2010Prop49
280
     0
102
RTVSPost2010PropOp49
 70
     1
102
RTVSPost2010Prop50
 90
       50
102
RTVSPost2010PropOp50
 70
     1
102
RTVSPost2010Prop51ColorIndex
 90
      256
102
RTVSPost2010Prop51ColorRGB
 90
-16777216
102
RTVSPost2010PropOp51
 70
     0
102
RTVSPost2010Prop52
140
1.0
102
RTVSPost2010PropOp52
 70
     0
102
RTVSPost2010Prop53
 90
        2
102
RTVSPost2010PropOp53
 70
     1
102
RTVSPost2010Prop54
  1
strokes_ogs.tif
102
RTVSPost2010PropOp54
 70
     1
102
RTVSPost2010Prop55
280
     0
102
RTVSPost2010PropOp55
 70
     1
102
RTVSPost2010Prop56
140
1.0
102
RTVSPost2010PropOp56
 70
     1
102
RTVSPost2010Prop57
140
1.0
102
RTVSPost2010PropOp57
 70
     1
  0
XRECORD
  5
258
102
{ACAD_REACTORS
330
257
102
}
330
257
100
AcDbXrecord
280
     1
102
RTVSPropertyOp0
 70
     1
102
RTVSPropertyOp1
 70
     1
102
RTVSPropertyOp2
 70
     1
102
RTVSPropertyOp3
 70
     1
102
RTVSPropertyOp4
 70
     1
102
RTVSPropertyOp5
 70
     1
102
RTVSPropertyOp6
 70
     1
102
RTVSPropertyOp7
 70
     1
102
RTVSPropertyOp8
 70
     1
102
RTVSPropertyOp9
 70
     1
102
RTVSPropertyOp10
 70
     1
102
RTVSPropertyOp11
 70
     1
102
RTVSPropertyOp12
 70
     1
102
RTVSPropertyOp13
 70
     1
102
RTVSPropertyOp14
 70
     1
102
RTVSPropertyOp15
 70
     1
102
RTVSPropertyOp16
 70
     1
102
RTVSPropertyOp17
 70
     1
102
RTVSPropertyOp18
 70
     1
102
RTVSPropertyOp19
 70
     1
102
RTVSPropertyOp20
 70
     1
102
RTVSPropertyOp21
 70
     1
102
RTVSPropertyOp22
 70
     1
102
RTVSPropertyOp23
 70
     1
102
RTVSPropertyOp24
 70
     1
102
RTVSPropertyOp25
 70
     1
102
RTVSPropertyOp26
 70
     1
102
RTVSPropertyOp27
 70
     1
102
RTVSPropertyOp28
 70
     1
102
RTVSPropertyOp29
 70
     1
102
RTVSPropertyOp30
 70
     1
102
RTVSPropertyOp31
 70
     1
102
RTVSPropertyOp32
 70
     1
102
RTVSPropertyOp33
 70
     1
102
RTVSPropertyOp34
 70
     1
102
RTVSPropertyOp35
 70
     1
102
RTVSPropertyOp36
 70
     1
102
RTVSPropertyOp37
 70
     1
102
RTVSPropertyOp38
 70
     1
102
RTVSPropertyOp39
 70
     1
102
RTVSPropertyOp40
 70
     1
102
RTVSPropertyOp41
 70
     1
102
RTVSPropertyOp42
 70
     1
102
RTVSPropertyOp43
 70
     1
102
RTVSPropertyOp44
 70
     1
102
RTVSPropertyOp45
 70
     1
102
RTVSPropertyOp46
 70
     1
102
RTVSPropertyOp47
 70
     1
102
RTVSPropertyOp48
 70
     1
102
RTVSPropertyOp49
 70
     1
102
RTVSPropertyOp50
 70
     1
102
RTVSPropertyOp51
 70
     0
102
RTVSPropertyOp52
 70
     0
102
RTVSPropertyOp53
 70
     1
102
RTVSPropertyOp54
 70
     1
102
RTVSPropertyOp55
 70
     1
102
RTVSPropertyOp56
 70
     1
102
RTVSPropertyOp57
 70
     1
102
RTVSPost2010Prop28
280
     0
102
RTVSPost2010PropOp28
 70
     1
102
RTVSPost2010Prop29
280
     1
102
RTVSPost2010PropOp29
 70
     1
102
RTVSPost2010Prop30
280
     1
102
RTVSPost2010PropOp30
 70
     1
102
RTVSPost2010Prop31
280
     0
102
RTVSPost2010PropOp31
 70
     1
102
RTVSPost2010Prop32
280
     0
102
RTVSPost2010PropOp32
 70
     1
102
RTVSPost2010Prop33
280
     0
102
RTVSPost2010PropOp33
 70
     1
102
RTVSPost2010Prop34
280
     0
102
RTVSPost2010PropOp34
 70
     1
102
RTVSPost2010Prop35
280
     0
102
RTVSPost2010PropOp35
 70
     1
102
RTVSPost2010Prop36
280
     0
102
RTVSPost2010PropOp36
 70
     1
102
RTVSPost2010Prop37
 90
       50
102
RTVSPost2010PropOp37
 70
     1
102
RTVSPost2010Prop38
140
0.0
102
RTVSPost2010PropOp38
 70
     1
102
RTVSPost2010Prop39
140
1.0
102
RTVSPost2010PropOp39
 70
     1
102
RTVSPost2010Prop40
 90
        0
102
RTVSPost2010PropOp40
 70
     1
102
RTVSPost2010Prop41ColorIndex
 90
      178
102
RTVSPost2010Prop41ColorRGB
 90
        0
102
RTVSPost2010PropOp41
 70
     1
102
RTVSPost2010Prop42
 90
       50
102
RTVSPost2010PropOp42
 70
     1
102
RTVSPost2010Prop43
 90
        3
102
RTVSPost2010PropOp43
 70
     1
102
RTVSPost2010Prop44ColorIndex
 90
        5
102
RTVSPost2010Prop44ColorRGB
 90
      255
102
RTVSPost2010PropOp44
 70
     1
102
RTVSPost2010Prop45
280
     0
102
RTVSPost2010PropOp45
 70
     1
102
RTVSPost2010Prop46
 90
       50
102
RTVSPost2010PropOp46
 70
     1
102
RTVSPost2010Prop47
 90
       50
102
RTVSPost2010PropOp47
 70
     1
102
RTVSPost2010Prop48
 90
       50
102
RTVSPost2010PropOp48
 70
     1
102
RTVSPost2010Prop49
280
     0
102
RTVSPost2010PropOp49
 70
     1
102
RTVSPost2010Prop50
 90
       50
102
RTVSPost2010PropOp50
 70
     1
102
RTVSPost2010Prop51ColorIndex
 90
      256
102
RTVSPost2010Prop51ColorRGB
 90
-16777216
102
RTVSPost2010PropOp51
 70
     0
102
RTVSPost2010Prop52
140
1.0
102
RTVSPost2010PropOp52
 70
     0
102
RTVSPost2010Prop53
 90
        2
102
RTVSPost2010PropOp53
 70
     1
102
RTVSPost2010Prop54
  1
strokes_ogs.tif
102
RTVSPost2010PropOp54
 70
     1
102
RTVSPost2010Prop55
280
     0
102
RTVSPost2010PropOp55
 70
     1
102
RTVSPost2010Prop56
140
1.0
102
RTVSPost2010PropOp56
 70
     1
102
RTVSPost2010Prop57
140
1.0
102
RTVSPost2010PropOp57
 70
     1
  0
XRECORD
  5
25A
102
{ACAD_REACTORS
330
259
102
}
330
259
100
AcDbXrecord
280
     1
102
RTVSPropertyOp0
 70
     1
102
RTVSPropertyOp1
 70
     1
102
RTVSPropertyOp2
 70
     1
102
RTVSPropertyOp3
 70
     1
102
RTVSPropertyOp4
 70
     1
102
RTVSPropertyOp5
 70
     1
102
RTVSPropertyOp6
 70
     1
102
RTVSPropertyOp7
 70
     1
102
RTVSPropertyOp8
 70
     1
102
RTVSPropertyOp9
 70
     1
102
RTVSPropertyOp10
 70
     1
102
RTVSPropertyOp11
 70
     1
102
RTVSPropertyOp12
 70
     1
102
RTVSPropertyOp13
 70
     1
102
RTVSPropertyOp14
 70
     1
102
RTVSPropertyOp15
 70
     1
102
RTVSPropertyOp16
 70
     1
102
RTVSPropertyOp17
 70
     1
102
RTVSPropertyOp18
 70
     1
102
RTVSPropertyOp19
 70
     1
102
RTVSPropertyOp20
 70
     1
102
RTVSPropertyOp21
 70
     1
102
RTVSPropertyOp22
 70
     1
102
RTVSPropertyOp23
 70
     1
102
RTVSPropertyOp24
 70
     1
102
RTVSPropertyOp25
 70
     1
102
RTVSPropertyOp26
 70
     1
102
RTVSPropertyOp27
 70
     1
102
RTVSPropertyOp28
 70
     1
102
RTVSPropertyOp29
 70
     1
102
RTVSPropertyOp30
 70
     1
102
RTVSPropertyOp31
 70
     1
102
RTVSPropertyOp32
 70
     1
102
RTVSPropertyOp33
 70
     1
102
RTVSPropertyOp34
 70
     1
102
RTVSPropertyOp35
 70
     1
102
RTVSPropertyOp36
 70
     1
102
RTVSPropertyOp37
 70
     1
102
RTVSPropertyOp38
 70
     1
102
RTVSPropertyOp39
 70
     1
102
RTVSPropertyOp40
 70
     1
102
RTVSPropertyOp41
 70
     1
102
RTVSPropertyOp42
 70
     1
102
RTVSPropertyOp43
 70
     1
102
RTVSPropertyOp44
 70
     1
102
RTVSPropertyOp45
 70
     1
102
RTVSPropertyOp46
 70
     1
102
RTVSPropertyOp47
 70
     1
102
RTVSPropertyOp48
 70
     1
102
RTVSPropertyOp49
 70
     1
102
RTVSPropertyOp50
 70
     1
102
RTVSPropertyOp51
 70
     0
102
RTVSPropertyOp52
 70
     0
102
RTVSPropertyOp53
 70
     1
102
RTVSPropertyOp54
 70
     1
102
RTVSPropertyOp55
 70
     1
102
RTVSPropertyOp56
 70
     1
102
RTVSPropertyOp57
 70
     1
102
RTVSPost2010Prop28
280
     0
102
RTVSPost2010PropOp28
 70
     1
102
RTVSPost2010Prop29
280
     1
102
RTVSPost2010PropOp29
 70
     1
102
RTVSPost2010Prop30
280
     1
102
RTVSPost2010PropOp30
 70
     1
102
RTVSPost2010Prop31
280
     0
102
RTVSPost2010PropOp31
 70
     1
102
RTVSPost2010Prop32
280
     0
102
RTVSPost2010PropOp32
 70
     1
102
RTVSPost2010Prop33
280
     0
102
RTVSPost2010PropOp33
 70
     1
102
RTVSPost2010Prop34
280
     0
102
RTVSPost2010PropOp34
 70
     1
102
RTVSPost2010Prop35
280
     0
102
RTVSPost2010PropOp35
 70
     1
102
RTVSPost2010Prop36
280
     0
102
RTVSPost2010PropOp36
 70
     1
102
RTVSPost2010Prop37
 90
       50
102
RTVSPost2010PropOp37
 70
     1
102
RTVSPost2010Prop38
140
0.0
102
RTVSPost2010PropOp38
 70
     1
102
RTVSPost2010Prop39
140
1.0
102
RTVSPost2010PropOp39
 70
     1
102
RTVSPost2010Prop40
 90
        0
102
RTVSPost2010PropOp40
 70
     1
102
RTVSPost2010Prop41ColorIndex
 90
      178
102
RTVSPost2010Prop41ColorRGB
 90
        0
102
RTVSPost2010PropOp41
 70
     1
102
RTVSPost2010Prop42
 90
       50
102
RTVSPost2010PropOp42
 70
     1
102
RTVSPost2010Prop43
 90
        3
102
RTVSPost2010PropOp43
 70
     1
102
RTVSPost2010Prop44ColorIndex
 90
        5
102
RTVSPost2010Prop44ColorRGB
 90
      255
102
RTVSPost2010PropOp44
 70
     1
102
RTVSPost2010Prop45
280
     0
102
RTVSPost2010PropOp45
 70
     1
102
RTVSPost2010Prop46
 90
       50
102
RTVSPost2010PropOp46
 70
     1
102
RTVSPost2010Prop47
 90
       50
102
RTVSPost2010PropOp47
 70
     1
102
RTVSPost2010Prop48
 90
       50
102
RTVSPost2010PropOp48
 70
     1
102
RTVSPost2010Prop49
280
     0
102
RTVSPost2010PropOp49
 70
     1
102
RTVSPost2010Prop50
 90
       50
102
RTVSPost2010PropOp50
 70
     1
102
RTVSPost2010Prop51ColorIndex
 90
      256
102
RTVSPost2010Prop51ColorRGB
 90
-16777216
102
RTVSPost2010PropOp51
 70
     0
102
RTVSPost2010Prop52
140
1.0
102
RTVSPost2010PropOp52
 70
     0
102
RTVSPost2010Prop53
 90
        2
102
RTVSPost2010PropOp53
 70
     1
102
RTVSPost2010Prop54
  1
strokes_ogs.tif
102
RTVSPost2010PropOp54
 70
     1
102
RTVSPost2010Prop55
280
     0
102
RTVSPost2010PropOp55
 70
     1
102
RTVSPost2010Prop56
140
1.0
102
RTVSPost2010PropOp56
 70
     1
102
RTVSPost2010Prop57
140
1.0
102
RTVSPost2010PropOp57
 70
     1
  0
XRECORD
  5
260
102
{ACAD_REACTORS
330
25F
102
}
330
25F
100
AcDbXrecord
280
     1
102
RTVSPropertyOp0
 70
     1
102
RTVSPropertyOp1
 70
     1
102
RTVSPropertyOp2
 70
     1
102
RTVSPropertyOp3
 70
     1
102
RTVSPropertyOp4
 70
     1
102
RTVSPropertyOp5
 70
     1
102
RTVSPropertyOp6
 70
     1
102
RTVSPropertyOp7
 70
     1
102
RTVSPropertyOp8
 70
     1
102
RTVSPropertyOp9
 70
     1
102
RTVSPropertyOp10
 70
     1
102
RTVSPropertyOp11
 70
     1
102
RTVSPropertyOp12
 70
     1
102
RTVSPropertyOp13
 70
     1
102
RTVSPropertyOp14
 70
     1
102
RTVSPropertyOp15
 70
     1
102
RTVSPropertyOp16
 70
     1
102
RTVSPropertyOp17
 70
     1
102
RTVSPropertyOp18
 70
     1
102
RTVSPropertyOp19
 70
     1
102
RTVSPropertyOp20
 70
     1
102
RTVSPropertyOp21
 70
     1
102
RTVSPropertyOp22
 70
     1
102
RTVSPropertyOp23
 70
     1
102
RTVSPropertyOp24
 70
     1
102
RTVSPropertyOp25
 70
     1
102
RTVSPropertyOp26
 70
     1
102
RTVSPropertyOp27
 70
     1
102
RTVSPropertyOp28
 70
     1
102
RTVSPropertyOp29
 70
     1
102
RTVSPropertyOp30
 70
     1
102
RTVSPropertyOp31
 70
     1
102
RTVSPropertyOp32
 70
     1
102
RTVSPropertyOp33
 70
     1
102
RTVSPropertyOp34
 70
     1
102
RTVSPropertyOp35
 70
     1
102
RTVSPropertyOp36
 70
     1
102
RTVSPropertyOp37
 70
     1
102
RTVSPropertyOp38
 70
     1
102
RTVSPropertyOp39
 70
     1
102
RTVSPropertyOp40
 70
     1
102
RTVSPropertyOp41
 70
     1
102
RTVSPropertyOp42
 70
     1
102
RTVSPropertyOp43
 70
     1
102
RTVSPropertyOp44
 70
     1
102
RTVSPropertyOp45
 70
     1
102
RTVSPropertyOp46
 70
     1
102
RTVSPropertyOp47
 70
     1
102
RTVSPropertyOp48
 70
     1
102
RTVSPropertyOp49
 70
     1
102
RTVSPropertyOp50
 70
     1
102
RTVSPropertyOp51
 70
     0
102
RTVSPropertyOp52
 70
     0
102
RTVSPropertyOp53
 70
     1
102
RTVSPropertyOp54
 70
     1
102
RTVSPropertyOp55
 70
     1
102
RTVSPropertyOp56
 70
     1
102
RTVSPropertyOp57
 70
     1
102
RTVSPost2010Prop28
280
     0
102
RTVSPost2010PropOp28
 70
     1
102
RTVSPost2010Prop29
280
     1
102
RTVSPost2010PropOp29
 70
     1
102
RTVSPost2010Prop30
280
     1
102
RTVSPost2010PropOp30
 70
     1
102
RTVSPost2010Prop31
280
     0
102
RTVSPost2010PropOp31
 70
     1
102
RTVSPost2010Prop32
280
     0
102
RTVSPost2010PropOp32
 70
     1
102
RTVSPost2010Prop33
280
     0
102
RTVSPost2010PropOp33
 70
     1
102
RTVSPost2010Prop34
280
     0
102
RTVSPost2010PropOp34
 70
     1
102
RTVSPost2010Prop35
280
     0
102
RTVSPost2010PropOp35
 70
     1
102
RTVSPost2010Prop36
280
     0
102
RTVSPost2010PropOp36
 70
     1
102
RTVSPost2010Prop37
 90
       50
102
RTVSPost2010PropOp37
 70
     1
102
RTVSPost2010Prop38
140
0.0
102
RTVSPost2010PropOp38
 70
     1
102
RTVSPost2010Prop39
140
1.0
102
RTVSPost2010PropOp39
 70
     1
102
RTVSPost2010Prop40
 90
        0
102
RTVSPost2010PropOp40
 70
     1
102
RTVSPost2010Prop41ColorIndex
 90
      178
102
RTVSPost2010Prop41ColorRGB
 90
        0
102
RTVSPost2010PropOp41
 70
     1
102
RTVSPost2010Prop42
 90
       50
102
RTVSPost2010PropOp42
 70
     1
102
RTVSPost2010Prop43
 90
        3
102
RTVSPost2010PropOp43
 70
     1
102
RTVSPost2010Prop44ColorIndex
 90
        5
102
RTVSPost2010Prop44ColorRGB
 90
      255
102
RTVSPost2010PropOp44
 70
     1
102
RTVSPost2010Prop45
280
     0
102
RTVSPost2010PropOp45
 70
     1
102
RTVSPost2010Prop46
 90
       50
102
RTVSPost2010PropOp46
 70
     1
102
RTVSPost2010Prop47
 90
       50
102
RTVSPost2010PropOp47
 70
     1
102
RTVSPost2010Prop48
 90
       50
102
RTVSPost2010PropOp48
 70
     1
102
RTVSPost2010Prop49
280
     0
102
RTVSPost2010PropOp49
 70
     1
102
RTVSPost2010Prop50
 90
       50
102
RTVSPost2010PropOp50
 70
     1
102
RTVSPost2010Prop51ColorIndex
 90
      256
102
RTVSPost2010Prop51ColorRGB
 90
-16777216
102
RTVSPost2010PropOp51
 70
     0
102
RTVSPost2010Prop52
140
1.0
102
RTVSPost2010PropOp52
 70
     0
102
RTVSPost2010Prop53
 90
        2
102
RTVSPost2010PropOp53
 70
     1
102
RTVSPost2010Prop54
  1
strokes_ogs.tif
102
RTVSPost2010PropOp54
 70
     1
102
RTVSPost2010Prop55
280
     0
102
RTVSPost2010PropOp55
 70
     1
102
RTVSPost2010Prop56
140
1.0
102
RTVSPost2010PropOp56
 70
     1
102
RTVSPost2010Prop57
140
1.0
102
RTVSPost2010PropOp57
 70
     1
  0
XRECORD
  5
274
102
{ACAD_REACTORS
330
273
102
}
330
273
100
AcDbXrecord
280
     1
102
RTVSPropertyOp0
 70
     0
102
RTVSPropertyOp1
 70
     0
102
RTVSPropertyOp2
 70
     0
102
RTVSPropertyOp3
 70
     0
102
RTVSPropertyOp4
 70
     0
102
RTVSPropertyOp5
 70
     0
102
RTVSPropertyOp6
 70
     0
102
RTVSPropertyOp7
 70
     0
102
RTVSPropertyOp8
 70
     0
102
RTVSPropertyOp9
 70
     0
102
RTVSPropertyOp10
 70
     0
102
RTVSPropertyOp11
 70
     0
102
RTVSPropertyOp12
 70
     0
102
RTVSPropertyOp13
 70
     0
102
RTVSPropertyOp14
 70
     2
102
RTVSPropertyOp15
 70
     0
102
RTVSPropertyOp16
 70
     0
102
RTVSPropertyOp17
 70
     0
102
RTVSPropertyOp18
 70
     0
102
RTVSPropertyOp19
 70
     0
102
RTVSPropertyOp20
 70
     0
102
RTVSPropertyOp21
 70
     0
102
RTVSPropertyOp22
 70
     0
102
RTVSPropertyOp23
 70
     0
102
RTVSPropertyOp24
 70
     0
102
RTVSPropertyOp25
 70
     0
102
RTVSPropertyOp26
 70
     0
102
RTVSPropertyOp27
 70
     0
102
RTVSPropertyOp28
 70
     0
102
RTVSPropertyOp29
 70
     0
102
RTVSPropertyOp30
 70
     0
102
RTVSPropertyOp31
 70
     0
102
RTVSPropertyOp32
 70
     0
102
RTVSPropertyOp33
 70
     0
102
RTVSPropertyOp34
 70
     0
102
RTVSPropertyOp35
 70
     0
102
RTVSPropertyOp36
 70
     0
102
RTVSPropertyOp37
 70
     0
102
RTVSPropertyOp38
 70
     0
102
RTVSPropertyOp39
 70
     0
102
RTVSPropertyOp40
 70
     0
102
RTVSPropertyOp41
 70
     0
102
RTVSPropertyOp42
 70
     0
102
RTVSPropertyOp43
 70
     0
102
RTVSPropertyOp44
 70
     0
102
RTVSPropertyOp45
 70
     0
102
RTVSPropertyOp46
 70
     0
102
RTVSPropertyOp47
 70
     0
102
RTVSPropertyOp48
 70
     0
102
RTVSPropertyOp49
 70
     0
102
RTVSPropertyOp50
 70
     0
102
RTVSPropertyOp51
 70
     0
102
RTVSPropertyOp52
 70
     0
102
RTVSPropertyOp53
 70
     0
102
RTVSPropertyOp54
 70
     0
102
RTVSPropertyOp55
 70
     0
102
RTVSPropertyOp56
 70
     0
102
RTVSPropertyOp57
 70
     0
102
RTVSPost2010Prop28
280
     0
102
RTVSPost2010PropOp28
 70
     0
102
RTVSPost2010Prop29
280
     1
102
RTVSPost2010PropOp29
 70
     0
102
RTVSPost2010Prop30
280
     1
102
RTVSPost2010PropOp30
 70
     0
102
RTVSPost2010Prop31
280
     0
102
RTVSPost2010PropOp31
 70
     0
102
RTVSPost2010Prop32
280
     0
102
RTVSPost2010PropOp32
 70
     0
102
RTVSPost2010Prop33
280
     0
102
RTVSPost2010PropOp33
 70
     0
102
RTVSPost2010Prop34
280
     0
102
RTVSPost2010PropOp34
 70
     0
102
RTVSPost2010Prop35
280
     0
102
RTVSPost2010PropOp35
 70
     0
102
RTVSPost2010Prop36
280
     0
102
RTVSPost2010PropOp36
 70
     0
102
RTVSPost2010Prop37
 90
       50
102
RTVSPost2010PropOp37
 70
     0
102
RTVSPost2010Prop38
140
0.0
102
RTVSPost2010PropOp38
 70
     0
102
RTVSPost2010Prop39
140
1.0
102
RTVSPost2010PropOp39
 70
     0
102
RTVSPost2010Prop40
 90
        0
102
RTVSPost2010PropOp40
 70
     0
102
RTVSPost2010Prop41ColorIndex
 90
      178
102
RTVSPost2010Prop41ColorRGB
 90
        0
102
RTVSPost2010PropOp41
 70
     0
102
RTVSPost2010Prop42
 90
       50
102
RTVSPost2010PropOp42
 70
     0
102
RTVSPost2010Prop43
 90
        3
102
RTVSPost2010PropOp43
 70
     0
102
RTVSPost2010Prop44ColorIndex
 90
        5
102
RTVSPost2010Prop44ColorRGB
 90
      255
102
RTVSPost2010PropOp44
 70
     0
102
RTVSPost2010Prop45
280
     0
102
RTVSPost2010PropOp45
 70
     0
102
RTVSPost2010Prop46
 90
       50
102
RTVSPost2010PropOp46
 70
     0
102
RTVSPost2010Prop47
 90
       50
102
RTVSPost2010PropOp47
 70
     0
102
RTVSPost2010Prop48
 90
       50
102
RTVSPost2010PropOp48
 70
     0
102
RTVSPost2010Prop49
280
     0
102
RTVSPost2010PropOp49
 70
     0
102
RTVSPost2010Prop50
 90
       50
102
RTVSPost2010PropOp50
 70
     0
102
RTVSPost2010Prop51ColorIndex
 90
      256
102
RTVSPost2010Prop51ColorRGB
 90
-16777216
102
RTVSPost2010PropOp51
 70
     0
102
RTVSPost2010Prop52
140
1.0
102
RTVSPost2010PropOp52
 70
     0
102
RTVSPost2010Prop53
 90
        2
102
RTVSPost2010PropOp53
 70
     0
102
RTVSPost2010Prop54
  1
strokes_ogs.tif
102
RTVSPost2010PropOp54
 70
     0
102
RTVSPost2010Prop55
280
     0
102
RTVSPost2010PropOp55
 70
     0
102
RTVSPost2010Prop56
140
1.0
102
RTVSPost2010PropOp56
 70
     0
102
RTVSPost2010Prop57
140
1.0
102
RTVSPost2010PropOp57
 70
     0
  0
XRECORD
  5
26E
102
{ACAD_REACTORS
330
26D
102
}
330
26D
100
AcDbXrecord
280
     1
102
RTVSPropertyOp0
 70
     1
102
RTVSPropertyOp1
 70
     1
102
RTVSPropertyOp2
 70
     1
102
RTVSPropertyOp3
 70
     1
102
RTVSPropertyOp4
 70
     1
102
RTVSPropertyOp5
 70
     1
102
RTVSPropertyOp6
 70
     1
102
RTVSPropertyOp7
 70
     1
102
RTVSPropertyOp8
 70
     1
102
RTVSPropertyOp9
 70
     1
102
RTVSPropertyOp10
 70
     1
102
RTVSPropertyOp11
 70
     1
102
RTVSPropertyOp12
 70
     1
102
RTVSPropertyOp13
 70
     1
102
RTVSPropertyOp14
 70
     1
102
RTVSPropertyOp15
 70
     1
102
RTVSPropertyOp16
 70
     1
102
RTVSPropertyOp17
 70
     1
102
RTVSPropertyOp18
 70
     1
102
RTVSPropertyOp19
 70
     1
102
RTVSPropertyOp20
 70
     1
102
RTVSPropertyOp21
 70
     1
102
RTVSPropertyOp22
 70
     1
102
RTVSPropertyOp23
 70
     1
102
RTVSPropertyOp24
 70
     1
102
RTVSPropertyOp25
 70
     1
102
RTVSPropertyOp26
 70
     1
102
RTVSPropertyOp27
 70
     1
102
RTVSPropertyOp28
 70
     1
102
RTVSPropertyOp29
 70
     1
102
RTVSPropertyOp30
 70
     1
102
RTVSPropertyOp31
 70
     1
102
RTVSPropertyOp32
 70
     1
102
RTVSPropertyOp33
 70
     1
102
RTVSPropertyOp34
 70
     1
102
RTVSPropertyOp35
 70
     1
102
RTVSPropertyOp36
 70
     1
102
RTVSPropertyOp37
 70
     1
102
RTVSPropertyOp38
 70
     1
102
RTVSPropertyOp39
 70
     1
102
RTVSPropertyOp40
 70
     1
102
RTVSPropertyOp41
 70
     1
102
RTVSPropertyOp42
 70
     1
102
RTVSPropertyOp43
 70
     1
102
RTVSPropertyOp44
 70
     1
102
RTVSPropertyOp45
 70
     1
102
RTVSPropertyOp46
 70
     1
102
RTVSPropertyOp47
 70
     1
102
RTVSPropertyOp48
 70
     1
102
RTVSPropertyOp49
 70
     1
102
RTVSPropertyOp50
 70
     1
102
RTVSPropertyOp51
 70
     0
102
RTVSPropertyOp52
 70
     0
102
RTVSPropertyOp53
 70
     1
102
RTVSPropertyOp54
 70
     1
102
RTVSPropertyOp55
 70
     1
102
RTVSPropertyOp56
 70
     1
102
RTVSPropertyOp57
 70
     1
102
RTVSPost2010Prop28
280
     0
102
RTVSPost2010PropOp28
 70
     1
102
RTVSPost2010Prop29
280
     1
102
RTVSPost2010PropOp29
 70
     1
102
RTVSPost2010Prop30
280
     1
102
RTVSPost2010PropOp30
 70
     1
102
RTVSPost2010Prop31
280
     0
102
RTVSPost2010PropOp31
 70
     1
102
RTVSPost2010Prop32
280
     0
102
RTVSPost2010PropOp32
 70
     1
102
RTVSPost2010Prop33
280
     0
102
RTVSPost2010PropOp33
 70
     1
102
RTVSPost2010Prop34
280
     0
102
RTVSPost2010PropOp34
 70
     1
102
RTVSPost2010Prop35
280
     0
102
RTVSPost2010PropOp35
 70
     1
102
RTVSPost2010Prop36
280
     0
102
RTVSPost2010PropOp36
 70
     1
102
RTVSPost2010Prop37
 90
       50
102
RTVSPost2010PropOp37
 70
     1
102
RTVSPost2010Prop38
140
0.0
102
RTVSPost2010PropOp38
 70
     1
102
RTVSPost2010Prop39
140
1.0
102
RTVSPost2010PropOp39
 70
     1
102
RTVSPost2010Prop40
 90
        0
102
RTVSPost2010PropOp40
 70
     1
102
RTVSPost2010Prop41ColorIndex
 90
      178
102
RTVSPost2010Prop41ColorRGB
 90
        0
102
RTVSPost2010PropOp41
 70
     1
102
RTVSPost2010Prop42
 90
       50
102
RTVSPost2010PropOp42
 70
     1
102
RTVSPost2010Prop43
 90
        3
102
RTVSPost2010PropOp43
 70
     1
102
RTVSPost2010Prop44ColorIndex
 90
        5
102
RTVSPost2010Prop44ColorRGB
 90
      255
102
RTVSPost2010PropOp44
 70
     1
102
RTVSPost2010Prop45
280
     0
102
RTVSPost2010PropOp45
 70
     1
102
RTVSPost2010Prop46
 90
       50
102
RTVSPost2010PropOp46
 70
     1
102
RTVSPost2010Prop47
 90
       50
102
RTVSPost2010PropOp47
 70
     1
102
RTVSPost2010Prop48
 90
       50
102
RTVSPost2010PropOp48
 70
     1
102
RTVSPost2010Prop49
280
     0
102
RTVSPost2010PropOp49
 70
     1
102
RTVSPost2010Prop50
 90
       50
102
RTVSPost2010PropOp50
 70
     1
102
RTVSPost2010Prop51ColorIndex
 90
      256
102
RTVSPost2010Prop51ColorRGB
 90
-16777216
102
RTVSPost2010PropOp51
 70
     0
102
RTVSPost2010Prop52
140
1.0
102
RTVSPost2010PropOp52
 70
     0
102
RTVSPost2010Prop53
 90
        2
102
RTVSPost2010PropOp53
 70
     1
102
RTVSPost2010Prop54
  1
strokes_ogs.tif
102
RTVSPost2010PropOp54
 70
     1
102
RTVSPost2010Prop55
280
     0
102
RTVSPost2010PropOp55
 70
     1
102
RTVSPost2010Prop56
140
1.0
102
RTVSPost2010PropOp56
 70
     1
102
RTVSPost2010Prop57
140
1.0
102
RTVSPost2010PropOp57
 70
     1
  0
XRECORD
  5
276
102
{ACAD_REACTORS
330
275
102
}
330
275
100
AcDbXrecord
280
     1
102
RTVSPropertyOp0
 70
     0
102
RTVSPropertyOp1
 70
     0
102
RTVSPropertyOp2
 70
     0
102
RTVSPropertyOp3
 70
     0
102
RTVSPropertyOp4
 70
     0
102
RTVSPropertyOp5
 70
     0
102
RTVSPropertyOp6
 70
     0
102
RTVSPropertyOp7
 70
     0
102
RTVSPropertyOp8
 70
     0
102
RTVSPropertyOp9
 70
     0
102
RTVSPropertyOp10
 70
     0
102
RTVSPropertyOp11
 70
     0
102
RTVSPropertyOp12
 70
     0
102
RTVSPropertyOp13
 70
     0
102
RTVSPropertyOp14
 70
     2
102
RTVSPropertyOp15
 70
     0
102
RTVSPropertyOp16
 70
     0
102
RTVSPropertyOp17
 70
     0
102
RTVSPropertyOp18
 70
     0
102
RTVSPropertyOp19
 70
     0
102
RTVSPropertyOp20
 70
     0
102
RTVSPropertyOp21
 70
     0
102
RTVSPropertyOp22
 70
     0
102
RTVSPropertyOp23
 70
     0
102
RTVSPropertyOp24
 70
     0
102
RTVSPropertyOp25
 70
     0
102
RTVSPropertyOp26
 70
     0
102
RTVSPropertyOp27
 70
     0
102
RTVSPropertyOp28
 70
     0
102
RTVSPropertyOp29
 70
     0
102
RTVSPropertyOp30
 70
     0
102
RTVSPropertyOp31
 70
     0
102
RTVSPropertyOp32
 70
     0
102
RTVSPropertyOp33
 70
     0
102
RTVSPropertyOp34
 70
     0
102
RTVSPropertyOp35
 70
     0
102
RTVSPropertyOp36
 70
     0
102
RTVSPropertyOp37
 70
     0
102
RTVSPropertyOp38
 70
     0
102
RTVSPropertyOp39
 70
     0
102
RTVSPropertyOp40
 70
     0
102
RTVSPropertyOp41
 70
     0
102
RTVSPropertyOp42
 70
     0
102
RTVSPropertyOp43
 70
     0
102
RTVSPropertyOp44
 70
     0
102
RTVSPropertyOp45
 70
     0
102
RTVSPropertyOp46
 70
     0
102
RTVSPropertyOp47
 70
     0
102
RTVSPropertyOp48
 70
     0
102
RTVSPropertyOp49
 70
     0
102
RTVSPropertyOp50
 70
     0
102
RTVSPropertyOp51
 70
     0
102
RTVSPropertyOp52
 70
     0
102
RTVSPropertyOp53
 70
     0
102
RTVSPropertyOp54
 70
     0
102
RTVSPropertyOp55
 70
     0
102
RTVSPropertyOp56
 70
     0
102
RTVSPropertyOp57
 70
     0
102
RTVSPost2010Prop28
280
     0
102
RTVSPost2010PropOp28
 70
     0
102
RTVSPost2010Prop29
280
     1
102
RTVSPost2010PropOp29
 70
     0
102
RTVSPost2010Prop30
280
     1
102
RTVSPost2010PropOp30
 70
     0
102
RTVSPost2010Prop31
280
     0
102
RTVSPost2010PropOp31
 70
     0
102
RTVSPost2010Prop32
280
     0
102
RTVSPost2010PropOp32
 70
     0
102
RTVSPost2010Prop33
280
     0
102
RTVSPost2010PropOp33
 70
     0
102
RTVSPost2010Prop34
280
     0
102
RTVSPost2010PropOp34
 70
     0
102
RTVSPost2010Prop35
280
     0
102
RTVSPost2010PropOp35
 70
     0
102
RTVSPost2010Prop36
280
     0
102
RTVSPost2010PropOp36
 70
     0
102
RTVSPost2010Prop37
 90
       50
102
RTVSPost2010PropOp37
 70
     0
102
RTVSPost2010Prop38
140
0.0
102
RTVSPost2010PropOp38
 70
     0
102
RTVSPost2010Prop39
140
1.0
102
RTVSPost2010PropOp39
 70
     0
102
RTVSPost2010Prop40
 90
        0
102
RTVSPost2010PropOp40
 70
     0
102
RTVSPost2010Prop41ColorIndex
 90
      178
102
RTVSPost2010Prop41ColorRGB
 90
        0
102
RTVSPost2010PropOp41
 70
     0
102
RTVSPost2010Prop42
 90
       50
102
RTVSPost2010PropOp42
 70
     0
102
RTVSPost2010Prop43
 90
        3
102
RTVSPost2010PropOp43
 70
     0
102
RTVSPost2010Prop44ColorIndex
 90
        5
102
RTVSPost2010Prop44ColorRGB
 90
      255
102
RTVSPost2010PropOp44
 70
     0
102
RTVSPost2010Prop45
280
     0
102
RTVSPost2010PropOp45
 70
     0
102
RTVSPost2010Prop46
 90
       50
102
RTVSPost2010PropOp46
 70
     0
102
RTVSPost2010Prop47
 90
       50
102
RTVSPost2010PropOp47
 70
     0
102
RTVSPost2010Prop48
 90
       50
102
RTVSPost2010PropOp48
 70
     0
102
RTVSPost2010Prop49
280
     0
102
RTVSPost2010PropOp49
 70
     0
102
RTVSPost2010Prop50
 90
       50
102
RTVSPost2010PropOp50
 70
     0
102
RTVSPost2010Prop51ColorIndex
 90
      256
102
RTVSPost2010Prop51ColorRGB
 90
-16777216
102
RTVSPost2010PropOp51
 70
     0
102
RTVSPost2010Prop52
140
1.0
102
RTVSPost2010PropOp52
 70
     0
102
RTVSPost2010Prop53
 90
        2
102
RTVSPost2010PropOp53
 70
     0
102
RTVSPost2010Prop54
  1
strokes_ogs.tif
102
RTVSPost2010PropOp54
 70
     0
102
RTVSPost2010Prop55
280
     0
102
RTVSPost2010PropOp55
 70
     0
102
RTVSPost2010Prop56
140
1.0
102
RTVSPost2010PropOp56
 70
     0
102
RTVSPost2010Prop57
140
1.0
102
RTVSPost2010PropOp57
 70
     0
  0
XRECORD
  5
264
102
{ACAD_REACTORS
330
263
102
}
330
263
100
AcDbXrecord
280
     1
102
RTVSPropertyOp0
 70
     1
102
RTVSPropertyOp1
 70
     1
102
RTVSPropertyOp2
 70
     1
102
RTVSPropertyOp3
 70
     1
102
RTVSPropertyOp4
 70
     1
102
RTVSPropertyOp5
 70
     1
102
RTVSPropertyOp6
 70
     1
102
RTVSPropertyOp7
 70
     1
102
RTVSPropertyOp8
 70
     1
102
RTVSPropertyOp9
 70
     1
102
RTVSPropertyOp10
 70
     1
102
RTVSPropertyOp11
 70
     1
102
RTVSPropertyOp12
 70
     1
102
RTVSPropertyOp13
 70
     1
102
RTVSPropertyOp14
 70
     1
102
RTVSPropertyOp15
 70
     1
102
RTVSPropertyOp16
 70
     1
102
RTVSPropertyOp17
 70
     1
102
RTVSPropertyOp18
 70
     1
102
RTVSPropertyOp19
 70
     1
102
RTVSPropertyOp20
 70
     1
102
RTVSPropertyOp21
 70
     1
102
RTVSPropertyOp22
 70
     1
102
RTVSPropertyOp23
 70
     1
102
RTVSPropertyOp24
 70
     1
102
RTVSPropertyOp25
 70
     1
102
RTVSPropertyOp26
 70
     1
102
RTVSPropertyOp27
 70
     1
102
RTVSPropertyOp28
 70
     1
102
RTVSPropertyOp29
 70
     1
102
RTVSPropertyOp30
 70
     1
102
RTVSPropertyOp31
 70
     1
102
RTVSPropertyOp32
 70
     1
102
RTVSPropertyOp33
 70
     1
102
RTVSPropertyOp34
 70
     1
102
RTVSPropertyOp35
 70
     1
102
RTVSPropertyOp36
 70
     1
102
RTVSPropertyOp37
 70
     1
102
RTVSPropertyOp38
 70
     1
102
RTVSPropertyOp39
 70
     1
102
RTVSPropertyOp40
 70
     1
102
RTVSPropertyOp41
 70
     1
102
RTVSPropertyOp42
 70
     1
102
RTVSPropertyOp43
 70
     1
102
RTVSPropertyOp44
 70
     1
102
RTVSPropertyOp45
 70
     1
102
RTVSPropertyOp46
 70
     1
102
RTVSPropertyOp47
 70
     1
102
RTVSPropertyOp48
 70
     1
102
RTVSPropertyOp49
 70
     1
102
RTVSPropertyOp50
 70
     1
102
RTVSPropertyOp51
 70
     0
102
RTVSPropertyOp52
 70
     0
102
RTVSPropertyOp53
 70
     1
102
RTVSPropertyOp54
 70
     1
102
RTVSPropertyOp55
 70
     1
102
RTVSPropertyOp56
 70
     1
102
RTVSPropertyOp57
 70
     1
102
RTVSPost2010Prop28
280
     0
102
RTVSPost2010PropOp28
 70
     1
102
RTVSPost2010Prop29
280
     1
102
RTVSPost2010PropOp29
 70
     1
102
RTVSPost2010Prop30
280
     1
102
RTVSPost2010PropOp30
 70
     1
102
RTVSPost2010Prop31
280
     0
102
RTVSPost2010PropOp31
 70
     1
102
RTVSPost2010Prop32
280
     0
102
RTVSPost2010PropOp32
 70
     1
102
RTVSPost2010Prop33
280
     0
102
RTVSPost2010PropOp33
 70
     1
102
RTVSPost2010Prop34
280
     0
102
RTVSPost2010PropOp34
 70
     1
102
RTVSPost2010Prop35
280
     0
102
RTVSPost2010PropOp35
 70
     1
102
RTVSPost2010Prop36
280
     0
102
RTVSPost2010PropOp36
 70
     1
102
RTVSPost2010Prop37
 90
       50
102
RTVSPost2010PropOp37
 70
     1
102
RTVSPost2010Prop38
140
0.0
102
RTVSPost2010PropOp38
 70
     1
102
RTVSPost2010Prop39
140
1.0
102
RTVSPost2010PropOp39
 70
     1
102
RTVSPost2010Prop40
 90
        0
102
RTVSPost2010PropOp40
 70
     1
102
RTVSPost2010Prop41ColorIndex
 90
      178
102
RTVSPost2010Prop41ColorRGB
 90
        0
102
RTVSPost2010PropOp41
 70
     1
102
RTVSPost2010Prop42
 90
       50
102
RTVSPost2010PropOp42
 70
     1
102
RTVSPost2010Prop43
 90
        3
102
RTVSPost2010PropOp43
 70
     1
102
RTVSPost2010Prop44ColorIndex
 90
        5
102
RTVSPost2010Prop44ColorRGB
 90
      255
102
RTVSPost2010PropOp44
 70
     1
102
RTVSPost2010Prop45
280
     0
102
RTVSPost2010PropOp45
 70
     1
102
RTVSPost2010Prop46
 90
       50
102
RTVSPost2010PropOp46
 70
     1
102
RTVSPost2010Prop47
 90
       50
102
RTVSPost2010PropOp47
 70
     1
102
RTVSPost2010Prop48
 90
       50
102
RTVSPost2010PropOp48
 70
     1
102
RTVSPost2010Prop49
280
     0
102
RTVSPost2010PropOp49
 70
     1
102
RTVSPost2010Prop50
 90
       50
102
RTVSPost2010PropOp50
 70
     1
102
RTVSPost2010Prop51ColorIndex
 90
      256
102
RTVSPost2010Prop51ColorRGB
 90
-16777216
102
RTVSPost2010PropOp51
 70
     0
102
RTVSPost2010Prop52
140
1.0
102
RTVSPost2010PropOp52
 70
     0
102
RTVSPost2010Prop53
 90
        2
102
RTVSPost2010PropOp53
 70
     1
102
RTVSPost2010Prop54
  1
strokes_ogs.tif
102
RTVSPost2010PropOp54
 70
     1
102
RTVSPost2010Prop55
280
     0
102
RTVSPost2010PropOp55
 70
     1
102
RTVSPost2010Prop56
140
1.0
102
RTVSPost2010PropOp56
 70
     1
102
RTVSPost2010Prop57
140
1.0
102
RTVSPost2010PropOp57
 70
     1
  0
XRECORD
  5
282
102
{ACAD_REACTORS
330
281
102
}
330
281
100
AcDbXrecord
280
     1
102
RTVSPropertyOp0
 70
     1
102
RTVSPropertyOp1
 70
     1
102
RTVSPropertyOp2
 70
     1
102
RTVSPropertyOp3
 70
     1
102
RTVSPropertyOp4
 70
     1
102
RTVSPropertyOp5
 70
     1
102
RTVSPropertyOp6
 70
     1
102
RTVSPropertyOp7
 70
     1
102
RTVSPropertyOp8
 70
     1
102
RTVSPropertyOp9
 70
     1
102
RTVSPropertyOp10
 70
     1
102
RTVSPropertyOp11
 70
     1
102
RTVSPropertyOp12
 70
     1
102
RTVSPropertyOp13
 70
     1
102
RTVSPropertyOp14
 70
     1
102
RTVSPropertyOp15
 70
     1
102
RTVSPropertyOp16
 70
     1
102
RTVSPropertyOp17
 70
     1
102
RTVSPropertyOp18
 70
     1
102
RTVSPropertyOp19
 70
     1
102
RTVSPropertyOp20
 70
     1
102
RTVSPropertyOp21
 70
     1
102
RTVSPropertyOp22
 70
     1
102
RTVSPropertyOp23
 70
     1
102
RTVSPropertyOp24
 70
     1
102
RTVSPropertyOp25
 70
     1
102
RTVSPropertyOp26
 70
     1
102
RTVSPropertyOp27
 70
     1
102
RTVSPropertyOp28
 70
     1
102
RTVSPropertyOp29
 70
     1
102
RTVSPropertyOp30
 70
     1
102
RTVSPropertyOp31
 70
     1
102
RTVSPropertyOp32
 70
     1
102
RTVSPropertyOp33
 70
     1
102
RTVSPropertyOp34
 70
     1
102
RTVSPropertyOp35
 70
     1
102
RTVSPropertyOp36
 70
     1
102
RTVSPropertyOp37
 70
     1
102
RTVSPropertyOp38
 70
     1
102
RTVSPropertyOp39
 70
     1
102
RTVSPropertyOp40
 70
     1
102
RTVSPropertyOp41
 70
     1
102
RTVSPropertyOp42
 70
     1
102
RTVSPropertyOp43
 70
     1
102
RTVSPropertyOp44
 70
     1
102
RTVSPropertyOp45
 70
     1
102
RTVSPropertyOp46
 70
     1
102
RTVSPropertyOp47
 70
     1
102
RTVSPropertyOp48
 70
     1
102
RTVSPropertyOp49
 70
     1
102
RTVSPropertyOp50
 70
     1
102
RTVSPropertyOp51
 70
     0
102
RTVSPropertyOp52
 70
     0
102
RTVSPropertyOp53
 70
     1
102
RTVSPropertyOp54
 70
     1
102
RTVSPropertyOp55
 70
     1
102
RTVSPropertyOp56
 70
     1
102
RTVSPropertyOp57
 70
     1
102
RTVSPost2010Prop28
280
     0
102
RTVSPost2010PropOp28
 70
     1
102
RTVSPost2010Prop29
280
     1
102
RTVSPost2010PropOp29
 70
     1
102
RTVSPost2010Prop30
280
     1
102
RTVSPost2010PropOp30
 70
     1
102
RTVSPost2010Prop31
280
     0
102
RTVSPost2010PropOp31
 70
     1
102
RTVSPost2010Prop32
280
     0
102
RTVSPost2010PropOp32
 70
     1
102
RTVSPost2010Prop33
280
     0
102
RTVSPost2010PropOp33
 70
     1
102
RTVSPost2010Prop34
280
     0
102
RTVSPost2010PropOp34
 70
     1
102
RTVSPost2010Prop35
280
     0
102
RTVSPost2010PropOp35
 70
     1
102
RTVSPost2010Prop36
280
     0
102
RTVSPost2010PropOp36
 70
     1
102
RTVSPost2010Prop37
 90
       50
102
RTVSPost2010PropOp37
 70
     1
102
RTVSPost2010Prop38
140
0.0
102
RTVSPost2010PropOp38
 70
     1
102
RTVSPost2010Prop39
140
1.0
102
RTVSPost2010PropOp39
 70
     1
102
RTVSPost2010Prop40
 90
        0
102
RTVSPost2010PropOp40
 70
     1
102
RTVSPost2010Prop41ColorIndex
 90
      178
102
RTVSPost2010Prop41ColorRGB
 90
        0
102
RTVSPost2010PropOp41
 70
     1
102
RTVSPost2010Prop42
 90
       50
102
RTVSPost2010PropOp42
 70
     1
102
RTVSPost2010Prop43
 90
        3
102
RTVSPost2010PropOp43
 70
     1
102
RTVSPost2010Prop44ColorIndex
 90
        5
102
RTVSPost2010Prop44ColorRGB
 90
      255
102
RTVSPost2010PropOp44
 70
     1
102
RTVSPost2010Prop45
280
     0
102
RTVSPost2010PropOp45
 70
     1
102
RTVSPost2010Prop46
 90
       50
102
RTVSPost2010PropOp46
 70
     1
102
RTVSPost2010Prop47
 90
       50
102
RTVSPost2010PropOp47
 70
     1
102
RTVSPost2010Prop48
 90
       50
102
RTVSPost2010PropOp48
 70
     1
102
RTVSPost2010Prop49
280
     0
102
RTVSPost2010PropOp49
 70
     1
102
RTVSPost2010Prop50
 90
       50
102
RTVSPost2010PropOp50
 70
     1
102
RTVSPost2010Prop51ColorIndex
 90
      256
102
RTVSPost2010Prop51ColorRGB
 90
-16777216
102
RTVSPost2010PropOp51
 70
     0
102
RTVSPost2010Prop52
140
1.0
102
RTVSPost2010PropOp52
 70
     0
102
RTVSPost2010Prop53
 90
        2
102
RTVSPost2010PropOp53
 70
     1
102
RTVSPost2010Prop54
  1
strokes_ogs.tif
102
RTVSPost2010PropOp54
 70
     1
102
RTVSPost2010Prop55
280
     0
102
RTVSPost2010PropOp55
 70
     1
102
RTVSPost2010Prop56
140
1.0
102
RTVSPost2010PropOp56
 70
     1
102
RTVSPost2010Prop57
140
1.0
102
RTVSPost2010PropOp57
 70
     1
  0
XRECORD
  5
280
102
{ACAD_REACTORS
330
27F
102
}
330
27F
100
AcDbXrecord
280
     1
102
RTVSPropertyOp0
 70
     1
102
RTVSPropertyOp1
 70
     1
102
RTVSPropertyOp2
 70
     1
102
RTVSPropertyOp3
 70
     1
102
RTVSPropertyOp4
 70
     1
102
RTVSPropertyOp5
 70
     1
102
RTVSPropertyOp6
 70
     1
102
RTVSPropertyOp7
 70
     1
102
RTVSPropertyOp8
 70
     1
102
RTVSPropertyOp9
 70
     1
102
RTVSPropertyOp10
 70
     1
102
RTVSPropertyOp11
 70
     1
102
RTVSPropertyOp12
 70
     1
102
RTVSPropertyOp13
 70
     1
102
RTVSPropertyOp14
 70
     1
102
RTVSPropertyOp15
 70
     1
102
RTVSPropertyOp16
 70
     1
102
RTVSPropertyOp17
 70
     1
102
RTVSPropertyOp18
 70
     1
102
RTVSPropertyOp19
 70
     1
102
RTVSPropertyOp20
 70
     1
102
RTVSPropertyOp21
 70
     1
102
RTVSPropertyOp22
 70
     1
102
RTVSPropertyOp23
 70
     1
102
RTVSPropertyOp24
 70
     1
102
RTVSPropertyOp25
 70
     1
102
RTVSPropertyOp26
 70
     1
102
RTVSPropertyOp27
 70
     1
102
RTVSPropertyOp28
 70
     1
102
RTVSPropertyOp29
 70
     1
102
RTVSPropertyOp30
 70
     1
102
RTVSPropertyOp31
 70
     1
102
RTVSPropertyOp32
 70
     1
102
RTVSPropertyOp33
 70
     1
102
RTVSPropertyOp34
 70
     1
102
RTVSPropertyOp35
 70
     1
102
RTVSPropertyOp36
 70
     1
102
RTVSPropertyOp37
 70
     1
102
RTVSPropertyOp38
 70
     1
102
RTVSPropertyOp39
 70
     1
102
RTVSPropertyOp40
 70
     1
102
RTVSPropertyOp41
 70
     1
102
RTVSPropertyOp42
 70
     1
102
RTVSPropertyOp43
 70
     1
102
RTVSPropertyOp44
 70
     1
102
RTVSPropertyOp45
 70
     1
102
RTVSPropertyOp46
 70
     1
102
RTVSPropertyOp47
 70
     1
102
RTVSPropertyOp48
 70
     1
102
RTVSPropertyOp49
 70
     1
102
RTVSPropertyOp50
 70
     1
102
RTVSPropertyOp51
 70
     0
102
RTVSPropertyOp52
 70
     0
102
RTVSPropertyOp53
 70
     1
102
RTVSPropertyOp54
 70
     1
102
RTVSPropertyOp55
 70
     1
102
RTVSPropertyOp56
 70
     1
102
RTVSPropertyOp57
 70
     1
102
RTVSPost2010Prop28
280
     0
102
RTVSPost2010PropOp28
 70
     1
102
RTVSPost2010Prop29
280
     1
102
RTVSPost2010PropOp29
 70
     1
102
RTVSPost2010Prop30
280
     1
102
RTVSPost2010PropOp30
 70
     1
102
RTVSPost2010Prop31
280
     0
102
RTVSPost2010PropOp31
 70
     1
102
RTVSPost2010Prop32
280
     0
102
RTVSPost2010PropOp32
 70
     1
102
RTVSPost2010Prop33
280
     0
102
RTVSPost2010PropOp33
 70
     1
102
RTVSPost2010Prop34
280
     0
102
RTVSPost2010PropOp34
 70
     1
102
RTVSPost2010Prop35
280
     0
102
RTVSPost2010PropOp35
 70
     1
102
RTVSPost2010Prop36
280
     0
102
RTVSPost2010PropOp36
 70
     1
102
RTVSPost2010Prop37
 90
       50
102
RTVSPost2010PropOp37
 70
     1
102
RTVSPost2010Prop38
140
0.0
102
RTVSPost2010PropOp38
 70
     1
102
RTVSPost2010Prop39
140
1.0
102
RTVSPost2010PropOp39
 70
     1
102
RTVSPost2010Prop40
 90
        0
102
RTVSPost2010PropOp40
 70
     1
102
RTVSPost2010Prop41ColorIndex
 90
      178
102
RTVSPost2010Prop41ColorRGB
 90
        0
102
RTVSPost2010PropOp41
 70
     1
102
RTVSPost2010Prop42
 90
       50
102
RTVSPost2010PropOp42
 70
     1
102
RTVSPost2010Prop43
 90
        3
102
RTVSPost2010PropOp43
 70
     1
102
RTVSPost2010Prop44ColorIndex
 90
        5
102
RTVSPost2010Prop44ColorRGB
 90
      255
102
RTVSPost2010PropOp44
 70
     1
102
RTVSPost2010Prop45
280
     0
102
RTVSPost2010PropOp45
 70
     1
102
RTVSPost2010Prop46
 90
       50
102
RTVSPost2010PropOp46
 70
     1
102
RTVSPost2010Prop47
 90
       50
102
RTVSPost2010PropOp47
 70
     1
102
RTVSPost2010Prop48
 90
       50
102
RTVSPost2010PropOp48
 70
     1
102
RTVSPost2010Prop49
280
     0
102
RTVSPost2010PropOp49
 70
     1
102
RTVSPost2010Prop50
 90
       50
102
RTVSPost2010PropOp50
 70
     1
102
RTVSPost2010Prop51ColorIndex
 90
      256
102
RTVSPost2010Prop51ColorRGB
 90
-16777216
102
RTVSPost2010PropOp51
 70
     0
102
RTVSPost2010Prop52
140
1.0
102
RTVSPost2010PropOp52
 70
     0
102
RTVSPost2010Prop53
 90
        2
102
RTVSPost2010PropOp53
 70
     1
102
RTVSPost2010Prop54
  1
strokes_ogs.tif
102
RTVSPost2010PropOp54
 70
     1
102
RTVSPost2010Prop55
280
     0
102
RTVSPost2010PropOp55
 70
     1
102
RTVSPost2010Prop56
140
1.0
102
RTVSPost2010PropOp56
 70
     1
102
RTVSPost2010Prop57
140
1.0
102
RTVSPost2010PropOp57
 70
     1
  0
XRECORD
  5
27A
102
{ACAD_REACTORS
330
279
102
}
330
279
100
AcDbXrecord
280
     1
102
RTVSPropertyOp0
 70
     1
102
RTVSPropertyOp1
 70
     1
102
RTVSPropertyOp2
 70
     1
102
RTVSPropertyOp3
 70
     1
102
RTVSPropertyOp4
 70
     1
102
RTVSPropertyOp5
 70
     1
102
RTVSPropertyOp6
 70
     1
102
RTVSPropertyOp7
 70
     1
102
RTVSPropertyOp8
 70
     1
102
RTVSPropertyOp9
 70
     1
102
RTVSPropertyOp10
 70
     1
102
RTVSPropertyOp11
 70
     1
102
RTVSPropertyOp12
 70
     1
102
RTVSPropertyOp13
 70
     1
102
RTVSPropertyOp14
 70
     1
102
RTVSPropertyOp15
 70
     1
102
RTVSPropertyOp16
 70
     1
102
RTVSPropertyOp17
 70
     1
102
RTVSPropertyOp18
 70
     1
102
RTVSPropertyOp19
 70
     1
102
RTVSPropertyOp20
 70
     1
102
RTVSPropertyOp21
 70
     1
102
RTVSPropertyOp22
 70
     1
102
RTVSPropertyOp23
 70
     1
102
RTVSPropertyOp24
 70
     1
102
RTVSPropertyOp25
 70
     1
102
RTVSPropertyOp26
 70
     1
102
RTVSPropertyOp27
 70
     1
102
RTVSPropertyOp28
 70
     1
102
RTVSPropertyOp29
 70
     1
102
RTVSPropertyOp30
 70
     1
102
RTVSPropertyOp31
 70
     1
102
RTVSPropertyOp32
 70
     1
102
RTVSPropertyOp33
 70
     1
102
RTVSPropertyOp34
 70
     1
102
RTVSPropertyOp35
 70
     1
102
RTVSPropertyOp36
 70
     1
102
RTVSPropertyOp37
 70
     1
102
RTVSPropertyOp38
 70
     1
102
RTVSPropertyOp39
 70
     1
102
RTVSPropertyOp40
 70
     1
102
RTVSPropertyOp41
 70
     1
102
RTVSPropertyOp42
 70
     1
102
RTVSPropertyOp43
 70
     1
102
RTVSPropertyOp44
 70
     1
102
RTVSPropertyOp45
 70
     1
102
RTVSPropertyOp46
 70
     1
102
RTVSPropertyOp47
 70
     1
102
RTVSPropertyOp48
 70
     1
102
RTVSPropertyOp49
 70
     1
102
RTVSPropertyOp50
 70
     1
102
RTVSPropertyOp51
 70
     0
102
RTVSPropertyOp52
 70
     0
102
RTVSPropertyOp53
 70
     1
102
RTVSPropertyOp54
 70
     1
102
RTVSPropertyOp55
 70
     1
102
RTVSPropertyOp56
 70
     1
102
RTVSPropertyOp57
 70
     1
102
RTVSPost2010Prop28
280
     0
102
RTVSPost2010PropOp28
 70
     1
102
RTVSPost2010Prop29
280
     1
102
RTVSPost2010PropOp29
 70
     1
102
RTVSPost2010Prop30
280
     1
102
RTVSPost2010PropOp30
 70
     1
102
RTVSPost2010Prop31
280
     0
102
RTVSPost2010PropOp31
 70
     1
102
RTVSPost2010Prop32
280
     0
102
RTVSPost2010PropOp32
 70
     1
102
RTVSPost2010Prop33
280
     0
102
RTVSPost2010PropOp33
 70
     1
102
RTVSPost2010Prop34
280
     0
102
RTVSPost2010PropOp34
 70
     1
102
RTVSPost2010Prop35
280
     0
102
RTVSPost2010PropOp35
 70
     1
102
RTVSPost2010Prop36
280
     0
102
RTVSPost2010PropOp36
 70
     1
102
RTVSPost2010Prop37
 90
       50
102
RTVSPost2010PropOp37
 70
     1
102
RTVSPost2010Prop38
140
0.0
102
RTVSPost2010PropOp38
 70
     1
102
RTVSPost2010Prop39
140
1.0
102
RTVSPost2010PropOp39
 70
     1
102
RTVSPost2010Prop40
 90
        0
102
RTVSPost2010PropOp40
 70
     1
102
RTVSPost2010Prop41ColorIndex
 90
      178
102
RTVSPost2010Prop41ColorRGB
 90
        0
102
RTVSPost2010PropOp41
 70
     1
102
RTVSPost2010Prop42
 90
       50
102
RTVSPost2010PropOp42
 70
     1
102
RTVSPost2010Prop43
 90
        3
102
RTVSPost2010PropOp43
 70
     1
102
RTVSPost2010Prop44ColorIndex
 90
        5
102
RTVSPost2010Prop44ColorRGB
 90
      255
102
RTVSPost2010PropOp44
 70
     1
102
RTVSPost2010Prop45
280
     0
102
RTVSPost2010PropOp45
 70
     1
102
RTVSPost2010Prop46
 90
       50
102
RTVSPost2010PropOp46
 70
     1
102
RTVSPost2010Prop47
 90
       50
102
RTVSPost2010PropOp47
 70
     1
102
RTVSPost2010Prop48
 90
       50
102
RTVSPost2010PropOp48
 70
     1
102
RTVSPost2010Prop49
280
     0
102
RTVSPost2010PropOp49
 70
     1
102
RTVSPost2010Prop50
 90
       50
102
RTVSPost2010PropOp50
 70
     1
102
RTVSPost2010Prop51ColorIndex
 90
      256
102
RTVSPost2010Prop51ColorRGB
 90
-16777216
102
RTVSPost2010PropOp51
 70
     0
102
RTVSPost2010Prop52
140
1.0
102
RTVSPost2010PropOp52
 70
     0
102
RTVSPost2010Prop53
 90
        2
102
RTVSPost2010PropOp53
 70
     1
102
RTVSPost2010Prop54
  1
strokes_ogs.tif
102
RTVSPost2010PropOp54
 70
     1
102
RTVSPost2010Prop55
280
     0
102
RTVSPost2010PropOp55
 70
     1
102
RTVSPost2010Prop56
140
1.0
102
RTVSPost2010PropOp56
 70
     1
102
RTVSPost2010Prop57
140
1.0
102
RTVSPost2010PropOp57
 70
     1
  0
XRECORD
  5
27C
102
{ACAD_REACTORS
330
27B
102
}
330
27B
100
AcDbXrecord
280
     1
102
RTVSPropertyOp0
 70
     1
102
RTVSPropertyOp1
 70
     1
102
RTVSPropertyOp2
 70
     1
102
RTVSPropertyOp3
 70
     1
102
RTVSPropertyOp4
 70
     1
102
RTVSPropertyOp5
 70
     1
102
RTVSPropertyOp6
 70
     1
102
RTVSPropertyOp7
 70
     1
102
RTVSPropertyOp8
 70
     1
102
RTVSPropertyOp9
 70
     1
102
RTVSPropertyOp10
 70
     1
102
RTVSPropertyOp11
 70
     1
102
RTVSPropertyOp12
 70
     1
102
RTVSPropertyOp13
 70
     1
102
RTVSPropertyOp14
 70
     1
102
RTVSPropertyOp15
 70
     1
102
RTVSPropertyOp16
 70
     1
102
RTVSPropertyOp17
 70
     1
102
RTVSPropertyOp18
 70
     1
102
RTVSPropertyOp19
 70
     1
102
RTVSPropertyOp20
 70
     1
102
RTVSPropertyOp21
 70
     1
102
RTVSPropertyOp22
 70
     1
102
RTVSPropertyOp23
 70
     1
102
RTVSPropertyOp24
 70
     1
102
RTVSPropertyOp25
 70
     1
102
RTVSPropertyOp26
 70
     1
102
RTVSPropertyOp27
 70
     1
102
RTVSPropertyOp28
 70
     1
102
RTVSPropertyOp29
 70
     1
102
RTVSPropertyOp30
 70
     1
102
RTVSPropertyOp31
 70
     1
102
RTVSPropertyOp32
 70
     1
102
RTVSPropertyOp33
 70
     1
102
RTVSPropertyOp34
 70
     1
102
RTVSPropertyOp35
 70
     1
102
RTVSPropertyOp36
 70
     1
102
RTVSPropertyOp37
 70
     1
102
RTVSPropertyOp38
 70
     1
102
RTVSPropertyOp39
 70
     1
102
RTVSPropertyOp40
 70
     1
102
RTVSPropertyOp41
 70
     1
102
RTVSPropertyOp42
 70
     1
102
RTVSPropertyOp43
 70
     1
102
RTVSPropertyOp44
 70
     1
102
RTVSPropertyOp45
 70
     1
102
RTVSPropertyOp46
 70
     1
102
RTVSPropertyOp47
 70
     1
102
RTVSPropertyOp48
 70
     1
102
RTVSPropertyOp49
 70
     1
102
RTVSPropertyOp50
 70
     1
102
RTVSPropertyOp51
 70
     0
102
RTVSPropertyOp52
 70
     0
102
RTVSPropertyOp53
 70
     1
102
RTVSPropertyOp54
 70
     1
102
RTVSPropertyOp55
 70
     1
102
RTVSPropertyOp56
 70
     1
102
RTVSPropertyOp57
 70
     1
102
RTVSPost2010Prop28
280
     0
102
RTVSPost2010PropOp28
 70
     1
102
RTVSPost2010Prop29
280
     1
102
RTVSPost2010PropOp29
 70
     1
102
RTVSPost2010Prop30
280
     1
102
RTVSPost2010PropOp30
 70
     1
102
RTVSPost2010Prop31
280
     0
102
RTVSPost2010PropOp31
 70
     1
102
RTVSPost2010Prop32
280
     0
102
RTVSPost2010PropOp32
 70
     1
102
RTVSPost2010Prop33
280
     0
102
RTVSPost2010PropOp33
 70
     1
102
RTVSPost2010Prop34
280
     0
102
RTVSPost2010PropOp34
 70
     1
102
RTVSPost2010Prop35
280
     0
102
RTVSPost2010PropOp35
 70
     1
102
RTVSPost2010Prop36
280
     0
102
RTVSPost2010PropOp36
 70
     1
102
RTVSPost2010Prop37
 90
       50
102
RTVSPost2010PropOp37
 70
     1
102
RTVSPost2010Prop38
140
0.0
102
RTVSPost2010PropOp38
 70
     1
102
RTVSPost2010Prop39
140
1.0
102
RTVSPost2010PropOp39
 70
     1
102
RTVSPost2010Prop40
 90
        0
102
RTVSPost2010PropOp40
 70
     1
102
RTVSPost2010Prop41ColorIndex
 90
      178
102
RTVSPost2010Prop41ColorRGB
 90
        0
102
RTVSPost2010PropOp41
 70
     1
102
RTVSPost2010Prop42
 90
       50
102
RTVSPost2010PropOp42
 70
     1
102
RTVSPost2010Prop43
 90
        3
102
RTVSPost2010PropOp43
 70
     1
102
RTVSPost2010Prop44ColorIndex
 90
        5
102
RTVSPost2010Prop44ColorRGB
 90
      255
102
RTVSPost2010PropOp44
 70
     1
102
RTVSPost2010Prop45
280
     0
102
RTVSPost2010PropOp45
 70
     1
102
RTVSPost2010Prop46
 90
       50
102
RTVSPost2010PropOp46
 70
     1
102
RTVSPost2010Prop47
 90
       50
102
RTVSPost2010PropOp47
 70
     1
102
RTVSPost2010Prop48
 90
       50
102
RTVSPost2010PropOp48
 70
     1
102
RTVSPost2010Prop49
280
     0
102
RTVSPost2010PropOp49
 70
     1
102
RTVSPost2010Prop50
 90
       50
102
RTVSPost2010PropOp50
 70
     1
102
RTVSPost2010Prop51ColorIndex
 90
      256
102
RTVSPost2010Prop51ColorRGB
 90
-16777216
102
RTVSPost2010PropOp51
 70
     0
102
RTVSPost2010Prop52
140
1.0
102
RTVSPost2010PropOp52
 70
     0
102
RTVSPost2010Prop53
 90
        2
102
RTVSPost2010PropOp53
 70
     1
102
RTVSPost2010Prop54
  1
strokes_ogs.tif
102
RTVSPost2010PropOp54
 70
     1
102
RTVSPost2010Prop55
280
     0
102
RTVSPost2010PropOp55
 70
     1
102
RTVSPost2010Prop56
140
1.0
102
RTVSPost2010PropOp56
 70
     1
102
RTVSPost2010Prop57
140
1.0
102
RTVSPost2010PropOp57
 70
     1
  0
XRECORD
  5
26C
102
{ACAD_REACTORS
330
26B
102
}
330
26B
100
AcDbXrecord
280
     1
102
RTVSPropertyOp0
 70
     1
102
RTVSPropertyOp1
 70
     1
102
RTVSPropertyOp2
 70
     1
102
RTVSPropertyOp3
 70
     1
102
RTVSPropertyOp4
 70
     1
102
RTVSPropertyOp5
 70
     1
102
RTVSPropertyOp6
 70
     1
102
RTVSPropertyOp7
 70
     1
102
RTVSPropertyOp8
 70
     1
102
RTVSPropertyOp9
 70
     1
102
RTVSPropertyOp10
 70
     1
102
RTVSPropertyOp11
 70
     1
102
RTVSPropertyOp12
 70
     1
102
RTVSPropertyOp13
 70
     1
102
RTVSPropertyOp14
 70
     1
102
RTVSPropertyOp15
 70
     1
102
RTVSPropertyOp16
 70
     1
102
RTVSPropertyOp17
 70
     1
102
RTVSPropertyOp18
 70
     1
102
RTVSPropertyOp19
 70
     1
102
RTVSPropertyOp20
 70
     1
102
RTVSPropertyOp21
 70
     1
102
RTVSPropertyOp22
 70
     1
102
RTVSPropertyOp23
 70
     1
102
RTVSPropertyOp24
 70
     1
102
RTVSPropertyOp25
 70
     1
102
RTVSPropertyOp26
 70
     1
102
RTVSPropertyOp27
 70
     1
102
RTVSPropertyOp28
 70
     1
102
RTVSPropertyOp29
 70
     1
102
RTVSPropertyOp30
 70
     1
102
RTVSPropertyOp31
 70
     1
102
RTVSPropertyOp32
 70
     1
102
RTVSPropertyOp33
 70
     1
102
RTVSPropertyOp34
 70
     1
102
RTVSPropertyOp35
 70
     1
102
RTVSPropertyOp36
 70
     1
102
RTVSPropertyOp37
 70
     1
102
RTVSPropertyOp38
 70
     1
102
RTVSPropertyOp39
 70
     1
102
RTVSPropertyOp40
 70
     1
102
RTVSPropertyOp41
 70
     1
102
RTVSPropertyOp42
 70
     1
102
RTVSPropertyOp43
 70
     1
102
RTVSPropertyOp44
 70
     1
102
RTVSPropertyOp45
 70
     1
102
RTVSPropertyOp46
 70
     1
102
RTVSPropertyOp47
 70
     1
102
RTVSPropertyOp48
 70
     1
102
RTVSPropertyOp49
 70
     1
102
RTVSPropertyOp50
 70
     1
102
RTVSPropertyOp51
 70
     0
102
RTVSPropertyOp52
 70
     0
102
RTVSPropertyOp53
 70
     1
102
RTVSPropertyOp54
 70
     1
102
RTVSPropertyOp55
 70
     1
102
RTVSPropertyOp56
 70
     1
102
RTVSPropertyOp57
 70
     1
102
RTVSPost2010Prop28
280
     0
102
RTVSPost2010PropOp28
 70
     1
102
RTVSPost2010Prop29
280
     1
102
RTVSPost2010PropOp29
 70
     1
102
RTVSPost2010Prop30
280
     1
102
RTVSPost2010PropOp30
 70
     1
102
RTVSPost2010Prop31
280
     0
102
RTVSPost2010PropOp31
 70
     1
102
RTVSPost2010Prop32
280
     0
102
RTVSPost2010PropOp32
 70
     1
102
RTVSPost2010Prop33
280
     0
102
RTVSPost2010PropOp33
 70
     1
102
RTVSPost2010Prop34
280
     0
102
RTVSPost2010PropOp34
 70
     1
102
RTVSPost2010Prop35
280
     0
102
RTVSPost2010PropOp35
 70
     1
102
RTVSPost2010Prop36
280
     0
102
RTVSPost2010PropOp36
 70
     1
102
RTVSPost2010Prop37
 90
       50
102
RTVSPost2010PropOp37
 70
     1
102
RTVSPost2010Prop38
140
0.0
102
RTVSPost2010PropOp38
 70
     1
102
RTVSPost2010Prop39
140
1.0
102
RTVSPost2010PropOp39
 70
     1
102
RTVSPost2010Prop40
 90
        0
102
RTVSPost2010PropOp40
 70
     1
102
RTVSPost2010Prop41ColorIndex
 90
      178
102
RTVSPost2010Prop41ColorRGB
 90
        0
102
RTVSPost2010PropOp41
 70
     1
102
RTVSPost2010Prop42
 90
       50
102
RTVSPost2010PropOp42
 70
     1
102
RTVSPost2010Prop43
 90
        3
102
RTVSPost2010PropOp43
 70
     1
102
RTVSPost2010Prop44ColorIndex
 90
        5
102
RTVSPost2010Prop44ColorRGB
 90
      255
102
RTVSPost2010PropOp44
 70
     1
102
RTVSPost2010Prop45
280
     0
102
RTVSPost2010PropOp45
 70
     1
102
RTVSPost2010Prop46
 90
       50
102
RTVSPost2010PropOp46
 70
     1
102
RTVSPost2010Prop47
 90
       50
102
RTVSPost2010PropOp47
 70
     1
102
RTVSPost2010Prop48
 90
       50
102
RTVSPost2010PropOp48
 70
     1
102
RTVSPost2010Prop49
280
     0
102
RTVSPost2010PropOp49
 70
     1
102
RTVSPost2010Prop50
 90
       50
102
RTVSPost2010PropOp50
 70
     1
102
RTVSPost2010Prop51ColorIndex
 90
      256
102
RTVSPost2010Prop51ColorRGB
 90
-16777216
102
RTVSPost2010PropOp51
 70
     0
102
RTVSPost2010Prop52
140
1.0
102
RTVSPost2010PropOp52
 70
     0
102
RTVSPost2010Prop53
 90
        2
102
RTVSPost2010PropOp53
 70
     1
102
RTVSPost2010Prop54
  1
strokes_ogs.tif
102
RTVSPost2010PropOp54
 70
     1
102
RTVSPost2010Prop55
280
     0
102
RTVSPost2010PropOp55
 70
     1
102
RTVSPost2010Prop56
140
1.0
102
RTVSPost2010PropOp56
 70
     1
102
RTVSPost2010Prop57
140
1.0
102
RTVSPost2010PropOp57
 70
     1
  0
XRECORD
  5
25E
102
{ACAD_REACTORS
330
25D
102
}
330
25D
100
AcDbXrecord
280
     1
102
RTVSPropertyOp0
 70
     1
102
RTVSPropertyOp1
 70
     1
102
RTVSPropertyOp2
 70
     1
102
RTVSPropertyOp3
 70
     1
102
RTVSPropertyOp4
 70
     1
102
RTVSPropertyOp5
 70
     1
102
RTVSPropertyOp6
 70
     1
102
RTVSPropertyOp7
 70
     1
102
RTVSPropertyOp8
 70
     1
102
RTVSPropertyOp9
 70
     1
102
RTVSPropertyOp10
 70
     1
102
RTVSPropertyOp11
 70
     1
102
RTVSPropertyOp12
 70
     1
102
RTVSPropertyOp13
 70
     1
102
RTVSPropertyOp14
 70
     1
102
RTVSPropertyOp15
 70
     1
102
RTVSPropertyOp16
 70
     1
102
RTVSPropertyOp17
 70
     1
102
RTVSPropertyOp18
 70
     1
102
RTVSPropertyOp19
 70
     1
102
RTVSPropertyOp20
 70
     1
102
RTVSPropertyOp21
 70
     1
102
RTVSPropertyOp22
 70
     1
102
RTVSPropertyOp23
 70
     1
102
RTVSPropertyOp24
 70
     1
102
RTVSPropertyOp25
 70
     1
102
RTVSPropertyOp26
 70
     1
102
RTVSPropertyOp27
 70
     1
102
RTVSPropertyOp28
 70
     1
102
RTVSPropertyOp29
 70
     1
102
RTVSPropertyOp30
 70
     1
102
RTVSPropertyOp31
 70
     1
102
RTVSPropertyOp32
 70
     1
102
RTVSPropertyOp33
 70
     1
102
RTVSPropertyOp34
 70
     1
102
RTVSPropertyOp35
 70
     1
102
RTVSPropertyOp36
 70
     1
102
RTVSPropertyOp37
 70
     1
102
RTVSPropertyOp38
 70
     1
102
RTVSPropertyOp39
 70
     1
102
RTVSPropertyOp40
 70
     1
102
RTVSPropertyOp41
 70
     1
102
RTVSPropertyOp42
 70
     1
102
RTVSPropertyOp43
 70
     1
102
RTVSPropertyOp44
 70
     1
102
RTVSPropertyOp45
 70
     1
102
RTVSPropertyOp46
 70
     1
102
RTVSPropertyOp47
 70
     1
102
RTVSPropertyOp48
 70
     1
102
RTVSPropertyOp49
 70
     1
102
RTVSPropertyOp50
 70
     1
102
RTVSPropertyOp51
 70
     0
102
RTVSPropertyOp52
 70
     0
102
RTVSPropertyOp53
 70
     1
102
RTVSPropertyOp54
 70
     1
102
RTVSPropertyOp55
 70
     1
102
RTVSPropertyOp56
 70
     1
102
RTVSPropertyOp57
 70
     1
102
RTVSPost2010Prop28
280
     0
102
RTVSPost2010PropOp28
 70
     1
102
RTVSPost2010Prop29
280
     1
102
RTVSPost2010PropOp29
 70
     1
102
RTVSPost2010Prop30
280
     1
102
RTVSPost2010PropOp30
 70
     1
102
RTVSPost2010Prop31
280
     0
102
RTVSPost2010PropOp31
 70
     1
102
RTVSPost2010Prop32
280
     0
102
RTVSPost2010PropOp32
 70
     1
102
RTVSPost2010Prop33
280
     0
102
RTVSPost2010PropOp33
 70
     1
102
RTVSPost2010Prop34
280
     0
102
RTVSPost2010PropOp34
 70
     1
102
RTVSPost2010Prop35
280
     0
102
RTVSPost2010PropOp35
 70
     1
102
RTVSPost2010Prop36
280
     0
102
RTVSPost2010PropOp36
 70
     1
102
RTVSPost2010Prop37
 90
       50
102
RTVSPost2010PropOp37
 70
     1
102
RTVSPost2010Prop38
140
0.0
102
RTVSPost2010PropOp38
 70
     1
102
RTVSPost2010Prop39
140
1.0
102
RTVSPost2010PropOp39
 70
     1
102
RTVSPost2010Prop40
 90
        0
102
RTVSPost2010PropOp40
 70
     1
102
RTVSPost2010Prop41ColorIndex
 90
      178
102
RTVSPost2010Prop41ColorRGB
 90
        0
102
RTVSPost2010PropOp41
 70
     1
102
RTVSPost2010Prop42
 90
       50
102
RTVSPost2010PropOp42
 70
     1
102
RTVSPost2010Prop43
 90
        3
102
RTVSPost2010PropOp43
 70
     1
102
RTVSPost2010Prop44ColorIndex
 90
        5
102
RTVSPost2010Prop44ColorRGB
 90
      255
102
RTVSPost2010PropOp44
 70
     1
102
RTVSPost2010Prop45
280
     0
102
RTVSPost2010PropOp45
 70
     1
102
RTVSPost2010Prop46
 90
       50
102
RTVSPost2010PropOp46
 70
     1
102
RTVSPost2010Prop47
 90
       50
102
RTVSPost2010PropOp47
 70
     1
102
RTVSPost2010Prop48
 90
       50
102
RTVSPost2010PropOp48
 70
     1
102
RTVSPost2010Prop49
280
     0
102
RTVSPost2010PropOp49
 70
     1
102
RTVSPost2010Prop50
 90
       50
102
RTVSPost2010PropOp50
 70
     1
102
RTVSPost2010Prop51ColorIndex
 90
      256
102
RTVSPost2010Prop51ColorRGB
 90
-16777216
102
RTVSPost2010PropOp51
 70
     0
102
RTVSPost2010Prop52
140
1.0
102
RTVSPost2010PropOp52
 70
     0
102
RTVSPost2010Prop53
 90
        2
102
RTVSPost2010PropOp53
 70
     1
102
RTVSPost2010Prop54
  1
strokes_ogs.tif
102
RTVSPost2010PropOp54
 70
     1
102
RTVSPost2010Prop55
280
     0
102
RTVSPost2010PropOp55
 70
     1
102
RTVSPost2010Prop56
140
1.0
102
RTVSPost2010PropOp56
 70
     1
102
RTVSPost2010Prop57
140
1.0
102
RTVSPost2010PropOp57
 70
     1
  0
XRECORD
  5
27E
102
{ACAD_REACTORS
330
27D
102
}
330
27D
100
AcDbXrecord
280
     1
102
RTVSPropertyOp0
 70
     1
102
RTVSPropertyOp1
 70
     1
102
RTVSPropertyOp2
 70
     1
102
RTVSPropertyOp3
 70
     1
102
RTVSPropertyOp4
 70
     1
102
RTVSPropertyOp5
 70
     1
102
RTVSPropertyOp6
 70
     1
102
RTVSPropertyOp7
 70
     1
102
RTVSPropertyOp8
 70
     1
102
RTVSPropertyOp9
 70
     1
102
RTVSPropertyOp10
 70
     1
102
RTVSPropertyOp11
 70
     1
102
RTVSPropertyOp12
 70
     1
102
RTVSPropertyOp13
 70
     1
102
RTVSPropertyOp14
 70
     1
102
RTVSPropertyOp15
 70
     1
102
RTVSPropertyOp16
 70
     1
102
RTVSPropertyOp17
 70
     1
102
RTVSPropertyOp18
 70
     1
102
RTVSPropertyOp19
 70
     1
102
RTVSPropertyOp20
 70
     1
102
RTVSPropertyOp21
 70
     1
102
RTVSPropertyOp22
 70
     1
102
RTVSPropertyOp23
 70
     1
102
RTVSPropertyOp24
 70
     1
102
RTVSPropertyOp25
 70
     1
102
RTVSPropertyOp26
 70
     1
102
RTVSPropertyOp27
 70
     1
102
RTVSPropertyOp28
 70
     1
102
RTVSPropertyOp29
 70
     1
102
RTVSPropertyOp30
 70
     1
102
RTVSPropertyOp31
 70
     1
102
RTVSPropertyOp32
 70
     1
102
RTVSPropertyOp33
 70
     1
102
RTVSPropertyOp34
 70
     1
102
RTVSPropertyOp35
 70
     1
102
RTVSPropertyOp36
 70
     1
102
RTVSPropertyOp37
 70
     1
102
RTVSPropertyOp38
 70
     1
102
RTVSPropertyOp39
 70
     1
102
RTVSPropertyOp40
 70
     1
102
RTVSPropertyOp41
 70
     1
102
RTVSPropertyOp42
 70
     1
102
RTVSPropertyOp43
 70
     1
102
RTVSPropertyOp44
 70
     1
102
RTVSPropertyOp45
 70
     1
102
RTVSPropertyOp46
 70
     1
102
RTVSPropertyOp47
 70
     1
102
RTVSPropertyOp48
 70
     1
102
RTVSPropertyOp49
 70
     1
102
RTVSPropertyOp50
 70
     1
102
RTVSPropertyOp51
 70
     0
102
RTVSPropertyOp52
 70
     0
102
RTVSPropertyOp53
 70
     1
102
RTVSPropertyOp54
 70
     1
102
RTVSPropertyOp55
 70
     1
102
RTVSPropertyOp56
 70
     1
102
RTVSPropertyOp57
 70
     1
102
RTVSPost2010Prop28
280
     0
102
RTVSPost2010PropOp28
 70
     1
102
RTVSPost2010Prop29
280
     1
102
RTVSPost2010PropOp29
 70
     1
102
RTVSPost2010Prop30
280
     1
102
RTVSPost2010PropOp30
 70
     1
102
RTVSPost2010Prop31
280
     0
102
RTVSPost2010PropOp31
 70
     1
102
RTVSPost2010Prop32
280
     0
102
RTVSPost2010PropOp32
 70
     1
102
RTVSPost2010Prop33
280
     0
102
RTVSPost2010PropOp33
 70
     1
102
RTVSPost2010Prop34
280
     0
102
RTVSPost2010PropOp34
 70
     1
102
RTVSPost2010Prop35
280
     0
102
RTVSPost2010PropOp35
 70
     1
102
RTVSPost2010Prop36
280
     0
102
RTVSPost2010PropOp36
 70
     1
102
RTVSPost2010Prop37
 90
       50
102
RTVSPost2010PropOp37
 70
     1
102
RTVSPost2010Prop38
140
0.0
102
RTVSPost2010PropOp38
 70
     1
102
RTVSPost2010Prop39
140
1.0
102
RTVSPost2010PropOp39
 70
     1
102
RTVSPost2010Prop40
 90
        0
102
RTVSPost2010PropOp40
 70
     1
102
RTVSPost2010Prop41ColorIndex
 90
      178
102
RTVSPost2010Prop41ColorRGB
 90
        0
102
RTVSPost2010PropOp41
 70
     1
102
RTVSPost2010Prop42
 90
       50
102
RTVSPost2010PropOp42
 70
     1
102
RTVSPost2010Prop43
 90
        3
102
RTVSPost2010PropOp43
 70
     1
102
RTVSPost2010Prop44ColorIndex
 90
        5
102
RTVSPost2010Prop44ColorRGB
 90
      255
102
RTVSPost2010PropOp44
 70
     1
102
RTVSPost2010Prop45
280
     0
102
RTVSPost2010PropOp45
 70
     1
102
RTVSPost2010Prop46
 90
       50
102
RTVSPost2010PropOp46
 70
     1
102
RTVSPost2010Prop47
 90
       50
102
RTVSPost2010PropOp47
 70
     1
102
RTVSPost2010Prop48
 90
       50
102
RTVSPost2010PropOp48
 70
     1
102
RTVSPost2010Prop49
280
     0
102
RTVSPost2010PropOp49
 70
     1
102
RTVSPost2010Prop50
 90
       50
102
RTVSPost2010PropOp50
 70
     1
102
RTVSPost2010Prop51ColorIndex
 90
      256
102
RTVSPost2010Prop51ColorRGB
 90
-16777216
102
RTVSPost2010PropOp51
 70
     0
102
RTVSPost2010Prop52
140
1.0
102
RTVSPost2010PropOp52
 70
     0
102
RTVSPost2010Prop53
 90
        2
102
RTVSPost2010PropOp53
 70
     1
102
RTVSPost2010Prop54
  1
strokes_ogs.tif
102
RTVSPost2010PropOp54
 70
     1
102
RTVSPost2010Prop55
280
     0
102
RTVSPost2010PropOp55
 70
     1
102
RTVSPost2010Prop56
140
1.0
102
RTVSPost2010PropOp56
 70
     1
102
RTVSPost2010Prop57
140
1.0
102
RTVSPost2010PropOp57
 70
     1
  0
ENDSEC
  0
EOF
