  0
SECTION
  2
HEADER
  9
$ACADVER
  1
AC1021
  9
$ACADMAINTVER
 70
    25
  9
$DWGCODEPAGE
  3
ANSI_1252
  9
$INSBASE
 10
3804.693056528511
 20
1444.863951419895
 30
0.0
  9
$EXTMIN
 10
1.000000000000000E+20
 20
1.000000000000000E+20
 30
1.000000000000000E+20
  9
$EXTMAX
 10
-1.000000000000000E+20
 20
-1.000000000000000E+20
 30
-1.000000000000000E+20
  9
$LIMMIN
 10
0.0
 20
0.0
  9
$LIMMAX
 10
12.0
 20
9.0
  9
$ORTHOMODE
 70
     0
  9
$REGENMODE
 70
     1
  9
$FILLMODE
 70
     1
  9
$QTEXTMODE
 70
     0
  9
$MIRRTEXT
 70
     1
  9
$LTSCALE
 40
1.0
  9
$ATTMODE
 70
     1
  9
$TEXTSIZE
 40
0.2
  9
$TRACEWID
 40
0.05
  9
$TEXTSTYLE
  7
Standard
  9
$CLAYER
  8
Graypants_Drum18
  9
$CELTYPE
  6
ByLayer
  9
$CECOLOR
 62
   256
  9
$CELTSCALE
 40
1.0
  9
$DISPSILH
 70
     0
  9
$DIMSCALE
 40
1.0
  9
$DIMASZ
 40
0.18
  9
$DIMEXO
 40
0.0625
  9
$DIMDLI
 40
0.38
  9
$DIMRND
 40
0.0
  9
$DIMDLE
 40
0.0
  9
$DIMEXE
 40
0.18
  9
$DIMTP
 40
0.0
  9
$DIMTM
 40
0.0
  9
$DIMTXT
 40
0.18
  9
$DIMCEN
 40
0.09
  9
$DIMTSZ
 40
0.0
  9
$DIMTOL
 70
     0
  9
$DIMLIM
 70
     0
  9
$DIMTIH
 70
     1
  9
$DIMTOH
 70
     1
  9
$DIMSE1
 70
     0
  9
$DIMSE2
 70
     0
  9
$DIMTAD
 70
     0
  9
$DIMZIN
 70
     0
  9
$DIMBLK
  1

  9
$DIMASO
 70
     1
  9
$DIMSHO
 70
     1
  9
$DIMPOST
  1

  9
$DIMAPOST
  1

  9
$DIMALT
 70
     0
  9
$DIMALTD
 70
     2
  9
$DIMALTF
 40
25.4
  9
$DIMLFAC
 40
1.0
  9
$DIMTOFL
 70
     0
  9
$DIMTVP
 40
0.0
  9
$DIMTIX
 70
     0
  9
$DIMSOXD
 70
     0
  9
$DIMSAH
 70
     0
  9
$DIMBLK1
  1

  9
$DIMBLK2
  1

  9
$DIMSTYLE
  2
STANDARD_ACAD
  9
$DIMCLRD
 70
     0
  9
$DIMCLRE
 70
     0
  9
$DIMCLRT
 70
     0
  9
$DIMTFAC
 40
1.0
  9
$DIMGAP
 40
0.09
  9
$DIMJUST
 70
     0
  9
$DIMSD1
 70
     0
  9
$DIMSD2
 70
     0
  9
$DIMTOLJ
 70
     1
  9
$DIMTZIN
 70
     0
  9
$DIMALTZ
 70
     0
  9
$DIMALTTZ
 70
     0
  9
$DIMUPT
 70
     0
  9
$DIMDEC
 70
     4
  9
$DIMTDEC
 70
     4
  9
$DIMALTU
 70
     2
  9
$DIMALTTD
 70
     2
  9
$DIMTXSTY
  7
Standard
  9
$DIMAUNIT
 70
     0
  9
$DIMADEC
 70
     0
  9
$DIMALTRND
 40
0.0
  9
$DIMAZIN
 70
     0
  9
$DIMDSEP
 70
    46
  9
$DIMATFIT
 70
     3
  9
$DIMFRAC
 70
     0
  9
$DIMLDRBLK
  1

  9
$DIMLUNIT
 70
     2
  9
$DIMLWD
 70
    -2
  9
$DIMLWE
 70
    -2
  9
$DIMTMOVE
 70
     2
  9
$DIMFXL
 40
1.0
  9
$DIMFXLON
 70
     0
  9
$DIMJOGANG
 40
0.7853981633974483
  9
$DIMTFILL
 70
     0
  9
$DIMTFILLCLR
 70
     0
  9
$DIMARCSYM
 70
     0
  9
$DIMLTYPE
  6

  9
$DIMLTEX1
  6

  9
$DIMLTEX2
  6

  9
$LUNITS
 70
     2
  9
$LUPREC
 70
     3
  9
$SKETCHINC
 40
0.1
  9
$FILLETRAD
 40
0.5
  9
$AUNITS
 70
     0
  9
$AUPREC
 70
     0
  9
$MENU
  1
.
  9
$ELEVATION
 40
0.0
  9
$PELEVATION
 40
0.0
  9
$THICKNESS
 40
0.0
  9
$LIMCHECK
 70
     0
  9
$CHAMFERA
 40
0.0
  9
$CHAMFERB
 40
0.0
  9
$CHAMFERC
 40
0.0
  9
$CHAMFERD
 40
0.0
  9
$SKPOLY
 70
     0
  9
$TDCREATE
 40
2460864.627932315
  9
$TDUCREATE
 40
2460864.961265648
  9
$TDUPDATE
 40
2460864.62794581
  9
$TDUUPDATE
 40
2460864.961279144
  9
$TDINDWG
 40
0.0000000116
  9
$TDUSRTIMER
 40
0.0000000116
  9
$USRTIMER
 70
     1
  9
$ANGBASE
 50
0.0
  9
$ANGDIR
 70
     0
  9
$PDMODE
 70
     0
  9
$PDSIZE
 40
0.0
  9
$PLINEWID
 40
0.0
  9
$SPLFRAME
 70
     0
  9
$SPLINETYPE
 70
     6
  9
$SPLINESEGS
 70
     8
  9
$HANDSEED
  5
39B
  9
$SURFTAB1
 70
     6
  9
$SURFTAB2
 70
     6
  9
$SURFTYPE
 70
     6
  9
$SURFU
 70
     6
  9
$SURFV
 70
     6
  9
$UCSBASE
  2

  9
$UCSNAME
  2

  9
$UCSORG
 10
0.0
 20
0.0
 30
0.0
  9
$UCSXDIR
 10
1.0
 20
0.0
 30
0.0
  9
$UCSYDIR
 10
0.0
 20
1.0
 30
0.0
  9
$UCSORTHOREF
  2

  9
$UCSORTHOVIEW
 70
     0
  9
$UCSORGTOP
 10
0.0
 20
0.0
 30
0.0
  9
$UCSORGBOTTOM
 10
0.0
 20
0.0
 30
0.0
  9
$UCSORGLEFT
 10
0.0
 20
0.0
 30
0.0
  9
$UCSORGRIGHT
 10
0.0
 20
0.0
 30
0.0
  9
$UCSORGFRONT
 10
0.0
 20
0.0
 30
0.0
  9
$UCSORGBACK
 10
0.0
 20
0.0
 30
0.0
  9
$PUCSBASE
  2

  9
$PUCSNAME
  2

  9
$PUCSORG
 10
0.0
 20
0.0
 30
0.0
  9
$PUCSXDIR
 10
1.0
 20
0.0
 30
0.0
  9
$PUCSYDIR
 10
0.0
 20
1.0
 30
0.0
  9
$PUCSORTHOREF
  2

  9
$PUCSORTHOVIEW
 70
     0
  9
$PUCSORGTOP
 10
0.0
 20
0.0
 30
0.0
  9
$PUCSORGBOTTOM
 10
0.0
 20
0.0
 30
0.0
  9
$PUCSORGLEFT
 10
0.0
 20
0.0
 30
0.0
  9
$PUCSORGRIGHT
 10
0.0
 20
0.0
 30
0.0
  9
$PUCSORGFRONT
 10
0.0
 20
0.0
 30
0.0
  9
$PUCSORGBACK
 10
0.0
 20
0.0
 30
0.0
  9
$USERI1
 70
     0
  9
$USERI2
 70
     0
  9
$USERI3
 70
     0
  9
$USERI4
 70
     0
  9
$USERI5
 70
     0
  9
$USERR1
 40
0.0
  9
$USERR2
 40
0.0
  9
$USERR3
 40
0.0
  9
$USERR4
 40
0.0
  9
$USERR5
 40
0.0
  9
$WORLDVIEW
 70
     1
  9
$SHADEDGE
 70
     3
  9
$SHADEDIF
 70
    70
  9
$TILEMODE
 70
     1
  9
$MAXACTVP
 70
    64
  9
$PINSBASE
 10
0.0
 20
0.0
 30
0.0
  9
$PLIMCHECK
 70
     0
  9
$PEXTMIN
 10
1.000000000000000E+20
 20
1.000000000000000E+20
 30
1.000000000000000E+20
  9
$PEXTMAX
 10
-1.000000000000000E+20
 20
-1.000000000000000E+20
 30
-1.000000000000000E+20
  9
$PLIMMIN
 10
0.0
 20
0.0
  9
$PLIMMAX
 10
12.0
 20
9.0
  9
$UNITMODE
 70
     0
  9
$VISRETAIN
 70
     1
  9
$PLINEGEN
 70
     0
  9
$PSLTSCALE
 70
     1
  9
$TREEDEPTH
 70
  3020
  9
$CMLSTYLE
  2
Standard
  9
$CMLJUST
 70
     0
  9
$CMLSCALE
 40
1.0
  9
$PROXYGRAPHICS
 70
     1
  9
$MEASUREMENT
 70
     1
  9
$CELWEIGHT
370
    -1
  9
$ENDCAPS
280
     0
  9
$JOINSTYLE
280
     0
  9
$LWDISPLAY
290
     0
  9
$INSUNITS
 70
     4
  9
$HYPERLINKBASE
  1

  9
$STYLESHEET
  1

  9
$XEDIT
290
     1
  9
$CEPSNTYPE
380
     0
  9
$PSTYLEMODE
290
     1
  9
$FINGERPRINTGUID
  2
{f9fb0f60-bd27-3546-a7e8-d04a65e061f5}
  9
$VERSIONGUID
  2
{FAEB1C32-E019-11D5-929B-00C0DF256EC4}
  9
$EXTNAMES
290
     1
  9
$PSVPSCALE
 40
0.0
  9
$OLESTARTUP
290
     0
  9
$SORTENTS
280
   127
  9
$INDEXCTL
280
     0
  9
$HIDETEXT
280
     1
  9
$XCLIPFRAME
290
     0
  9
$HALOGAP
280
     0
  9
$OBSCOLOR
 70
   257
  9
$OBSLTYPE
280
     0
  9
$INTERSECTIONDISPLAY
280
     0
  9
$INTERSECTIONCOLOR
 70
   257
  9
$DIMASSOC
280
     2
  9
$PROJECTNAME
  1

  9
$CAMERADISPLAY
290
     0
  9
$LENSLENGTH
 40
50.0
  9
$CAMERAHEIGHT
 40
0.0
  9
$STEPSPERSEC
 40
2.0
  9
$STEPSIZE
 40
6.0
  9
$3DDWFPREC
 40
2.0
  9
$PSOLWIDTH
 40
0.25
  9
$PSOLHEIGHT
 40
4.0
  9
$LOFTANG1
 40
1.570796326794897
  9
$LOFTANG2
 40
1.570796326794897
  9
$LOFTMAG1
 40
0.0
  9
$LOFTMAG2
 40
0.0
  9
$LOFTPARAM
 70
     7
  9
$LOFTNORMALS
280
     1
  9
$LATITUDE
 40
37.795
  9
$LONGITUDE
 40
-122.394
  9
$NORTHDIRECTION
 40
0.0
  9
$TIMEZONE
 70
 -8000
  9
$LIGHTGLYPHDISPLAY
280
     1
  9
$TILEMODELIGHTSYNCH
280
     1
  9
$CMATERIAL
347
44
  9
$SOLIDHIST
280
     0
  9
$SHOWHIST
280
     1
  9
$DWFFRAME
280
     2
  9
$DGNFRAME
280
     2
  9
$REALWORLDSCALE
290
     1
  9
$INTERFERECOLOR
 62
   256
  9
$CSHADOW
280
     0
  9
$SHADOWPLANELOCATION
 40
0.0
  0
ENDSEC
  0
SECTION
  2
CLASSES
  0
CLASS
  1
ACDBDICTIONARYWDFLT
  2
AcDbDictionaryWithDefault
  3
ObjectDBX Classes
 90
        0
 91
        3
280
     0
281
     0
  0
CLASS
  1
VISUALSTYLE
  2
AcDbVisualStyle
  3
ObjectDBX Classes
 90
     4095
 91
        3
280
     0
281
     0
  0
CLASS
  1
MATERIAL
  2
AcDbMaterial
  3
ObjectDBX Classes
 90
     1153
 91
        3
280
     0
281
     0
  0
CLASS
  1
SCALE
  2
AcDbScale
  3
ObjectDBX Classes
 90
     1153
 91
        3
280
     0
281
     0
  0
CLASS
  1
TABLESTYLE
  2
AcDbTableStyle
  3
ObjectDBX Classes
 90
     4095
 91
        3
280
     0
281
     0
  0
CLASS
  1
MLEADERSTYLE
  2
AcDbMLeaderStyle
  3
ACDB_MLEADERSTYLE_CLASS
 90
     4095
 91
        3
280
     0
281
     0
  0
CLASS
  1
SUN
  2
AcDbSun
  3
SCENEOE
 90
     1153
 91
        3
280
     0
281
     0
  0
CLASS
  1
DICTIONARYVAR
  2
AcDbDictionaryVar
  3
ObjectDBX Classes
 90
        0
 91
        3
280
     0
281
     0
  0
CLASS
  1
CELLSTYLEMAP
  2
AcDbCellStyleMap
  3
ObjectDBX Classes
 90
     1152
 91
        3
280
     0
281
     0
  0
ENDSEC
  0
SECTION
  2
TABLES
  0
TABLE
  2
VPORT
  5
8
330
0
100
AcDbSymbolTable
 70
     1
  0
VPORT
  5
29
330
8
100
AcDbSymbolTableRecord
100
AcDbViewportTableRecord
  2
*Active
 70
     0
 10
0.0
 20
0.0
 11
1.0
 21
1.0
 12
10.42990654205607
 22
4.5
 13
0.0
 23
0.0
 14
0.5
 24
0.5
 15
0.5
 25
0.5
 16
0.0
 26
0.0
 36
1.0
 17
0.0
 27
0.0
 37
0.0
 40
9.0
 41
1.972972972850329
 42
50.0
 43
0.0
 44
0.0
 50
0.0
 51
0.0
 71
     0
 72
   100
 73
     1
 74
     3
 75
     0
 76
     0
 77
     0
 78
     0
281
     0
 65
     1
110
0.0
120
0.0
130
0.0
111
1.0
121
0.0
131
0.0
112
0.0
122
1.0
132
0.0
 79
     0
146
0.0
348
2F
 60
     3
 61
     5
292
     1
282
     1
141
0.0
142
0.0
 63
   250
361
6D
  0
ENDTAB
  0
TABLE
  2
LTYPE
  5
5
330
0
100
AcDbSymbolTable
 70
     2
  0
LTYPE
  5
14
330
5
100
AcDbSymbolTableRecord
100
AcDbLinetypeTableRecord
  2
ByBlock
 70
     0
  3

 72
    65
 73
     0
 40
0.0
  0
LTYPE
  5
15
330
5
100
AcDbSymbolTableRecord
100
AcDbLinetypeTableRecord
  2
ByLayer
 70
     0
  3

 72
    65
 73
     0
 40
0.0
  0
LTYPE
  5
16
330
5
100
AcDbSymbolTableRecord
100
AcDbLinetypeTableRecord
  2
Continuous
 70
     0
  3
Solid line
 72
    65
 73
     0
 40
0.0
  0
LTYPE
  5
141
330
5
100
AcDbSymbolTableRecord
100
AcDbLinetypeTableRecord
  2
Hidden
 70
     0
  3

 72
    65
 73
     2
 40
4.0
 49
2.0
 74
     0
 49
-2.0
 74
     0
  0
ENDTAB
  0
TABLE
  2
LAYER
  5
2
330
0
100
AcDbSymbolTable
 70
     2
  0
LAYER
  5
10
330
2
100
AcDbSymbolTableRecord
100
AcDbLayerTableRecord
  2
0
 70
     0
 62
     7
  6
Continuous
370
    -3
390
F
347
46
  0
LAYER
  5
6E
330
2
100
AcDbSymbolTableRecord
100
AcDbLayerTableRecord
  2
Graypants_Drum18
 70
     0
 62
    36
420
  8866048
  6
Continuous
370
    -3
390
F
347
46
  0
ENDTAB
  0
TABLE
  2
STYLE
  5
3
330
0
100
AcDbSymbolTable
 70
     1
  0
STYLE
  5
11
330
3
100
AcDbSymbolTableRecord
100
AcDbTextStyleTableRecord
  2
Standard
 70
     0
 40
0.0
 41
1.0
 50
0.0
 71
     0
 42
0.2
  3
txt
  4

  0
ENDTAB
  0
TABLE
  2
VIEW
  5
6
330
0
100
AcDbSymbolTable
 70
     0
  0
ENDTAB
  0
TABLE
  2
UCS
  5
7
330
0
100
AcDbSymbolTable
 70
     0
  0
ENDTAB
  0
TABLE
  2
APPID
  5
9
330
0
100
AcDbSymbolTable
 70
     2
  0
APPID
  5
12
330
9
100
AcDbSymbolTableRecord
100
AcDbRegAppTableRecord
  2
ACAD
 70
     0
  0
APPID
  5
393
330
9
100
AcDbSymbolTableRecord
100
AcDbRegAppTableRecord
  2
ACAD_MLEADERVER
 70
     0
  0
ENDTAB
  0
TABLE
  2
DIMSTYLE
  5
A
330
0
100
AcDbSymbolTable
 70
     1
100
AcDbDimStyleTable
  0
DIMSTYLE
105
27
330
A
100
AcDbSymbolTableRecord
100
AcDbDimStyleTableRecord
  2
STANDARD_ACAD
 70
     0
178
     0
340
11
  0
ENDTAB
  0
TABLE
  2
BLOCK_RECORD
  5
1
330
0
100
AcDbSymbolTable
 70
     1
  0
BLOCK_RECORD
  5
1F
330
1
100
AcDbSymbolTableRecord
100
AcDbBlockTableRecord
  2
*Model_Space
340
22
 70
     0
280
     1
281
     0
  0
BLOCK_RECORD
  5
1B
330
1
100
AcDbSymbolTableRecord
100
AcDbBlockTableRecord
  2
*Paper_Space
340
1E
 70
     0
280
     1
281
     0
  0
BLOCK_RECORD
  5
23
330
1
100
AcDbSymbolTableRecord
100
AcDbBlockTableRecord
  2
*Paper_Space0
340
26
 70
     0
280
     1
281
     0
  0
ENDTAB
  0
ENDSEC
  0
SECTION
  2
BLOCKS
  0
BLOCK
  5
20
330
1F
100
AcDbEntity
  8
0
100
AcDbBlockBegin
  2
*Model_Space
 70
     0
 10
0.0
 20
0.0
 30
0.0
  3
*Model_Space
  1

  0
ENDBLK
  5
21
330
1F
100
AcDbEntity
  8
0
100
AcDbBlockEnd
  0
BLOCK
  5
1C
330
1B
100
AcDbEntity
 67
     1
  8
0
100
AcDbBlockBegin
  2
*Paper_Space
 70
     0
 10
0.0
 20
0.0
 30
0.0
  3
*Paper_Space
  1

  0
ENDBLK
  5
1D
330
1B
100
AcDbEntity
 67
     1
  8
0
100
AcDbBlockEnd
  0
BLOCK
  5
24
330
23
100
AcDbEntity
  8
0
100
AcDbBlockBegin
  2
*Paper_Space0
 70
     0
 10
0.0
 20
0.0
 30
0.0
  3
*Paper_Space0
  1

  0
ENDBLK
  5
25
330
23
100
AcDbEntity
  8
0
100
AcDbBlockEnd
  0
ENDSEC
  0
SECTION
  2
ENTITIES
  0
LINE
  5
6F
330
1F
100
AcDbEntity
  8
Graypants_Drum18
100
AcDbLine
 10
-233.4072081899997
 20
-1399.037053702211
 30
0.0
 11
234.9947081899971
 21
-1399.037053702211
 31
0.0
  0
LINE
  5
70
330
1F
100
AcDbEntity
  8
Graypants_Drum18
100
AcDbLine
 10
-233.4072081899997
 20
-1391.837053702211
 30
0.0
 11
234.9947081899971
 21
-1391.837053702211
 31
0.0
  0
LINE
  5
71
330
1F
100
AcDbEntity
  8
Graypants_Drum18
100
AcDbLine
 10
-233.4072081899997
 20
-1384.637053702211
 30
0.0
 11
234.9947081899971
 21
-1384.637053702211
 31
0.0
  0
LINE
  5
72
330
1F
100
AcDbEntity
  8
Graypants_Drum18
100
AcDbLine
 10
-233.4072081899997
 20
-1377.437053702211
 30
0.0
 11
234.9947081899971
 21
-1377.437053702211
 31
0.0
  0
LINE
  5
73
330
1F
100
AcDbEntity
  8
Graypants_Drum18
100
AcDbLine
 10
-233.4072081899997
 20
-1370.237053702211
 30
0.0
 11
234.9947081899971
 21
-1370.237053702211
 31
0.0
  0
LINE
  5
74
330
1F
100
AcDbEntity
  8
Graypants_Drum18
100
AcDbLine
 10
-233.4072081899997
 20
-1363.037053702211
 30
0.0
 11
234.9947081899971
 21
-1363.037053702211
 31
0.0
  0
LINE
  5
75
330
1F
100
AcDbEntity
  8
Graypants_Drum18
100
AcDbLine
 10
-233.4072081899997
 20
-1355.837053702211
 30
0.0
 11
234.9947081899971
 21
-1355.837053702211
 31
0.0
  0
LINE
  5
76
330
1F
100
AcDbEntity
  8
Graypants_Drum18
100
AcDbLine
 10
-233.4072081899997
 20
-1348.637053702211
 30
0.0
 11
234.9947081899971
 21
-1348.637053702211
 31
0.0
  0
LINE
  5
77
330
1F
100
AcDbEntity
  8
Graypants_Drum18
100
AcDbLine
 10
-233.4072081899997
 20
-1341.437053702211
 30
0.0
 11
234.9947081899971
 21
-1341.437053702211
 31
0.0
  0
LINE
  5
78
330
1F
100
AcDbEntity
  8
Graypants_Drum18
100
AcDbLine
 10
-233.4072081899997
 20
-1334.237053702211
 30
0.0
 11
234.9947081899971
 21
-1334.237053702211
 31
0.0
  0
LINE
  5
79
330
1F
100
AcDbEntity
  8
Graypants_Drum18
100
AcDbLine
 10
-233.4072081899997
 20
-1327.037053702211
 30
0.0
 11
234.9947081899971
 21
-1327.037053702211
 31
0.0
  0
LINE
  5
7A
330
1F
100
AcDbEntity
  8
Graypants_Drum18
100
AcDbLine
 10
-233.4072081899997
 20
-1319.837053702211
 30
0.0
 11
234.9947081899971
 21
-1319.837053702211
 31
0.0
  0
LINE
  5
7B
330
1F
100
AcDbEntity
  8
Graypants_Drum18
100
AcDbLine
 10
-233.4072081899997
 20
-1312.637053702211
 30
0.0
 11
234.9947081899971
 21
-1312.637053702211
 31
0.0
  0
LINE
  5
7C
330
1F
100
AcDbEntity
  8
Graypants_Drum18
100
AcDbLine
 10
-233.4072081899997
 20
-1305.437053702211
 30
0.0
 11
234.9947081899971
 21
-1305.437053702211
 31
0.0
  0
LINE
  5
7D
330
1F
100
AcDbEntity
  8
Graypants_Drum18
100
AcDbLine
 10
-233.4072081899997
 20
-1298.23705370221
 30
0.0
 11
234.9947081899971
 21
-1298.23705370221
 31
0.0
  0
LINE
  5
7E
330
1F
100
AcDbEntity
  8
Graypants_Drum18
100
AcDbLine
 10
-233.4072081899997
 20
-1291.03705370221
 30
0.0
 11
234.9947081899971
 21
-1291.03705370221
 31
0.0
  0
LINE
  5
7F
330
1F
100
AcDbEntity
  8
Graypants_Drum18
100
AcDbLine
 10
-233.4072081899997
 20
-1283.83705370221
 30
0.0
 11
234.9947081899971
 21
-1283.83705370221
 31
0.0
  0
LINE
  5
80
330
1F
100
AcDbEntity
  8
Graypants_Drum18
100
AcDbLine
 10
-233.4072081899997
 20
-1276.63705370221
 30
0.0
 11
234.9947081899971
 21
-1276.63705370221
 31
0.0
  0
LINE
  5
81
330
1F
100
AcDbEntity
  8
Graypants_Drum18
100
AcDbLine
 10
-233.4072081899997
 20
-1269.43705370221
 30
0.0
 11
234.9947081899971
 21
-1269.43705370221
 31
0.0
  0
LINE
  5
82
330
1F
100
AcDbEntity
  8
Graypants_Drum18
100
AcDbLine
 10
-233.4072081899997
 20
-1262.23705370221
 30
0.0
 11
234.9947081899971
 21
-1262.23705370221
 31
0.0
  0
LINE
  5
83
330
1F
100
AcDbEntity
  8
Graypants_Drum18
100
AcDbLine
 10
-233.4072081899997
 20
-1255.03705370221
 30
0.0
 11
234.9947081899971
 21
-1255.03705370221
 31
0.0
  0
LINE
  5
84
330
1F
100
AcDbEntity
  8
Graypants_Drum18
100
AcDbLine
 10
-233.4072081899997
 20
-1247.83705370221
 30
0.0
 11
234.9947081899971
 21
-1247.83705370221
 31
0.0
  0
LINE
  5
85
330
1F
100
AcDbEntity
  8
Graypants_Drum18
100
AcDbLine
 10
-233.4072081899997
 20
-1240.63705370221
 30
0.0
 11
234.9947081899971
 21
-1240.63705370221
 31
0.0
  0
LINE
  5
86
330
1F
100
AcDbEntity
  8
Graypants_Drum18
100
AcDbLine
 10
-233.4072081899997
 20
-1233.43705370221
 30
0.0
 11
234.9947081899971
 21
-1233.43705370221
 31
0.0
  0
LINE
  5
87
330
1F
100
AcDbEntity
  8
Graypants_Drum18
100
AcDbLine
 10
-233.4072081899997
 20
-1226.23705370221
 30
0.0
 11
234.9947081899971
 21
-1226.23705370221
 31
0.0
  0
LINE
  5
88
330
1F
100
AcDbEntity
  8
Graypants_Drum18
100
AcDbLine
 10
-233.4072081899997
 20
-1219.03705370221
 30
0.0
 11
234.9947081899971
 21
-1219.03705370221
 31
0.0
  0
LINE
  5
89
330
1F
100
AcDbEntity
  8
Graypants_Drum18
100
AcDbLine
 10
-233.4072081899997
 20
-1211.83705370221
 30
0.0
 11
234.9947081899971
 21
-1211.83705370221
 31
0.0
  0
LINE
  5
8A
330
1F
100
AcDbEntity
  8
Graypants_Drum18
100
AcDbLine
 10
-233.4072081899997
 20
-1204.63705370221
 30
0.0
 11
234.9947081899971
 21
-1204.63705370221
 31
0.0
  0
LINE
  5
8B
330
1F
100
AcDbEntity
  8
Graypants_Drum18
100
AcDbLine
 10
-233.4072081899997
 20
-1197.43705370221
 30
0.0
 11
234.9947081899971
 21
-1197.43705370221
 31
0.0
  0
ARC
  5
8C
330
1F
100
AcDbEntity
  8
Graypants_Drum18
  6
Continuous
 62
    36
420
  8866048
370
    -3
100
AcDbCircle
 10
0.0000003960381143
 20
37.64409051224977
 30
0.0
 40
3.174999999999962
100
AcDbArc
 50
118.192868670429
 51
149.9999993972135
  0
ARC
  5
8D
330
1F
100
AcDbEntity
  8
Graypants_Drum18
  6
Continuous
 62
    36
420
  8866048
370
    -3
100
AcDbCircle
 10
0.000000396039038
 20
37.64409051225059
 30
0.0
 40
3.174999999998957
100
AcDbArc
 50
29.9999993972093
 51
61.80714754697443
  0
ARC
  5
8E
330
1F
100
AcDbEntity
  8
Graypants_Drum18
  6
Continuous
 62
    36
420
  8866048
370
    -3
100
AcDbCircle
 10
32.60073848794885
 20
-18.82204559910381
 30
0.0
 40
3.174999999999947
100
AcDbArc
 50
358.1928599590931
 51
29.99999939721343
  0
ARC
  5
8F
330
1F
100
AcDbEntity
  8
Graypants_Drum18
  6
Continuous
 62
    36
420
  8866048
370
    -3
100
AcDbCircle
 10
32.60073848794849
 20
-18.82204559910362
 30
0.0
 40
3.175000000000608
100
AcDbArc
 50
269.9999993972193
 51
301.8071388356285
  0
ARC
  5
90
330
1F
100
AcDbEntity
  8
Graypants_Drum18
  6
Continuous
 62
    36
420
  8866048
370
    -3
100
AcDbCircle
 10
-32.60073888398872
 20
-18.82204491314508
 30
0.0
 40
3.174999999999656
100
AcDbArc
 50
238.1928645456723
 51
269.9999993972124
  0
ARC
  5
91
330
1F
100
AcDbEntity
  8
Graypants_Drum18
  6
Continuous
 62
    36
420
  8866048
370
    -3
100
AcDbCircle
 10
-32.60073888398975
 20
-18.82204491314425
 30
0.0
 40
3.174999999998902
100
AcDbArc
 50
149.9999993972123
 51
181.8071434222204
  0
LINE
  5
92
330
1F
100
AcDbEntity
  8
Graypants_Drum18
  6
Continuous
 62
    36
420
  8866048
370
    -3
100
AcDbLine
 10
1.500000000008299
 20
56.45278718075498
 30
0.0
 11
1.5000000000108
 21
12.96192165773401
 31
0.0
  0
LINE
  5
93
330
1F
100
AcDbEntity
  8
Graypants_Drum18
  6
Continuous
 62
    36
420
  8866048
370
    -3
100
AcDbLine
 10
-1.499999999991587
 20
56.43110391493254
 30
0.0
 11
-1.499999999988972
 21
12.96192165775182
 31
0.0
  0
LINE
  5
94
330
1F
100
AcDbEntity
  8
Graypants_Drum18
  6
Continuous
 62
    36
420
  8866048
370
    -3
100
AcDbLine
 10
-2.170566624869252
 20
-0.7938687519208951
 30
0.0
 11
-2.698750000001155
 21
-0.7938687408063014
 31
0.0
  0
LINE
  5
95
330
1F
100
AcDbEntity
  8
Graypants_Drum18
  6
Continuous
 62
    36
420
  8866048
370
    -3
100
AcDbLine
 10
-2.698750000001155
 20
0.7938687408076976
 30
0.0
 11
-2.166414357816962
 21
0.7938687521013483
 31
0.0
  0
LINE
  5
96
330
1F
100
AcDbEntity
  8
Graypants_Drum18
  6
Continuous
 62
    36
420
  8866048
370
    -3
100
AcDbLine
 10
2.702068816523706
 20
0.7938684566426719
 30
0.0
 11
2.166414514038479
 21
0.7938684831958245
 31
0.0
  0
LINE
  5
97
330
1F
100
AcDbEntity
  8
Graypants_Drum18
  6
Continuous
 62
    36
420
  8866048
370
    -3
100
AcDbLine
 10
2.698749999999109
 20
-0.7938683991483639
 30
0.0
 11
2.170566833144449
 21
-0.7938683890589981
 31
0.0
  0
LINE
  5
98
330
1F
100
AcDbEntity
  8
Graypants_Drum18
  6
Continuous
 62
    36
420
  8866048
370
    -3
100
AcDbLine
 10
-2.38125000000025
 20
11.11250206415066
 30
0.0
 11
-2.381250000000364
 21
0.7938687447597932
 31
0.0
  0
LINE
  5
99
330
1F
100
AcDbEntity
  8
Graypants_Drum18
  6
Continuous
 62
    36
420
  8866048
370
    -3
100
AcDbLine
 10
-2.381250000000364
 20
-0.7938687447585107
 30
0.0
 11
-2.381250000000477
 21
-11.1124999999992
 31
0.0
  0
LINE
  5
9A
330
1F
100
AcDbEntity
  8
Graypants_Drum18
  6
Continuous
 62
    36
420
  8866048
370
    -3
100
AcDbLine
 10
2.381249999999568
 20
11.11250206415044
 30
0.0
 11
2.381249999999454
 21
0.7938684731486365
 31
0.0
  0
LINE
  5
9B
330
1F
100
AcDbEntity
  8
Graypants_Drum18
  6
Continuous
 62
    36
420
  8866048
370
    -3
100
AcDbLine
 10
2.381249999999454
 20
-0.7938683955606347
 30
0.0
 11
2.381249999999227
 21
-11.11249999999943
 31
0.0
  0
ARC
  5
9C
330
1F
100
AcDbEntity
  8
Graypants_Drum18
  6
Continuous
 62
    36
420
  8866048
370
    -3
100
AcDbCircle
 10
-0.0000000000007793
 20
0.0000000000000096
 30
0.0
 40
2.9210000000014
210
0.0
220
0.0
230
-1.0
100
AcDbArc
 50
15.77020168068009
 51
35.39113727951084
  0
ARC
  5
9D
330
1F
100
AcDbEntity
  8
Graypants_Drum18
  6
Continuous
 62
    36
420
  8866048
370
    -3
100
AcDbCircle
 10
-0.0000000000006782
 20
0.0000000000019283
 30
0.0
 40
2.921000000001563
210
0.0
220
0.0
230
-1.0
100
AcDbArc
 50
324.6088627204767
 51
344.2297983192938
  0
ARC
  5
9E
330
1F
100
AcDbEntity
  8
Graypants_Drum18
  6
Continuous
 62
    36
420
  8866048
370
    -3
100
AcDbCircle
 10
-28.71499407771872
 20
-277.5764330115077
 30
0.0
 40
279.5394766059781
100
AcDbArc
 50
84.75770972192677
 51
84.75787613661568
  0
ARC
  5
9F
330
1F
100
AcDbEntity
  8
Graypants_Drum18
  6
Continuous
 62
    36
420
  8866048
370
    -3
100
AcDbCircle
 10
-3.174974291924287
 20
-0.0000000238861935
 30
0.0
 40
0.7938840509202973
100
AcDbArc
 50
0.8189198637393359
 51
0.8440050945667906
  0
LINE
  5
A0
330
1F
100
AcDbEntity
  8
Graypants_Drum18
  6
Continuous
 62
    36
420
  8866048
370
    -3
100
AcDbLine
 10
-3.15304008110104
 20
-0.7938687307094325
 30
0.0
 11
-3.079396505620708
 21
-0.7880974993110341
 31
0.0
  0
ARC
  5
A1
330
1F
100
AcDbEntity
  8
Graypants_Drum18
  6
Continuous
 62
    36
420
  8866048
370
    -3
100
AcDbCircle
 10
3.174946031412106
 20
-0.0008382989419116
 30
0.0
 40
0.7947067139792937
100
AcDbArc
 50
89.99999986496348
 51
90.05881494356001
  0
LINE
  5
A2
330
1F
100
AcDbEntity
  8
Graypants_Drum18
  6
Continuous
 62
    36
420
  8866048
370
    -3
100
AcDbLine
 10
3.127631845337191
 20
-0.7924571609285476
 30
0.0
 11
3.157535782984041
 21
-0.7940845116387845
 31
0.0
  0
ARC
  5
A3
330
1F
100
AcDbEntity
  8
Graypants_Drum18
  6
Continuous
 62
    36
420
  8866048
370
    -3
100
AcDbCircle
 10
0.000000000001245
 20
0.0000000000016117
 30
0.0
 40
7.937500000001214
210
0.0
220
0.0
230
-1.0
100
AcDbArc
 50
201.5923248715756
 51
252.5423968762766
  0
ARC
  5
A4
330
1F
100
AcDbEntity
  8
Graypants_Drum18
  6
Continuous
 62
    36
420
  8866048
370
    -3
100
AcDbCircle
 10
-0.0000000000001268
 20
0.0000000000013061
 30
0.0
 40
7.937499999999186
210
0.0
220
0.0
230
-1.0
100
AcDbArc
 50
107.4576031237194
 51
158.4076751284337
  0
CIRCLE
  5
A5
330
1F
100
AcDbEntity
  8
Graypants_Drum18
  6
Continuous
 62
    36
420
  8866048
370
    -3
100
AcDbCircle
 10
-9.524999999999523
 20
0.0000000000006419
 30
0.0
 40
2.920999999999935
210
0.0
220
0.0
230
-1.0
  0
LINE
  5
A6
330
1F
100
AcDbEntity
  8
Graypants_Drum18
  6
Continuous
 62
    36
420
  8866048
370
    -3
100
AcDbLine
 10
4.762499999999591
 20
-2.920999999999294
 30
0.0
 11
2.381249999999454
 21
-2.920999999999294
 31
0.0
  0
LINE
  5
A7
330
1F
100
AcDbEntity
  8
Graypants_Drum18
  6
Continuous
 62
    36
420
  8866048
370
    -3
100
AcDbLine
 10
2.381249999999568
 20
2.921000000000918
 30
0.0
 11
4.762499999999591
 21
2.921000000000804
 31
0.0
  0
ARC
  5
A8
330
1F
100
AcDbEntity
  8
Graypants_Drum18
  6
Continuous
 62
    36
420
  8866048
370
    -3
100
AcDbCircle
 10
0.0000000000005574
 20
0.0000000000006591
 30
0.0
 40
7.937499999999896
210
0.0
220
0.0
230
-1.0
100
AcDbArc
 50
287.4576031237223
 51
72.54239687628062
  0
ARC
  5
A9
330
1F
100
AcDbEntity
  8
Graypants_Drum18
  6
Continuous
 62
    36
420
  8866048
370
    -3
100
AcDbCircle
 10
-0.0000000000003221
 20
0.0000000000006736
 30
0.0
 40
12.50000000000013
100
AcDbArc
 50
99.4186433240862
 51
260.5813623255211
  0
ARC
  5
AA
330
1F
100
AcDbEntity
  8
Graypants_Drum18
  6
Continuous
 62
    36
420
  8866048
370
    -3
100
AcDbCircle
 10
-0.0000000000004512
 20
0.0000000000006736
 30
0.0
 40
12.49999999999999
100
AcDbArc
 50
279.4186376744767
 51
80.58135528815839
  0
LINE
  5
AB
330
1F
100
AcDbEntity
  8
Graypants_Drum18
  6
Continuous
 62
    36
420
  8866048
370
    -3
100
AcDbLine
 10
2.361825273368551
 20
11.41669875599167
 30
0.0
 11
2.36393891247747
 21
11.39910840981019
 31
0.0
  0
LINE
  5
AC
330
1F
100
AcDbEntity
  8
Graypants_Drum18
  6
Continuous
 62
    36
420
  8866048
370
    -3
100
AcDbLine
 10
2.376769799079427
 20
11.27500009086209
 30
0.0
 11
2.376793405925179
 21
11.274975482131
 31
0.0
  0
LINE
  5
AD
330
1F
100
AcDbEntity
  8
Graypants_Drum18
  6
Continuous
 62
    36
420
  8866048
370
    -3
100
AcDbLine
 10
2.361822538601677
 20
11.41672196861265
 30
0.0
 11
2.36393891247747
 21
11.39910840981019
 31
0.0
  0
ARC
  5
AE
330
1F
100
AcDbEntity
  8
Graypants_Drum18
  6
Continuous
 62
    36
420
  8866048
370
    -3
100
AcDbCircle
 10
0.0000000000042217
 20
-0.0000000000093162
 30
0.0
 40
7.937499999988962
100
AcDbArc
 50
287.4576031237108
 51
297.0000000000007
  0
ARC
  5
AF
330
1F
100
AcDbEntity
  8
Graypants_Drum18
  6
Continuous
 62
    36
420
  8866048
370
    -3
100
AcDbCircle
 10
-3.174719217510446
 20
-0.0002246202261489
 30
0.0
 40
0.7940930676560795
210
0.0
220
0.0
230
-1.0
100
AcDbArc
 50
90.01636531953301
 51
270.1200792501023
  0
LINE
  5
B0
330
1F
100
AcDbEntity
  8
Graypants_Drum18
  6
Continuous
 62
    36
420
  8866048
370
    -3
100
AcDbLine
 10
-3.174129956915522
 20
0.7938687261272026
 30
0.0
 11
-2.698750000001155
 21
0.7938687408076976
 31
0.0
  0
LINE
  5
B1
330
1F
100
AcDbEntity
  8
Graypants_Drum18
  6
Continuous
 62
    36
420
  8866048
370
    -3
100
AcDbLine
 10
3.174129677091287
 20
-0.7938684138286316
 30
0.0
 11
2.698749999999109
 21
-0.7938683991483639
 31
0.0
  0
ARC
  5
B2
330
1F
100
AcDbEntity
  8
Graypants_Drum18
  6
Continuous
 62
    36
420
  8866048
370
    -3
100
AcDbCircle
 10
3.174927951154224
 20
-0.0000035200983869
 30
0.0
 40
0.7938722452078233
210
0.0
220
0.0
230
-1.0
100
AcDbArc
 50
269.9456030599379
 51
89.99874894359085
  0
LINE
  5
B3
330
1F
100
AcDbEntity
  8
Graypants_Drum18
  6
Continuous
 62
    36
420
  8866048
370
    -3
100
AcDbLine
 10
-2.698750000001155
 20
-0.7938687408063014
 30
0.0
 11
-3.174130533245716
 21
-0.7938687261253516
 31
0.0
  0
LINE
  5
B4
330
1F
100
AcDbEntity
  8
Graypants_Drum18
  6
Continuous
 62
    36
420
  8866048
370
    -3
100
AcDbLine
 10
2.698749999999109
 20
0.7938683991494191
 30
0.0
 11
3.174130253254361
 21
0.7938684138302552
 31
0.0
  0
LINE
  5
B5
330
1F
100
AcDbEntity
  8
Graypants_Drum18
  6
Continuous
 62
    36
420
  8866048
370
    -3
100
AcDbLine
 10
0.9888215194197298
 20
0.7701975268040131
 30
0.0
 11
0.9939693180954232
 21
0.7690004632307407
 31
0.0
  0
CIRCLE
  5
B6
330
1F
100
AcDbEntity
  8
Graypants_Drum18
  6
Continuous
 62
    36
420
  8866048
370
    -3
100
AcDbCircle
 10
0.793750000000955
 20
0.0000000000006413
 30
0.0
 40
0.7940000000000964
210
0.0
220
0.0
230
-1.0
  0
ARC
  5
B7
330
1F
100
AcDbEntity
  8
Graypants_Drum18
  6
Continuous
 62
    36
420
  8866048
370
    -3
100
AcDbCircle
 10
-0.7937499999992048
 20
0.0000000000078107
 30
0.0
 40
0.7937499999999629
210
0.0
220
0.0
230
-1.0
100
AcDbArc
 50
0.7943573195449363
 51
358.9830708014422
  0
LINE
  5
B8
330
1F
100
AcDbEntity
  8
Graypants_Drum18
  6
Continuous
 62
    36
420
  8866048
370
    -3
100
AcDbLine
 10
0.7937497175732915
 20
-0.7973452350370689
 30
0.0
 11
-0.7937500000014097
 21
-0.7973452350371826
 31
0.0
  0
LINE
  5
B9
330
1F
100
AcDbEntity
  8
Graypants_Drum18
  6
Continuous
 62
    36
420
  8866048
370
    -3
100
AcDbLine
 10
-0.7937497309897026
 20
0.7901547649627947
 30
0.0
 11
0.7937499999986812
 21
0.7901547649627947
 31
0.0
  0
ARC
  5
BA
330
1F
100
AcDbEntity
  8
Graypants_Drum18
  6
Continuous
 62
    36
420
  8866048
370
    -3
100
AcDbCircle
 10
-0.7937500000013803
 20
-0.0035952350371683
 30
0.0
 40
1.587499999999946
100
AcDbArc
 50
89.999985436314
 51
269.9999999999989
  0
LINE
  5
BB
330
1F
100
AcDbEntity
  8
Graypants_Drum18
  6
Continuous
 62
    36
420
  8866048
370
    -3
100
AcDbLine
 10
0.7937499999986812
 20
1.583904764962954
 30
0.0
 11
-0.793749596483849
 21
1.583904764962726
 31
0.0
  0
ARC
  5
BC
330
1F
100
AcDbEntity
  8
Graypants_Drum18
  6
Continuous
 62
    36
420
  8866048
370
    -3
100
AcDbCircle
 10
0.7937499999991523
 20
-0.0035952350371085
 30
0.0
 40
1.587500000000062
100
AcDbArc
 50
269.9999847101094
 51
90.00000000001698
  0
LINE
  5
BD
330
1F
100
AcDbEntity
  8
Graypants_Drum18
  6
Continuous
 62
    36
420
  8866048
370
    -3
100
AcDbLine
 10
-0.7937500000014097
 20
-1.591095235037114
 30
0.0
 11
0.7937495763605966
 21
-1.591095235037114
 31
0.0
  0
LINE
  5
BE
330
1F
100
AcDbEntity
  8
Graypants_Drum18
  6
Continuous
 62
    36
420
  8866048
370
    -3
100
AcDbLine
 10
9.52500087223575
 20
-2.920999999999408
 30
0.0
 11
4.762499999999591
 21
-2.920999999999294
 31
0.0
  0
LINE
  5
BF
330
1F
100
AcDbEntity
  8
Graypants_Drum18
  6
Continuous
 62
    36
420
  8866048
370
    -3
100
AcDbLine
 10
4.762499999999704
 20
2.921000000000576
 30
0.0
 11
9.524999999999748
 21
2.921000000000576
 31
0.0
  0
LINE
  5
C0
330
1F
100
AcDbEntity
  8
Graypants_Drum18
  6
Continuous
 62
    36
420
  8866048
370
    -3
100
AcDbLine
 10
2.374456615628504
 20
11.30603267986942
 30
0.0
 11
2.375847880096282
 21
11.2744524848504
 31
0.0
  0
POLYLINE
  5
C1
330
1F
100
AcDbEntity
  8
Graypants_Drum18
  6
Continuous
 62
    36
420
  8866048
370
    -3
100
AcDb2dPolyline
 66
     1
 10
0.0
 20
0.0
 30
0.0
  0
VERTEX
  5
C2
330
C1
100
AcDbEntity
  8
Graypants_Drum18
  6
Continuous
 62
    36
420
  8866048
370
    -3
100
AcDbVertex
100
AcDb2dVertex
 10
2.381249999999341
 20
-11.11250000011175
 30
0.0
  0
VERTEX
  5
C3
330
C1
100
AcDbEntity
  8
Graypants_Drum18
  6
Continuous
 62
    36
420
  8866048
370
    -3
100
AcDbVertex
100
AcDb2dVertex
 10
2.34806472924248
 20
-11.44729340135013
 30
0.0
  0
VERTEX
  5
C4
330
C1
100
AcDbEntity
  8
Graypants_Drum18
  6
Continuous
 62
    36
420
  8866048
370
    -3
100
AcDbVertex
100
AcDb2dVertex
 10
2.335717027012786
 20
-11.54500142646872
 30
0.0
  0
VERTEX
  5
C5
330
C1
100
AcDbEntity
  8
Graypants_Drum18
  6
Continuous
 62
    36
420
  8866048
370
    -3
100
AcDbVertex
100
AcDb2dVertex
 10
2.326417020981968
 20
-11.60197297054874
 30
0.0
  0
VERTEX
  5
C6
330
C1
100
AcDbEntity
  8
Graypants_Drum18
  6
Continuous
 62
    36
420
  8866048
370
    -3
100
AcDbVertex
100
AcDb2dVertex
 10
2.31527816563543
 20
-11.65855471182526
 30
0.0
  0
VERTEX
  5
C7
330
C1
100
AcDbEntity
  8
Graypants_Drum18
  6
Continuous
 62
    36
420
  8866048
370
    -3
100
AcDbVertex
100
AcDb2dVertex
 10
2.30237598229421
 20
-11.71473176148854
 30
0.0
  0
VERTEX
  5
C8
330
C1
100
AcDbEntity
  8
Graypants_Drum18
  6
Continuous
 62
    36
420
  8866048
370
    -3
100
AcDbVertex
100
AcDb2dVertex
 10
2.287785992279348
 20
-11.77048923072882
 30
0.0
  0
VERTEX
  5
C9
330
C1
100
AcDbEntity
  8
Graypants_Drum18
  6
Continuous
 62
    36
420
  8866048
370
    -3
100
AcDbVertex
100
AcDb2dVertex
 10
2.271583716911882
 20
-11.82581223073635
 30
0.0
  0
VERTEX
  5
CA
330
C1
100
AcDbEntity
  8
Graypants_Drum18
  6
Continuous
 62
    36
420
  8866048
370
    -3
100
AcDbVertex
100
AcDb2dVertex
 10
2.253844677512852
 20
-11.88068587270135
 30
0.0
  0
VERTEX
  5
CB
330
C1
100
AcDbEntity
  8
Graypants_Drum18
  6
Continuous
 62
    36
420
  8866048
370
    -3
100
AcDbVertex
100
AcDb2dVertex
 10
2.234644395403294
 20
-11.93509526781409
 30
0.0
  0
VERTEX
  5
CC
330
C1
100
AcDbEntity
  8
Graypants_Drum18
  6
Continuous
 62
    36
420
  8866048
370
    -3
100
AcDbVertex
100
AcDb2dVertex
 10
2.21405839190425
 20
-11.98902552726481
 30
0.0
  0
VERTEX
  5
CD
330
C1
100
AcDbEntity
  8
Graypants_Drum18
  6
Continuous
 62
    36
420
  8866048
370
    -3
100
AcDbVertex
100
AcDb2dVertex
 10
2.190898563112963
 20
-12.04540690834791
 30
0.0
  0
VERTEX
  5
CE
330
C1
100
AcDbEntity
  8
Graypants_Drum18
  6
Continuous
 62
    36
420
  8866048
370
    -3
100
AcDbVertex
100
AcDb2dVertex
 10
2.166332010775673
 20
-12.10111408828781
 30
0.0
  0
VERTEX
  5
CF
330
C1
100
AcDbEntity
  8
Graypants_Drum18
  6
Continuous
 62
    36
420
  8866048
370
    -3
100
AcDbVertex
100
AcDb2dVertex
 10
2.140374991529838
 20
-12.15612220018347
 30
0.0
  0
VERTEX
  5
D0
330
C1
100
AcDbEntity
  8
Graypants_Drum18
  6
Continuous
 62
    36
420
  8866048
370
    -3
100
AcDbVertex
100
AcDb2dVertex
 10
2.113043762012916
 20
-12.21040637713384
 30
0.0
  0
VERTEX
  5
D1
330
C1
100
AcDbEntity
  8
Graypants_Drum18
  6
Continuous
 62
    36
420
  8866048
370
    -3
100
AcDbVertex
100
AcDb2dVertex
 10
2.084354578862366
 20
-12.26394175223789
 30
0.0
  0
VERTEX
  5
D2
330
C1
100
AcDbEntity
  8
Graypants_Drum18
  6
Continuous
 62
    36
420
  8866048
370
    -3
100
AcDbVertex
100
AcDb2dVertex
 10
2.054323698715645
 20
-12.3167034585946
 30
0.0
  0
VERTEX
  5
D3
330
C1
100
AcDbEntity
  8
Graypants_Drum18
  6
Continuous
 62
    36
420
  8866048
370
    -3
100
AcDbVertex
100
AcDb2dVertex
 10
2.022967378210213
 20
-12.36866662930291
 30
0.0
  0
VERTEX
  5
D4
330
C1
100
AcDbEntity
  8
Graypants_Drum18
  6
Continuous
 62
    36
420
  8866048
370
    -3
100
AcDbVertex
100
AcDb2dVertex
 10
1.990301873983527
 20
-12.4198063974618
 30
0.0
  0
VERTEX
  5
D5
330
C1
100
AcDbEntity
  8
Graypants_Drum18
  6
Continuous
 62
    36
420
  8866048
370
    -3
100
AcDbVertex
100
AcDb2dVertex
 10
1.956343442673044
 20
-12.47009789617023
 30
0.0
  0
VERTEX
  5
D6
330
C1
100
AcDbEntity
  8
Graypants_Drum18
  6
Continuous
 62
    36
420
  8866048
370
    -3
100
AcDbVertex
100
AcDb2dVertex
 10
1.921108340916225
 20
-12.51951625852715
 30
0.0
  0
VERTEX
  5
D7
330
C1
100
AcDbEntity
  8
Graypants_Drum18
  6
Continuous
 62
    36
420
  8866048
370
    -3
100
AcDbVertex
100
AcDb2dVertex
 10
1.884612825350525
 20
-12.56803661763155
 30
0.0
  0
VERTEX
  5
D8
330
C1
100
AcDbEntity
  8
Graypants_Drum18
  6
Continuous
 62
    36
420
  8866048
370
    -3
100
AcDbVertex
100
AcDb2dVertex
 10
1.846873152613405
 20
-12.61563410658237
 30
0.0
  0
VERTEX
  5
D9
330
C1
100
AcDbEntity
  8
Graypants_Drum18
  6
Continuous
 62
    36
420
  8866048
370
    -3
100
AcDbVertex
100
AcDb2dVertex
 10
1.807905579342322
 20
-12.66228385847859
 30
0.0
  0
VERTEX
  5
DA
330
C1
100
AcDbEntity
  8
Graypants_Drum18
  6
Continuous
 62
    36
420
  8866048
370
    -3
100
AcDbVertex
100
AcDb2dVertex
 10
1.767726362174733
 20
-12.70796100641917
 30
0.0
  0
VERTEX
  5
DB
330
C1
100
AcDbEntity
  8
Graypants_Drum18
  6
Continuous
 62
    36
420
  8866048
370
    -3
100
AcDbVertex
100
AcDb2dVertex
 10
1.726351757748099
 20
-12.75264068350307
 30
0.0
  0
VERTEX
  5
DC
330
C1
100
AcDbEntity
  8
Graypants_Drum18
  6
Continuous
 62
    36
420
  8866048
370
    -3
100
AcDbVertex
100
AcDb2dVertex
 10
1.683798022699875
 20
-12.79629802282925
 30
0.0
  0
VERTEX
  5
DD
330
C1
100
AcDbEntity
  8
Graypants_Drum18
  6
Continuous
 62
    36
420
  8866048
370
    -3
100
AcDbVertex
100
AcDb2dVertex
 10
1.639650424894111
 20
-12.839317317231
 30
0.0
  0
VERTEX
  5
DE
330
C1
100
AcDbEntity
  8
Graypants_Drum18
  6
Continuous
 62
    36
420
  8866048
370
    -3
100
AcDbVertex
100
AcDb2dVertex
 10
1.59441944273953
 20
-12.88116565624225
 30
0.0
  0
VERTEX
  5
DF
330
C1
100
AcDbEntity
  8
Graypants_Drum18
  6
Continuous
 62
    36
420
  8866048
370
    -3
100
AcDbVertex
100
AcDb2dVertex
 10
1.548152110166351
 20
-12.92180279576312
 30
0.0
  0
VERTEX
  5
E0
330
C1
100
AcDbEntity
  8
Graypants_Drum18
  6
Continuous
 62
    36
420
  8866048
370
    -3
100
AcDbVertex
100
AcDb2dVertex
 10
1.500897413487497
 20
-12.9611910280431
 30
0.0
  0
VERTEX
  5
E1
330
C1
100
AcDbEntity
  8
Graypants_Drum18
  6
Continuous
 62
    36
420
  8866048
370
    -3
100
AcDbVertex
100
AcDb2dVertex
 10
1.452706119784597
 20
-12.99929529693402
 30
0.0
  0
VERTEX
  5
E2
330
C1
100
AcDbEntity
  8
Graypants_Drum18
  6
Continuous
 62
    36
420
  8866048
370
    -3
100
AcDbVertex
100
AcDb2dVertex
 10
1.403630597425465
 20
-13.03608329920336
 30
0.0
  0
VERTEX
  5
E3
330
C1
100
AcDbEntity
  8
Graypants_Drum18
  6
Continuous
 62
    36
420
  8866048
370
    -3
100
AcDbVertex
100
AcDb2dVertex
 10
1.353724630029922
 20
-13.07152557131452
 30
0.0
  0
VERTEX
  5
E4
330
C1
100
AcDbEntity
  8
Graypants_Drum18
  6
Continuous
 62
    36
420
  8866048
370
    -3
100
AcDbVertex
100
AcDb2dVertex
 10
1.303043225247632
 20
-13.10559556122141
 30
0.0
  0
VERTEX
  5
E5
330
C1
100
AcDbEntity
  8
Graypants_Drum18
  6
Continuous
 62
    36
420
  8866048
370
    -3
100
AcDbVertex
100
AcDb2dVertex
 10
1.25164241974163
 20
-13.13826968486982
 30
0.0
  0
VERTEX
  5
E6
330
C1
100
AcDbEntity
  8
Graypants_Drum18
  6
Continuous
 62
    36
420
  8866048
370
    -3
100
AcDbVertex
100
AcDb2dVertex
 10
1.199579081784212
 20
-13.16952736724372
 30
0.0
  0
VERTEX
  5
E7
330
C1
100
AcDbEntity
  8
Graypants_Drum18
  6
Continuous
 62
    36
420
  8866048
370
    -3
100
AcDbVertex
100
AcDb2dVertex
 10
1.14691071286789
 20
-13.19935106793992
 30
0.0
  0
VERTEX
  5
E8
330
C1
100
AcDbEntity
  8
Graypants_Drum18
  6
Continuous
 62
    36
420
  8866048
370
    -3
100
AcDbVertex
100
AcDb2dVertex
 10
1.093695249713819
 20
-13.22772629139659
 30
0.0
  0
VERTEX
  5
E9
330
C1
100
AcDbEntity
  8
Graypants_Drum18
  6
Continuous
 62
    36
420
  8866048
370
    -3
100
AcDbVertex
100
AcDb2dVertex
 10
1.039990868023998
 20
-13.25464158203818
 30
0.0
  0
VERTEX
  5
EA
330
C1
100
AcDbEntity
  8
Graypants_Drum18
  6
Continuous
 62
    36
420
  8866048
370
    -3
100
AcDbVertex
100
AcDb2dVertex
 10
0.9858557892727969
 20
-13.28008850472954
 30
0.0
  0
VERTEX
  5
EB
330
C1
100
AcDbEntity
  8
Graypants_Drum18
  6
Continuous
 62
    36
420
  8866048
370
    -3
100
AcDbVertex
100
AcDb2dVertex
 10
0.9313480917690257
 20
-13.30406161105365
 30
0.0
  0
VERTEX
  5
EC
330
C1
100
AcDbEntity
  8
Graypants_Drum18
  6
Continuous
 62
    36
420
  8866048
370
    -3
100
AcDbVertex
100
AcDb2dVertex
 10
0.8765255271433947
 20
-13.32655839203916
 30
0.0
  0
VERTEX
  5
ED
330
C1
100
AcDbEntity
  8
Graypants_Drum18
  6
Continuous
 62
    36
420
  8866048
370
    -3
100
AcDbVertex
100
AcDb2dVertex
 10
0.8214453433292535
 20
-13.34757921806419
 30
0.0
  0
VERTEX
  5
EE
330
C1
100
AcDbEntity
  8
Graypants_Drum18
  6
Continuous
 62
    36
420
  8866048
370
    -3
100
AcDbVertex
100
AcDb2dVertex
 10
0.7661641150086919
 20
-13.3671272667514
 30
0.0
  0
VERTEX
  5
EF
330
C1
100
AcDbEntity
  8
Graypants_Drum18
  6
Continuous
 62
    36
420
  8866048
370
    -3
100
AcDbVertex
100
AcDb2dVertex
 10
0.7107375823931861
 20
-13.38520843974445
 30
0.0
  0
VERTEX
  5
F0
330
C1
100
AcDbEntity
  8
Graypants_Drum18
  6
Continuous
 62
    36
420
  8866048
370
    -3
100
AcDbVertex
100
AcDb2dVertex
 10
0.6552204990997257
 20
-13.40183126931788
 30
0.0
  0
VERTEX
  5
F1
330
C1
100
AcDbEntity
  8
Graypants_Drum18
  6
Continuous
 62
    36
420
  8866048
370
    -3
100
AcDbVertex
100
AcDb2dVertex
 10
0.5996664897716123
 20
-13.41700681582134
 30
0.0
  0
VERTEX
  5
F2
330
C1
100
AcDbEntity
  8
Graypants_Drum18
  6
Continuous
 62
    36
420
  8866048
370
    -3
100
AcDbVertex
100
AcDb2dVertex
 10
0.5441279179795546
 20
-13.43074855699334
 30
0.0
  0
VERTEX
  5
F3
330
C1
100
AcDbEntity
  8
Graypants_Drum18
  6
Continuous
 62
    36
420
  8866048
370
    -3
100
AcDbVertex
100
AcDb2dVertex
 10
0.4886557648250281
 20
-13.44307227020184
 30
0.0
  0
VERTEX
  5
F4
330
C1
100
AcDbEntity
  8
Graypants_Drum18
  6
Continuous
 62
    36
420
  8866048
370
    -3
100
AcDbVertex
100
AcDb2dVertex
 10
0.4332995185556482
 20
-13.45399590867751
 30
0.0
  0
VERTEX
  5
F5
330
C1
100
AcDbEntity
  8
Graypants_Drum18
  6
Continuous
 62
    36
420
  8866048
370
    -3
100
AcDbVertex
100
AcDb2dVertex
 10
0.3781070753929962
 20
-13.4635394728024
 30
0.0
  0
VERTEX
  5
F6
330
C1
100
AcDbEntity
  8
Graypants_Drum18
  6
Continuous
 62
    36
420
  8866048
370
    -3
100
AcDbVertex
100
AcDb2dVertex
 10
0.3231246516682091
 20
-13.47172487750198
 30
0.0
  0
VERTEX
  5
F7
330
C1
100
AcDbEntity
  8
Graypants_Drum18
  6
Continuous
 62
    36
420
  8866048
370
    -3
100
AcDbVertex
100
AcDb2dVertex
 10
0.2683967072608671
 20
-13.47857581676365
 30
0.0
  0
VERTEX
  5
F8
330
C1
100
AcDbEntity
  8
Graypants_Drum18
  6
Continuous
 62
    36
420
  8866048
370
    -3
100
AcDbVertex
100
AcDb2dVertex
 10
0.2139658802432133
 20
-13.48411762627027
 30
0.0
  0
VERTEX
  5
F9
330
C1
100
AcDbEntity
  8
Graypants_Drum18
  6
Continuous
 62
    36
420
  8866048
370
    -3
100
AcDbVertex
100
AcDb2dVertex
 10
0.1598729325453484
 20
-13.48837714509503
 30
0.0
  0
VERTEX
  5
FA
330
C1
100
AcDbEntity
  8
Graypants_Drum18
  6
Continuous
 62
    36
420
  8866048
370
    -3
100
AcDbVertex
100
AcDb2dVertex
 10
0.1061567063783478
 20
-13.49138257735382
 30
0.0
  0
VERTEX
  5
FB
330
C1
100
AcDbEntity
  8
Graypants_Drum18
  6
Continuous
 62
    36
420
  8866048
370
    -3
100
AcDbVertex
100
AcDb2dVertex
 10
0.0528540910817084
 20
-13.49316335465627
 30
0.0
  0
VERTEX
  5
FC
330
C1
100
AcDbEntity
  8
Graypants_Drum18
  6
Continuous
 62
    36
420
  8866048
370
    -3
100
AcDbVertex
100
AcDb2dVertex
 10
-0.0000000000005822
 20
-13.49375000013598
 30
0.0
  0
VERTEX
  5
FD
330
C1
100
AcDbEntity
  8
Graypants_Drum18
  6
Continuous
 62
    36
420
  8866048
370
    -3
100
AcDbVertex
100
AcDb2dVertex
 10
-0.0528540910829354
 20
-13.49316335465625
 30
0.0
  0
VERTEX
  5
FE
330
C1
100
AcDbEntity
  8
Graypants_Drum18
  6
Continuous
 62
    36
420
  8866048
370
    -3
100
AcDbVertex
100
AcDb2dVertex
 10
-0.1061567063796321
 20
-13.49138257735378
 30
0.0
  0
VERTEX
  5
FF
330
C1
100
AcDbEntity
  8
Graypants_Drum18
  6
Continuous
 62
    36
420
  8866048
370
    -3
100
AcDbVertex
100
AcDb2dVertex
 10
-0.1598729325466847
 20
-13.48837714509498
 30
0.0
  0
VERTEX
  5
100
330
C1
100
AcDbEntity
  8
Graypants_Drum18
  6
Continuous
 62
    36
420
  8866048
370
    -3
100
AcDbVertex
100
AcDb2dVertex
 10
-0.2139658802445966
 20
-13.48411762627021
 30
0.0
  0
VERTEX
  5
101
330
C1
100
AcDbEntity
  8
Graypants_Drum18
  6
Continuous
 62
    36
420
  8866048
370
    -3
100
AcDbVertex
100
AcDb2dVertex
 10
-0.2683967072622924
 20
-13.47857581676357
 30
0.0
  0
VERTEX
  5
102
330
C1
100
AcDbEntity
  8
Graypants_Drum18
  6
Continuous
 62
    36
420
  8866048
370
    -3
100
AcDbVertex
100
AcDb2dVertex
 10
-0.3231246516696715
 20
-13.47172487750189
 30
0.0
  0
VERTEX
  5
103
330
C1
100
AcDbEntity
  8
Graypants_Drum18
  6
Continuous
 62
    36
420
  8866048
370
    -3
100
AcDbVertex
100
AcDb2dVertex
 10
-0.3781070753944911
 20
-13.4635394728023
 30
0.0
  0
VERTEX
  5
104
330
C1
100
AcDbEntity
  8
Graypants_Drum18
  6
Continuous
 62
    36
420
  8866048
370
    -3
100
AcDbVertex
100
AcDb2dVertex
 10
-0.433299518557171
 20
-13.45399590867741
 30
0.0
  0
VERTEX
  5
105
330
C1
100
AcDbEntity
  8
Graypants_Drum18
  6
Continuous
 62
    36
420
  8866048
370
    -3
100
AcDbVertex
100
AcDb2dVertex
 10
-0.4886557648265745
 20
-13.44307227020173
 30
0.0
  0
VERTEX
  5
106
330
C1
100
AcDbEntity
  8
Graypants_Drum18
  6
Continuous
 62
    36
420
  8866048
370
    -3
100
AcDbVertex
100
AcDb2dVertex
 10
-0.5441279179811205
 20
-13.43074855699323
 30
0.0
  0
VERTEX
  5
107
330
C1
100
AcDbEntity
  8
Graypants_Drum18
  6
Continuous
 62
    36
420
  8866048
370
    -3
100
AcDbVertex
100
AcDb2dVertex
 10
-0.5996664897731937
 20
-13.41700681582122
 30
0.0
  0
VERTEX
  5
108
330
C1
100
AcDbEntity
  8
Graypants_Drum18
  6
Continuous
 62
    36
420
  8866048
370
    -3
100
AcDbVertex
100
AcDb2dVertex
 10
-0.6552204991013189
 20
-13.40183126931776
 30
0.0
  0
VERTEX
  5
109
330
C1
100
AcDbEntity
  8
Graypants_Drum18
  6
Continuous
 62
    36
420
  8866048
370
    -3
100
AcDbVertex
100
AcDb2dVertex
 10
-0.7107375823947875
 20
-13.38520843974433
 30
0.0
  0
VERTEX
  5
10A
330
C1
100
AcDbEntity
  8
Graypants_Drum18
  6
Continuous
 62
    36
420
  8866048
370
    -3
100
AcDbVertex
100
AcDb2dVertex
 10
-0.7661641150102985
 20
-13.36712726675129
 30
0.0
  0
VERTEX
  5
10B
330
C1
100
AcDbEntity
  8
Graypants_Drum18
  6
Continuous
 62
    36
420
  8866048
370
    -3
100
AcDbVertex
100
AcDb2dVertex
 10
-0.821445343330862
 20
-13.34757921806407
 30
0.0
  0
VERTEX
  5
10C
330
C1
100
AcDbEntity
  8
Graypants_Drum18
  6
Continuous
 62
    36
420
  8866048
370
    -3
100
AcDbVertex
100
AcDb2dVertex
 10
-0.8765255271450026
 20
-13.32655839203905
 30
0.0
  0
VERTEX
  5
10D
330
C1
100
AcDbEntity
  8
Graypants_Drum18
  6
Continuous
 62
    36
420
  8866048
370
    -3
100
AcDbVertex
100
AcDb2dVertex
 10
-0.9313480917706305
 20
-13.30406161105355
 30
0.0
  0
VERTEX
  5
10E
330
C1
100
AcDbEntity
  8
Graypants_Drum18
  6
Continuous
 62
    36
420
  8866048
370
    -3
100
AcDbVertex
100
AcDb2dVertex
 10
-0.9858557892743964
 20
-13.28008850472945
 30
0.0
  0
VERTEX
  5
10F
330
C1
100
AcDbEntity
  8
Graypants_Drum18
  6
Continuous
 62
    36
420
  8866048
370
    -3
100
AcDbVertex
100
AcDb2dVertex
 10
-1.039990868025591
 20
-13.2546415820381
 30
0.0
  0
VERTEX
  5
110
330
C1
100
AcDbEntity
  8
Graypants_Drum18
  6
Continuous
 62
    36
420
  8866048
370
    -3
100
AcDbVertex
100
AcDb2dVertex
 10
-1.093695249715402
 20
-13.22772629139651
 30
0.0
  0
VERTEX
  5
111
330
C1
100
AcDbEntity
  8
Graypants_Drum18
  6
Continuous
 62
    36
420
  8866048
370
    -3
100
AcDbVertex
100
AcDb2dVertex
 10
-1.146910712869464
 20
-13.19935106793985
 30
0.0
  0
VERTEX
  5
112
330
C1
100
AcDbEntity
  8
Graypants_Drum18
  6
Continuous
 62
    36
420
  8866048
370
    -3
100
AcDbVertex
100
AcDb2dVertex
 10
-1.199579081785775
 20
-13.16952736724366
 30
0.0
  0
VERTEX
  5
113
330
C1
100
AcDbEntity
  8
Graypants_Drum18
  6
Continuous
 62
    36
420
  8866048
370
    -3
100
AcDbVertex
100
AcDb2dVertex
 10
-1.251642419743181
 20
-13.13826968486977
 30
0.0
  0
VERTEX
  5
114
330
C1
100
AcDbEntity
  8
Graypants_Drum18
  6
Continuous
 62
    36
420
  8866048
370
    -3
100
AcDbVertex
100
AcDb2dVertex
 10
-1.303043225249171
 20
-13.10559556122138
 30
0.0
  0
VERTEX
  5
115
330
C1
100
AcDbEntity
  8
Graypants_Drum18
  6
Continuous
 62
    36
420
  8866048
370
    -3
100
AcDbVertex
100
AcDb2dVertex
 10
-1.35372463003145
 20
-13.0715255713145
 30
0.0
  0
VERTEX
  5
116
330
C1
100
AcDbEntity
  8
Graypants_Drum18
  6
Continuous
 62
    36
420
  8866048
370
    -3
100
AcDbVertex
100
AcDb2dVertex
 10
-1.403630597426982
 20
-13.03608329920336
 30
0.0
  0
VERTEX
  5
117
330
C1
100
AcDbEntity
  8
Graypants_Drum18
  6
Continuous
 62
    36
420
  8866048
370
    -3
100
AcDbVertex
100
AcDb2dVertex
 10
-1.452706119786103
 20
-12.99929529693404
 30
0.0
  0
VERTEX
  5
118
330
C1
100
AcDbEntity
  8
Graypants_Drum18
  6
Continuous
 62
    36
420
  8866048
370
    -3
100
AcDbVertex
100
AcDb2dVertex
 10
-1.500897413488994
 20
-12.96119102804313
 30
0.0
  0
VERTEX
  5
119
330
C1
100
AcDbEntity
  8
Graypants_Drum18
  6
Continuous
 62
    36
420
  8866048
370
    -3
100
AcDbVertex
100
AcDb2dVertex
 10
-1.54815211016784
 20
-12.92180279576317
 30
0.0
  0
VERTEX
  5
11A
330
C1
100
AcDbEntity
  8
Graypants_Drum18
  6
Continuous
 62
    36
420
  8866048
370
    -3
100
AcDbVertex
100
AcDb2dVertex
 10
-1.594419442741013
 20
-12.88116565624233
 30
0.0
  0
VERTEX
  5
11B
330
C1
100
AcDbEntity
  8
Graypants_Drum18
  6
Continuous
 62
    36
420
  8866048
370
    -3
100
AcDbVertex
100
AcDb2dVertex
 10
-1.63965042489559
 20
-12.83931731723109
 30
0.0
  0
VERTEX
  5
11C
330
C1
100
AcDbEntity
  8
Graypants_Drum18
  6
Continuous
 62
    36
420
  8866048
370
    -3
100
AcDbVertex
100
AcDb2dVertex
 10
-1.683798022701353
 20
-12.79629802282936
 30
0.0
  0
VERTEX
  5
11D
330
C1
100
AcDbEntity
  8
Graypants_Drum18
  6
Continuous
 62
    36
420
  8866048
370
    -3
100
AcDbVertex
100
AcDb2dVertex
 10
-1.726351757749556
 20
-12.75264068350314
 30
0.0
  0
VERTEX
  5
11E
330
C1
100
AcDbEntity
  8
Graypants_Drum18
  6
Continuous
 62
    36
420
  8866048
370
    -3
100
AcDbVertex
100
AcDb2dVertex
 10
-1.76772636217617
 20
-12.7079610064192
 30
0.0
  0
VERTEX
  5
11F
330
C1
100
AcDbEntity
  8
Graypants_Drum18
  6
Continuous
 62
    36
420
  8866048
370
    -3
100
AcDbVertex
100
AcDb2dVertex
 10
-1.807905579343738
 20
-12.6622838584786
 30
0.0
  0
VERTEX
  5
120
330
C1
100
AcDbEntity
  8
Graypants_Drum18
  6
Continuous
 62
    36
420
  8866048
370
    -3
100
AcDbVertex
100
AcDb2dVertex
 10
-1.846873152614801
 20
-12.61563410658234
 30
0.0
  0
VERTEX
  5
121
330
C1
100
AcDbEntity
  8
Graypants_Drum18
  6
Continuous
 62
    36
420
  8866048
370
    -3
100
AcDbVertex
100
AcDb2dVertex
 10
-1.884612825351903
 20
-12.56803661763149
 30
0.0
  0
VERTEX
  5
122
330
C1
100
AcDbEntity
  8
Graypants_Drum18
  6
Continuous
 62
    36
420
  8866048
370
    -3
100
AcDbVertex
100
AcDb2dVertex
 10
-1.921108340917586
 20
-12.51951625852708
 30
0.0
  0
VERTEX
  5
123
330
C1
100
AcDbEntity
  8
Graypants_Drum18
  6
Continuous
 62
    36
420
  8866048
370
    -3
100
AcDbVertex
100
AcDb2dVertex
 10
-1.95634344267439
 20
-12.47009789617013
 30
0.0
  0
VERTEX
  5
124
330
C1
100
AcDbEntity
  8
Graypants_Drum18
  6
Continuous
 62
    36
420
  8866048
370
    -3
100
AcDbVertex
100
AcDb2dVertex
 10
-1.990301873984859
 20
-12.41980639746169
 30
0.0
  0
VERTEX
  5
125
330
C1
100
AcDbEntity
  8
Graypants_Drum18
  6
Continuous
 62
    36
420
  8866048
370
    -3
100
AcDbVertex
100
AcDb2dVertex
 10
-2.022967378211534
 20
-12.36866662930279
 30
0.0
  0
VERTEX
  5
126
330
C1
100
AcDbEntity
  8
Graypants_Drum18
  6
Continuous
 62
    36
420
  8866048
370
    -3
100
AcDbVertex
100
AcDb2dVertex
 10
-2.054323698716958
 20
-12.31670345859447
 30
0.0
  0
VERTEX
  5
127
330
C1
100
AcDbEntity
  8
Graypants_Drum18
  6
Continuous
 62
    36
420
  8866048
370
    -3
100
AcDbVertex
100
AcDb2dVertex
 10
-2.084354578863672
 20
-12.26394175223778
 30
0.0
  0
VERTEX
  5
128
330
C1
100
AcDbEntity
  8
Graypants_Drum18
  6
Continuous
 62
    36
420
  8866048
370
    -3
100
AcDbVertex
100
AcDb2dVertex
 10
-2.11304376201422
 20
-12.21040637713373
 30
0.0
  0
VERTEX
  5
129
330
C1
100
AcDbEntity
  8
Graypants_Drum18
  6
Continuous
 62
    36
420
  8866048
370
    -3
100
AcDbVertex
100
AcDb2dVertex
 10
-2.140374991531142
 20
-12.15612220018338
 30
0.0
  0
VERTEX
  5
12A
330
C1
100
AcDbEntity
  8
Graypants_Drum18
  6
Continuous
 62
    36
420
  8866048
370
    -3
100
AcDbVertex
100
AcDb2dVertex
 10
-2.166332010776981
 20
-12.10111408828775
 30
0.0
  0
VERTEX
  5
12B
330
C1
100
AcDbEntity
  8
Graypants_Drum18
  6
Continuous
 62
    36
420
  8866048
370
    -3
100
AcDbVertex
100
AcDb2dVertex
 10
-2.19089856311428
 20
-12.04540690834788
 30
0.0
  0
VERTEX
  5
12C
330
C1
100
AcDbEntity
  8
Graypants_Drum18
  6
Continuous
 62
    36
420
  8866048
370
    -3
100
AcDbVertex
100
AcDb2dVertex
 10
-2.21405839190558
 20
-11.98902552726481
 30
0.0
  0
VERTEX
  5
12D
330
C1
100
AcDbEntity
  8
Graypants_Drum18
  6
Continuous
 62
    36
420
  8866048
370
    -3
100
AcDbVertex
100
AcDb2dVertex
 10
-2.234644395404631
 20
-11.93509526781413
 30
0.0
  0
VERTEX
  5
12E
330
C1
100
AcDbEntity
  8
Graypants_Drum18
  6
Continuous
 62
    36
420
  8866048
370
    -3
100
AcDbVertex
100
AcDb2dVertex
 10
-2.253844677514182
 20
-11.88068587270142
 30
0.0
  0
VERTEX
  5
12F
330
C1
100
AcDbEntity
  8
Graypants_Drum18
  6
Continuous
 62
    36
420
  8866048
370
    -3
100
AcDbVertex
100
AcDb2dVertex
 10
-2.271583716913199
 20
-11.82581223073643
 30
0.0
  0
VERTEX
  5
130
330
C1
100
AcDbEntity
  8
Graypants_Drum18
  6
Continuous
 62
    36
420
  8866048
370
    -3
100
AcDbVertex
100
AcDb2dVertex
 10
-2.287785992280643
 20
-11.77048923072892
 30
0.0
  0
VERTEX
  5
131
330
C1
100
AcDbEntity
  8
Graypants_Drum18
  6
Continuous
 62
    36
420
  8866048
370
    -3
100
AcDbVertex
100
AcDb2dVertex
 10
-2.302375982295479
 20
-11.71473176148865
 30
0.0
  0
VERTEX
  5
132
330
C1
100
AcDbEntity
  8
Graypants_Drum18
  6
Continuous
 62
    36
420
  8866048
370
    -3
100
AcDbVertex
100
AcDb2dVertex
 10
-2.31527816563667
 20
-11.65855471182538
 30
0.0
  0
VERTEX
  5
133
330
C1
100
AcDbEntity
  8
Graypants_Drum18
  6
Continuous
 62
    36
420
  8866048
370
    -3
100
AcDbVertex
100
AcDb2dVertex
 10
-2.326417020983179
 20
-11.60197297054885
 30
0.0
  0
VERTEX
  5
134
330
C1
100
AcDbEntity
  8
Graypants_Drum18
  6
Continuous
 62
    36
420
  8866048
370
    -3
100
AcDbVertex
100
AcDb2dVertex
 10
-2.33571702701397
 20
-11.54500142646884
 30
0.0
  0
VERTEX
  5
135
330
C1
100
AcDbEntity
  8
Graypants_Drum18
  6
Continuous
 62
    36
420
  8866048
370
    -3
100
AcDbVertex
100
AcDb2dVertex
 10
-2.348064729243637
 20
-11.44729340135021
 30
0.0
  0
VERTEX
  5
136
330
C1
100
AcDbEntity
  8
Graypants_Drum18
  6
Continuous
 62
    36
420
  8866048
370
    -3
100
AcDbVertex
100
AcDb2dVertex
 10
-2.381250000000478
 20
-11.11250000011164
 30
0.0
  0
SEQEND
  5
137
330
C1
100
AcDbEntity
  8
Graypants_Drum18
  6
Continuous
 62
    36
420
  8866048
370
    -3
  0
ARC
  5
138
330
1F
100
AcDbEntity
  8
Graypants_Drum18
  6
Continuous
 62
    36
420
  8866048
370
    -3
100
AcDbCircle
 10
-0.0006690958901086
 20
11.11183805186274
 30
0.0
 40
2.381919187869719
210
0.0
220
0.0
230
-1.0
100
AcDbArc
 50
0.0159228051298456
 51
172.644299684767
  0
LINE
  5
139
330
1F
100
AcDbEntity
  8
Graypants_Drum18
  6
Continuous
 62
    36
420
  8866048
370
    -3
100
AcDbLine
 10
2.36393891247747
 20
11.39910840981019
 30
0.0
 11
2.373502281434085
 21
11.3059410879088
 31
0.0
  0
LINE
  5
13A
330
1F
100
AcDbEntity
  8
Graypants_Drum18
  6
Continuous
 62
    36
420
  8866048
370
    -3
100
AcDbLine
 10
2.375847880096282
 20
11.2744524848504
 30
0.0
 11
2.381249999999734
 21
11.11250000000067
 31
0.0
  0
ARC
  5
13B
330
1F
100
AcDbEntity
  8
Graypants_Drum18
  6
Continuous
 62
    36
420
  8866048
370
    -3
100
AcDbCircle
 10
0.012338452070251
 20
-0.000005974200261
 30
0.0
 40
7.937496109311644
100
AcDbArc
 50
89.99872240351051
 51
90.08906346470538
  0
ARC
  5
13C
330
1F
100
AcDbEntity
  8
Graypants_Drum18
  6
Continuous
 62
    36
420
  8866048
370
    -3
100
AcDbCircle
 10
-0.0123384440348811
 20
-0.0000061678192823
 30
0.0
 40
7.937496302922765
100
AcDbArc
 50
89.91093651868837
 51
90.00127772576298
  0
LINE
  5
13D
330
1F
100
AcDbEntity
  8
Graypants_Drum18
  6
Continuous
 62
    36
420
  8866048
370
    -3
100
AcDbLine
 10
-50.20251833749307
 20
-27.25238634011633
 30
0.0
 11
-11.49709265454089
 21
-4.90579866004688
 31
0.0
  0
LINE
  5
13E
330
1F
100
AcDbEntity
  8
Graypants_Drum18
  6
Continuous
 62
    36
420
  8866048
370
    -3
100
AcDbLine
 10
-48.73904965612871
 20
-29.87155391787512
 30
0.0
 11
-9.997092667483003
 21
-7.50387487887232
 31
0.0
  0
LINE
  5
13F
330
1F
100
AcDbEntity
  8
Graypants_Drum18
  6
Continuous
 62
    36
420
  8866048
370
    -3
100
AcDbLine
 10
50.81139426714981
 20
-27.60392205269765
 30
0.0
 11
11.49709257849327
 21
-4.905798838267217
 31
0.0
  0
LINE
  5
140
330
1F
100
AcDbEntity
  8
Graypants_Drum18
  6
Continuous
 62
    36
420
  8866048
370
    -3
100
AcDbLine
 10
49.32944308901665
 20
-30.21241875646784
 30
0.0
 11
9.997092551161586
 21
-7.503875033840971
 31
0.0
  0
CIRCLE
  5
142
330
1F
100
AcDbEntity
  8
Graypants_Drum18
  6
Hidden
 62
    36
420
  8866048
370
    -3
100
AcDbCircle
 10
-0.0000000000004047
 20
0.0000000000004799
 30
0.0
 40
57.15000000000004
  0
LINE
  5
143
330
1F
100
AcDbEntity
  8
Graypants_Drum18
  6
Continuous
 62
    36
420
  8866048
370
    -3
100
AcDbLine
 10
-177.419182873669
 20
-100.7009610105086
 30
0.0
 11
-50.20251833749307
 21
-27.25238634011633
 31
0.0
  0
LINE
  5
144
330
1F
100
AcDbEntity
  8
Graypants_Drum18
  6
Continuous
 62
    36
420
  8866048
370
    -3
100
AcDbLine
 10
175.919181285257
 20
-103.2990399564527
 30
0.0
 11
49.32944308901665
 21
-30.21241875646784
 31
0.0
  0
LINE
  5
145
330
1F
100
AcDbEntity
  8
Graypants_Drum18
  6
Continuous
 62
    36
420
  8866048
370
    -3
100
AcDbLine
 10
177.4191813125906
 20
-100.70096376088
 30
0.0
 11
50.81139426714981
 21
-27.60392205269765
 31
0.0
  0
LINE
  5
146
330
1F
100
AcDbEntity
  8
Graypants_Drum18
  6
Continuous
 62
    36
420
  8866048
370
    -3
100
AcDbLine
 10
1.500000000000114
 20
204.0000000000016
 30
0.0
 11
1.500000000008299
 21
56.45278718075498
 31
0.0
  0
LINE
  5
147
330
1F
100
AcDbEntity
  8
Graypants_Drum18
  6
Continuous
 62
    36
420
  8866048
370
    -3
100
AcDbLine
 10
-1.499999999999773
 20
204.0000000000013
 30
0.0
 11
-1.499999999991473
 21
56.43110391493236
 31
0.0
  0
LINE
  5
148
330
1F
100
AcDbEntity
  8
Graypants_Drum18
  6
Continuous
 62
    36
420
  8866048
370
    -3
100
AcDbLine
 10
-175.9191828866113
 20
-103.2990372293342
 30
0.0
 11
-48.73904965612871
 21
-29.87155391787512
 31
0.0
  0
CIRCLE
  5
149
330
1F
100
AcDbEntity
  8
Graypants_Drum18
 62
    36
420
  8866048
370
    -3
100
AcDbCircle
 10
0.0000000000008333
 20
0.0000000000003065
 30
0.0
 40
219.0000000000001
210
0.0
220
0.0
230
-1.0
  0
LINE
  5
14A
330
1F
100
AcDbEntity
  8
Graypants_Drum18
  6
Continuous
 62
    36
420
  8866048
370
    -3
100
AcDbLine
 10
35.35036916166587
 20
-17.23454562803163
 30
0.0
 11
2.74963106975531
 21
39.23159048332208
 31
0.0
  0
LINE
  5
14B
330
1F
100
AcDbEntity
  8
Graypants_Drum18
  6
Continuous
 62
    36
420
  8866048
370
    -3
100
AcDbLine
 10
-32.60073891739171
 20
-21.99704491314473
 30
0.0
 11
32.60073845454588
 21
-21.99704559910423
 31
0.0
  0
LINE
  5
14C
330
1F
100
AcDbEntity
  8
Graypants_Drum18
  6
Continuous
 62
    36
420
  8866048
370
    -3
100
AcDbLine
 10
-2.749630244275977
 20
39.23159054117754
 30
0.0
 11
-35.35036952430289
 21
-17.23454488421696
 31
0.0
  0
LINE
  5
14D
330
1F
100
AcDbEntity
  8
Graypants_Drum18
  6
Continuous
 62
    36
420
  8866048
370
    -3
100
AcDbLine
 10
188.9051134503317
 20
-110.7964715697973
 30
0.0
 11
186.7444987668083
 21
-109.549040070342
 31
0.0
  0
LINE
  5
14E
330
1F
100
AcDbEntity
  8
Graypants_Drum18
  6
Continuous
 62
    36
420
  8866048
370
    -3
100
AcDbLine
 10
190.4051134776653
 20
-108.1983953742247
 30
0.0
 11
188.2444987941418
 21
-106.9509638747693
 31
0.0
  0
LINE
  5
14F
330
1F
100
AcDbEntity
  8
Graypants_Drum18
  6
Continuous
 62
    36
420
  8866048
370
    -3
100
AcDbLine
 10
1.500000000002956
 20
218.9957284946125
 30
0.0
 11
1.50000000000307
 21
216.5
 31
0.0
  0
LINE
  5
150
330
1F
100
AcDbEntity
  8
Graypants_Drum18
  6
Continuous
 62
    36
420
  8866048
370
    -3
100
AcDbLine
 10
-1.499999999997044
 20
218.9948629534561
 30
0.0
 11
-1.499999999996817
 21
216.4999999999999
 31
0.0
  0
ARC
  5
151
330
1F
100
AcDbEntity
  8
Graypants_Drum18
 62
    36
420
  8866048
370
    -3
100
AcDbCircle
 10
-0.0000000000000391
 20
-0.000000000000069
 30
0.0
 40
190.4999999999994
100
AcDbArc
 50
330.4519537222404
 51
89.54767138692516
  0
ARC
  5
152
330
1F
100
AcDbEntity
  8
Graypants_Drum18
 62
    36
420
  8866048
370
    -3
100
AcDbCircle
 10
0.0000000000003136
 20
-0.000000000000403
 30
0.0
 40
190.4999999999999
100
AcDbArc
 50
90.45115253218235
 51
209.548847182398
  0
LINE
  5
153
330
1F
100
AcDbEntity
  8
Graypants_Drum18
  6
Continuous
 62
    36
420
  8866048
370
    -3
100
AcDbLine
 10
186.7444987668067
 20
-109.5490400703411
 30
0.0
 11
175.919181285257
 21
-103.2990399564527
 31
0.0
  0
LINE
  5
154
330
1F
100
AcDbEntity
  8
Graypants_Drum18
  6
Continuous
 62
    36
420
  8866048
370
    -3
100
AcDbLine
 10
188.2444987941402
 20
-106.9509638747684
 30
0.0
 11
177.4191813125906
 21
-100.70096376088
 31
0.0
  0
LINE
  5
155
330
1F
100
AcDbEntity
  8
Graypants_Drum18
  6
Continuous
 62
    36
420
  8866048
370
    -3
100
AcDbLine
 10
188.2444987941402
 20
-106.9509638747684
 30
0.0
 11
186.7444987668067
 21
-109.5490400703411
 31
0.0
  0
LINE
  5
156
330
1F
100
AcDbEntity
  8
Graypants_Drum18
  6
Continuous
 62
    36
420
  8866048
370
    -3
100
AcDbLine
 10
1.499999999999545
 20
216.4999999999995
 30
0.0
 11
1.500000000000114
 21
204.0000000000016
 31
0.0
  0
LINE
  5
157
330
1F
100
AcDbEntity
  8
Graypants_Drum18
  6
Continuous
 62
    36
420
  8866048
370
    -3
100
AcDbLine
 10
-1.500000000000227
 20
216.4999999999993
 30
0.0
 11
-1.499999999999773
 21
204.0000000000013
 31
0.0
  0
LINE
  5
158
330
1F
100
AcDbEntity
  8
Graypants_Drum18
  6
Continuous
 62
    36
420
  8866048
370
    -3
100
AcDbLine
 10
-1.500000000000227
 20
216.4999999999993
 30
0.0
 11
1.499999999999545
 21
216.4999999999995
 31
0.0
  0
LINE
  5
159
330
1F
100
AcDbEntity
  8
Graypants_Drum18
  6
Continuous
 62
    36
420
  8866048
370
    -3
100
AcDbLine
 10
56.42925884865474
 20
10.58240207808577
 30
0.0
 11
39.57352269322178
 21
0.8507383833133009
 31
0.0
  0
LINE
  5
15A
330
1F
100
AcDbEntity
  8
Graypants_Drum18
  6
Continuous
 62
    36
420
  8866048
370
    -3
100
AcDbLine
 10
36.88978294921208
 20
43.2953709232191
 30
0.0
 11
53.51909083667442
 21
52.89630619803053
 31
0.0
  0
LINE
  5
15B
330
1F
100
AcDbEntity
  8
Graypants_Drum18
  6
Continuous
 62
    36
420
  8866048
370
    -3
100
AcDbLine
 10
-19.05000039295919
 20
-54.42421573760798
 30
0.0
 11
-19.05000029468818
 21
-34.69704516122651
 31
0.0
  0
LINE
  5
15C
330
1F
100
AcDbEntity
  8
Graypants_Drum18
  6
Continuous
 62
    36
420
  8866048
370
    -3
100
AcDbLine
 10
19.04999960562884
 20
-54.70762094162545
 30
0.0
 11
19.04999951551633
 21
-72.79704535102228
 31
0.0
  0
LINE
  5
15D
330
1F
100
AcDbEntity
  8
Graypants_Drum18
  6
Continuous
 62
    36
420
  8866048
370
    -3
100
AcDbLine
 10
-190.4013139201028
 20
-108.1961977785943
 30
0.0
 11
-188.2445004521082
 21
-106.9509609565815
 31
0.0
  0
LINE
  5
15E
330
1F
100
AcDbEntity
  8
Graypants_Drum18
  6
Continuous
 62
    36
420
  8866048
370
    -3
100
AcDbLine
 10
-188.905115167913
 20
-110.7964686413689
 30
0.0
 11
-186.7445004650506
 21
-109.549037175407
 31
0.0
  0
LINE
  5
15F
330
1F
100
AcDbEntity
  8
Graypants_Drum18
  6
Continuous
 62
    36
420
  8866048
370
    -3
100
AcDbLine
 10
53.51909083667442
 20
52.89630619803053
 30
0.0
 11
72.56909067230663
 21
19.90073821894551
 31
0.0
  0
ARC
  5
160
330
1F
100
AcDbEntity
  8
Graypants_Drum18
  6
Continuous
 62
    36
420
  8866048
370
    -3
100
AcDbCircle
 10
-33.22352274801096
 20
11.84926104300789
 30
0.0
 40
12.69999999999972
210
0.0
220
0.0
230
-1.0
100
AcDbArc
 50
240.0000002854184
 51
330.0000002854213
  0
ARC
  5
161
330
1F
100
AcDbEntity
  8
Graypants_Drum18
  6
Continuous
 62
    36
420
  8866048
370
    -3
100
AcDbCircle
 10
26.87352280280033
 20
22.84778370270334
 30
0.0
 40
12.70000000000008
100
AcDbArc
 50
119.9999997145803
 51
209.9999997145799
  0
LINE
  5
162
330
1F
100
AcDbEntity
  8
Graypants_Drum18
  6
Continuous
 62
    36
420
  8866048
370
    -3
100
AcDbLine
 10
72.56909067230663
 20
19.90073821894551
 30
0.0
 11
56.42925884865474
 21
10.58240207808577
 31
0.0
  0
LINE
  5
163
330
1F
100
AcDbEntity
  8
Graypants_Drum18
  6
Continuous
 62
    36
420
  8866048
370
    -3
100
AcDbLine
 10
20.52352285758957
 20
33.84630636239838
 30
0.0
 11
36.88978294921208
 21
43.2953709232191
 31
0.0
  0
LINE
  5
164
330
1F
100
AcDbEntity
  8
Graypants_Drum18
  6
Continuous
 62
    36
420
  8866048
370
    -3
100
AcDbLine
 10
19.04999951551633
 20
-72.79704535102228
 30
0.0
 11
-19.05000048448369
 21
-72.79704516122659
 31
0.0
  0
ARC
  5
165
330
1F
100
AcDbEntity
  8
Graypants_Drum18
  6
Continuous
 62
    36
420
  8866048
370
    -3
100
AcDbCircle
 10
6.350000294688105
 20
-34.69704522449172
 30
0.0
 40
12.69999999999984
210
0.0
220
0.0
230
-1.0
100
AcDbArc
 50
0.0000002854191424
 51
90.0000002854197
  0
ARC
  5
166
330
1F
100
AcDbEntity
  8
Graypants_Drum18
  6
Continuous
 62
    36
420
  8866048
370
    -3
100
AcDbCircle
 10
6.349999705312341
 20
-34.69704528775675
 30
0.0
 40
12.69999999999962
100
AcDbArc
 50
359.9999997145787
 51
89.99999971458108
  0
LINE
  5
167
330
1F
100
AcDbEntity
  8
Graypants_Drum18
  6
Continuous
 62
    36
420
  8866048
370
    -3
100
AcDbLine
 10
-19.05000048448369
 20
-72.79704516122659
 30
0.0
 11
-19.05000039295919
 21
-54.42421573760798
 31
0.0
  0
LINE
  5
168
330
1F
100
AcDbEntity
  8
Graypants_Drum18
  6
Continuous
 62
    36
420
  8866048
370
    -3
100
AcDbLine
 10
19.04999970531196
 20
-34.69704535102231
 30
0.0
 11
19.04999960562884
 21
-54.70762094162545
 31
0.0
  0
LINE
  5
169
330
1F
100
AcDbEntity
  8
Graypants_Drum18
  6
Continuous
 62
    36
420
  8866048
370
    -3
100
AcDbLine
 10
-188.2445004521072
 20
-106.9509609565811
 30
0.0
 11
-177.419182873669
 21
-100.7009610105086
 31
0.0
  0
LINE
  5
16A
330
1F
100
AcDbEntity
  8
Graypants_Drum18
  6
Continuous
 62
    36
420
  8866048
370
    -3
100
AcDbLine
 10
-186.7445004650496
 20
-109.5490371754067
 30
0.0
 11
-175.9191828866113
 21
-103.2990372293342
 31
0.0
  0
LINE
  5
16B
330
1F
100
AcDbEntity
  8
Graypants_Drum18
  6
Continuous
 62
    36
420
  8866048
370
    -3
100
AcDbLine
 10
-186.7445004650496
 20
-109.5490371754067
 30
0.0
 11
-188.2445004521072
 21
-106.9509609565811
 31
0.0
  0
LINE
  5
16C
330
1F
100
AcDbEntity
  8
Graypants_Drum18
  6
Continuous
 62
    36
420
  8866048
370
    -3
100
AcDbLine
 10
-36.41952135635131
 20
43.02386616082897
 30
0.0
 11
-20.52352239853519
 21
33.84630677791417
 31
0.0
  0
LINE
  5
16D
330
1F
100
AcDbEntity
  8
Graypants_Drum18
  6
Continuous
 62
    36
420
  8866048
370
    -3
100
AcDbLine
 10
-55.71256432229654
 20
10.16861920006927
 30
0.0
 11
-72.56909035219223
 21
19.90073915299281
 31
0.0
  0
LINE
  5
16E
330
1F
100
AcDbEntity
  8
Graypants_Drum18
  6
Continuous
 62
    36
420
  8866048
370
    -3
100
AcDbLine
 10
-72.56909035219223
 20
19.90073915299281
 30
0.0
 11
-53.51909018782453
 21
52.89630694228221
 31
0.0
  0
ARC
  5
16F
330
1F
100
AcDbEntity
  8
Graypants_Drum18
  6
Continuous
 62
    36
420
  8866048
370
    -3
100
AcDbCircle
 10
26.87352245332382
 20
22.84778418148468
 30
0.0
 40
12.69999999999943
210
0.0
220
0.0
230
-1.0
100
AcDbArc
 50
120.0000002854177
 51
210.0000002854215
  0
ARC
  5
170
330
1F
100
AcDbEntity
  8
Graypants_Drum18
  6
Continuous
 62
    36
420
  8866048
370
    -3
100
AcDbCircle
 10
-33.2235225081136
 20
11.84926158505408
 30
0.0
 40
12.69999999999957
100
AcDbArc
 50
239.999999714578
 51
329.9999997145823
  0
LINE
  5
171
330
1F
100
AcDbEntity
  8
Graypants_Drum18
  6
Continuous
 62
    36
420
  8866048
370
    -3
100
AcDbLine
 10
-53.51909018782453
 20
52.89630694228221
 30
0.0
 11
-36.41952135635131
 21
43.02386616082897
 31
0.0
  0
LINE
  5
172
330
1F
100
AcDbEntity
  8
Graypants_Drum18
  6
Continuous
 62
    36
420
  8866048
370
    -3
100
AcDbLine
 10
-39.57352256290301
 20
0.8507389886249985
 30
0.0
 11
-55.71256432229654
 21
10.16861920006927
 31
0.0
  0
ARC
  5
173
330
1F
100
AcDbEntity
  8
Graypants_Drum18
 62
    36
420
  8866048
370
    -3
100
AcDbCircle
 10
-0.0000000000002468
 20
-0.0000000000001988
 30
0.0
 40
190.4999999999996
100
AcDbArc
 50
210.4511522467631
 51
329.54902910298
  0
CIRCLE
  5
174
330
1F
100
AcDbEntity
  8
Graypants_Drum18
 62
    36
420
  8866048
370
    -3
100
AcDbCircle
 10
-0.0000000000008059
 20
0.0000000000004513
 30
0.0
 40
234.2009581899984
  0
LINE
  5
175
330
1F
100
AcDbEntity
  8
Graypants_Drum18
 62
    36
420
  8866048
370
    -3
100
AcDbLine
 10
-54.76850000000218
 20
-474.3579156152032
 30
0.0
 11
0.79399999999805
 21
-474.3579156152032
 31
0.0
  0
LINE
  5
176
330
1F
100
AcDbEntity
  8
Graypants_Drum18
 62
    36
420
  8866048
370
    -3
100
AcDbLine
 10
0.79399999999805
 20
-474.3579156152032
 30
0.0
 11
56.35649999999805
 21
-474.3579156152032
 31
0.0
  0
ARC
  5
177
330
1F
100
AcDbEntity
  8
Graypants_Drum18
 62
    36
420
  8866048
370
    -3
100
AcDbCircle
 10
-54.76850000000152
 20
-472.7704156152027
 30
0.0
 40
1.587500000000517
100
AcDbArc
 50
180.0000000000185
 51
269.9999999999764
  0
ARC
  5
178
330
1F
100
AcDbEntity
  8
Graypants_Drum18
 62
    36
420
  8866048
370
    -3
100
AcDbCircle
 10
-56.35649999999762
 20
-472.7704156152029
 30
0.0
 40
1.58750000000029
210
0.0
220
0.0
230
-1.0
100
AcDbArc
 50
180.0000000000103
 51
269.9999999999846
  0
LINE
  5
179
330
1F
100
AcDbEntity
  8
Graypants_Drum18
 62
    36
420
  8866048
370
    -3
100
AcDbLine
 10
-56.35600000000204
 20
-464.8329156152032
 30
0.0
 11
0.79399999999805
 21
-464.8329156152032
 31
0.0
  0
LINE
  5
17A
330
1F
100
AcDbEntity
  8
Graypants_Drum18
 62
    36
420
  8866048
370
    -3
100
AcDbLine
 10
57.94399999999791
 20
-464.8329156152032
 30
0.0
 11
57.94399999999791
 21
-472.7704156152032
 31
0.0
  0
LINE
  5
17B
330
1F
100
AcDbEntity
  8
Graypants_Drum18
 62
    36
420
  8866048
370
    -3
100
AcDbLine
 10
-56.35600000000204
 20
-472.7704156152031
 30
0.0
 11
-56.35600000000204
 21
-464.8329156152032
 31
0.0
  0
LINE
  5
17C
330
1F
100
AcDbEntity
  8
Graypants_Drum18
 62
    36
420
  8866048
370
    -3
100
AcDbLine
 10
0.79399999999805
 20
-464.8329156152032
 30
0.0
 11
57.94399999999791
 21
-464.8329156152032
 31
0.0
  0
ARC
  5
17D
330
1F
100
AcDbEntity
  8
Graypants_Drum18
 62
    36
420
  8866048
370
    -3
100
AcDbCircle
 10
-5.561641838474118
 20
-1186.849539798907
 30
0.0
 40
7.688891898207006
210
0.0
220
0.0
230
-1.0
100
AcDbArc
 50
0.0071417839269855
 51
21.59613438628013
  0
ARC
  5
17E
330
1F
100
AcDbEntity
  8
Graypants_Drum18
 62
    36
420
  8866048
370
    -3
100
AcDbCircle
 10
5.556250000011941
 20
-1186.848581396664
 30
0.0
 40
1.841500000013411
100
AcDbArc
 50
90.0000000004253
 51
179.9999999995826
  0
ARC
  5
17F
330
1F
100
AcDbEntity
  8
Graypants_Drum18
 62
    36
420
  8866048
370
    -3
100
AcDbCircle
 10
5.556249999985539
 20
-1177.323581396637
 30
0.0
 40
1.841500000013184
100
AcDbArc
 50
270.0000000004103
 51
359.9999999998868
  0
ARC
  5
180
330
1F
100
AcDbEntity
  8
Graypants_Drum18
 62
    36
420
  8866048
370
    -3
100
AcDbCircle
 10
-5.55624999994086
 20
-1177.323581396593
 30
0.0
 40
7.683500000057734
210
0.0
220
0.0
230
-1.0
100
AcDbArc
 50
180.0000000003577
 51
269.9999999995719
  0
LINE
  5
181
330
1F
100
AcDbEntity
  8
Graypants_Drum18
 62
    36
420
  8866048
370
    -3
100
AcDbLine
 10
7.397749999998723
 20
-1177.323581396641
 30
0.0
 11
7.397749999998268
 21
-474.357915615203
 31
0.0
  0
LINE
  5
182
330
1F
100
AcDbEntity
  8
Graypants_Drum18
 62
    36
420
  8866048
370
    -3
100
AcDbLine
 10
13.23974999999837
 20
-474.357915615203
 30
0.0
 11
13.23974999999859
 21
-1177.323581396641
 31
0.0
  0
ARC
  5
183
330
1F
100
AcDbEntity
  8
Graypants_Drum18
 62
    36
420
  8866048
370
    -3
100
AcDbCircle
 10
-5.557005748975868
 20
-1186.853928016351
 30
0.0
 40
7.688846656842708
210
0.0
220
0.0
230
-1.0
100
AcDbArc
 50
71.96196376891501
 51
89.99436830661817
  0
POLYLINE
  5
184
330
1F
100
AcDbEntity
  8
Graypants_Drum18
 62
    36
420
  8866048
370
    -3
100
AcDb2dPolyline
 66
     1
 10
0.0
 20
0.0
 30
0.0
  0
VERTEX
  5
185
330
184
100
AcDbEntity
  8
Graypants_Drum18
 62
    36
420
  8866048
370
    -3
100
AcDbVertex
100
AcDb2dVertex
 10
199.4305553274071
 20
-1408.748581396652
 30
0.0
  0
VERTEX
  5
186
330
184
100
AcDbEntity
  8
Graypants_Drum18
 62
    36
420
  8866048
370
    -3
100
AcDbVertex
100
AcDb2dVertex
 10
199.4689998298347
 20
-1408.748088676039
 30
0.0
  0
VERTEX
  5
187
330
184
100
AcDbEntity
  8
Graypants_Drum18
 62
    36
420
  8866048
370
    -3
100
AcDbVertex
100
AcDb2dVertex
 10
199.5077705755084
 20
-1408.746593010063
 30
0.0
  0
VERTEX
  5
188
330
184
100
AcDbEntity
  8
Graypants_Drum18
 62
    36
420
  8866048
370
    -3
100
AcDbVertex
100
AcDb2dVertex
 10
199.5468421694947
 20
-1408.744068762497
 30
0.0
  0
VERTEX
  5
189
330
184
100
AcDbEntity
  8
Graypants_Drum18
 62
    36
420
  8866048
370
    -3
100
AcDbVertex
100
AcDb2dVertex
 10
199.586187779579
 20
-1408.740491213878
 30
0.0
  0
VERTEX
  5
18A
330
184
100
AcDbEntity
  8
Graypants_Drum18
 62
    36
420
  8866048
370
    -3
100
AcDbVertex
100
AcDb2dVertex
 10
199.6257791530862
 20
-1408.73583667571
 30
0.0
  0
VERTEX
  5
18B
330
184
100
AcDbEntity
  8
Graypants_Drum18
 62
    36
420
  8866048
370
    -3
100
AcDbVertex
100
AcDb2dVertex
 10
199.6655866409938
 20
-1408.730082605988
 30
0.0
  0
VERTEX
  5
18C
330
184
100
AcDbEntity
  8
Graypants_Drum18
 62
    36
420
  8866048
370
    -3
100
AcDbVertex
100
AcDb2dVertex
 10
199.7055792296293
 20
-1408.723207725401
 30
0.0
  0
VERTEX
  5
18D
330
184
100
AcDbEntity
  8
Graypants_Drum18
 62
    36
420
  8866048
370
    -3
100
AcDbVertex
100
AcDb2dVertex
 10
199.7457245801917
 20
-1408.715192133485
 30
0.0
  0
VERTEX
  5
18E
330
184
100
AcDbEntity
  8
Graypants_Drum18
 62
    36
420
  8866048
370
    -3
100
AcDbVertex
100
AcDb2dVertex
 10
199.7859890762886
 20
-1408.706017424004
 30
0.0
  0
VERTEX
  5
18F
330
184
100
AcDbEntity
  8
Graypants_Drum18
 62
    36
420
  8866048
370
    -3
100
AcDbVertex
100
AcDb2dVertex
 10
199.8263378796252
 20
-1408.695666798737
 30
0.0
  0
VERTEX
  5
190
330
184
100
AcDbEntity
  8
Graypants_Drum18
 62
    36
420
  8866048
370
    -3
100
AcDbVertex
100
AcDb2dVertex
 10
199.866734993914
 20
-1408.684125178856
 30
0.0
  0
VERTEX
  5
191
330
184
100
AcDbEntity
  8
Graypants_Drum18
 62
    36
420
  8866048
370
    -3
100
AcDbVertex
100
AcDb2dVertex
 10
199.90714333701
 20
-1408.671379313026
 30
0.0
  0
VERTEX
  5
192
330
184
100
AcDbEntity
  8
Graypants_Drum18
 62
    36
420
  8866048
370
    -3
100
AcDbVertex
100
AcDb2dVertex
 10
199.9475248212005
 20
-1408.657417881363
 30
0.0
  0
VERTEX
  5
193
330
184
100
AcDbEntity
  8
Graypants_Drum18
 62
    36
420
  8866048
370
    -3
100
AcDbVertex
100
AcDb2dVertex
 10
199.9878404415065
 20
-1408.642231594335
 30
0.0
  0
VERTEX
  5
194
330
184
100
AcDbEntity
  8
Graypants_Drum18
 62
    36
420
  8866048
370
    -3
100
AcDbVertex
100
AcDb2dVertex
 10
200.0280503717664
 20
-1408.625813285727
 30
0.0
  0
VERTEX
  5
195
330
184
100
AcDbEntity
  8
Graypants_Drum18
 62
    36
420
  8866048
370
    -3
100
AcDbVertex
100
AcDb2dVertex
 10
200.0681140681993
 20
-1408.608157998777
 30
0.0
  0
VERTEX
  5
196
330
184
100
AcDbEntity
  8
Graypants_Drum18
 62
    36
420
  8866048
370
    -3
100
AcDbVertex
100
AcDb2dVertex
 10
200.1079903800548
 20
-1408.589263064616
 30
0.0
  0
VERTEX
  5
197
330
184
100
AcDbEntity
  8
Graypants_Drum18
 62
    36
420
  8866048
370
    -3
100
AcDbVertex
100
AcDb2dVertex
 10
200.1476376668797
 20
-1408.569128172166
 30
0.0
  0
VERTEX
  5
198
330
184
100
AcDbEntity
  8
Graypants_Drum18
 62
    36
420
  8866048
370
    -3
100
AcDbVertex
100
AcDb2dVertex
 10
200.187013921846
 20
-1408.547755428699
 30
0.0
  0
VERTEX
  5
199
330
184
100
AcDbEntity
  8
Graypants_Drum18
 62
    36
420
  8866048
370
    -3
100
AcDbVertex
100
AcDb2dVertex
 10
200.2260769005098
 20
-1408.525149410312
 30
0.0
  0
VERTEX
  5
19A
330
184
100
AcDbEntity
  8
Graypants_Drum18
 62
    36
420
  8866048
370
    -3
100
AcDbVertex
100
AcDb2dVertex
 10
200.2647842542931
 20
-1408.501317201635
 30
0.0
  0
VERTEX
  5
19B
330
184
100
AcDbEntity
  8
Graypants_Drum18
 62
    36
420
  8866048
370
    -3
100
AcDbVertex
100
AcDb2dVertex
 10
200.3030936679108
 20
-1408.476268424147
 30
0.0
  0
VERTEX
  5
19C
330
184
100
AcDbEntity
  8
Graypants_Drum18
 62
    36
420
  8866048
370
    -3
100
AcDbVertex
100
AcDb2dVertex
 10
200.3409629999059
 20
-1408.4500152526
 30
0.0
  0
VERTEX
  5
19D
330
184
100
AcDbEntity
  8
Graypants_Drum18
 62
    36
420
  8866048
370
    -3
100
AcDbVertex
100
AcDb2dVertex
 10
200.3783504253934
 20
-1408.422572419089
 30
0.0
  0
VERTEX
  5
19E
330
184
100
AcDbEntity
  8
Graypants_Drum18
 62
    36
420
  8866048
370
    -3
100
AcDbVertex
100
AcDb2dVertex
 10
200.4152145800745
 20
-1408.39395720447
 30
0.0
  0
VERTEX
  5
19F
330
184
100
AcDbEntity
  8
Graypants_Drum18
 62
    36
420
  8866048
370
    -3
100
AcDbVertex
100
AcDb2dVertex
 10
200.451514704538
 20
-1408.36418941687
 30
0.0
  0
VERTEX
  5
1A0
330
184
100
AcDbEntity
  8
Graypants_Drum18
 62
    36
420
  8866048
370
    -3
100
AcDbVertex
100
AcDb2dVertex
 10
200.4872107878465
 20
-1408.333291357222
 30
0.0
  0
VERTEX
  5
1A1
330
184
100
AcDbEntity
  8
Graypants_Drum18
 62
    36
420
  8866048
370
    -3
100
AcDbVertex
100
AcDb2dVertex
 10
200.522263709386
 20
-1408.301287771802
 30
0.0
  0
VERTEX
  5
1A2
330
184
100
AcDbEntity
  8
Graypants_Drum18
 62
    36
420
  8866048
370
    -3
100
AcDbVertex
100
AcDb2dVertex
 10
200.5566353779548
 20
-1408.268205791935
 30
0.0
  0
VERTEX
  5
1A3
330
184
100
AcDbEntity
  8
Graypants_Drum18
 62
    36
420
  8866048
370
    -3
100
AcDbVertex
100
AcDb2dVertex
 10
200.5902888670794
 20
-1408.234074861104
 30
0.0
  0
VERTEX
  5
1A4
330
184
100
AcDbEntity
  8
Graypants_Drum18
 62
    36
420
  8866048
370
    -3
100
AcDbVertex
100
AcDb2dVertex
 10
200.6231885455647
 20
-1408.198926649861
 30
0.0
  0
VERTEX
  5
1A5
330
184
100
AcDbEntity
  8
Graypants_Drum18
 62
    36
420
  8866048
370
    -3
100
AcDbVertex
100
AcDb2dVertex
 10
200.6553002023213
 20
-1408.162794959025
 30
0.0
  0
VERTEX
  5
1A6
330
184
100
AcDbEntity
  8
Graypants_Drum18
 62
    36
420
  8866048
370
    -3
100
AcDbVertex
100
AcDb2dVertex
 10
200.6865911645568
 20
-1408.125715611787
 30
0.0
  0
VERTEX
  5
1A7
330
184
100
AcDbEntity
  8
Graypants_Drum18
 62
    36
420
  8866048
370
    -3
100
AcDbVertex
100
AcDb2dVertex
 10
200.7170304084781
 20
-1408.087726335437
 30
0.0
  0
VERTEX
  5
1A8
330
184
100
AcDbEntity
  8
Graypants_Drum18
 62
    36
420
  8866048
370
    -3
100
AcDbVertex
100
AcDb2dVertex
 10
200.7465886617174
 20
-1408.048866633538
 30
0.0
  0
VERTEX
  5
1A9
330
184
100
AcDbEntity
  8
Graypants_Drum18
 62
    36
420
  8866048
370
    -3
100
AcDbVertex
100
AcDb2dVertex
 10
200.7752384967724
 20
-1408.009177649451
 30
0.0
  0
VERTEX
  5
1AA
330
184
100
AcDbEntity
  8
Graypants_Drum18
 62
    36
420
  8866048
370
    -3
100
AcDbVertex
100
AcDb2dVertex
 10
200.8029544148379
 20
-1407.968702022194
 30
0.0
  0
VERTEX
  5
1AB
330
184
100
AcDbEntity
  8
Graypants_Drum18
 62
    36
420
  8866048
370
    -3
100
AcDbVertex
100
AcDb2dVertex
 10
200.8297129194981
 20
-1407.927483735698
 30
0.0
  0
VERTEX
  5
1AC
330
184
100
AcDbEntity
  8
Graypants_Drum18
 62
    36
420
  8866048
370
    -3
100
AcDbVertex
100
AcDb2dVertex
 10
200.855492579848
 20
-1407.885567962557
 30
0.0
  0
VERTEX
  5
1AD
330
184
100
AcDbEntity
  8
Graypants_Drum18
 62
    36
420
  8866048
370
    -3
100
AcDbVertex
100
AcDb2dVertex
 10
200.8802740827146
 20
-1407.843000903422
 30
0.0
  0
VERTEX
  5
1AE
330
184
100
AcDbEntity
  8
Graypants_Drum18
 62
    36
420
  8866048
370
    -3
100
AcDbVertex
100
AcDb2dVertex
 10
200.9040402737547
 20
-1407.799829623208
 30
0.0
  0
VERTEX
  5
1AF
330
184
100
AcDbEntity
  8
Graypants_Drum18
 62
    36
420
  8866048
370
    -3
100
AcDbVertex
100
AcDb2dVertex
 10
200.92677618731
 20
-1407.756101885291
 30
0.0
  0
VERTEX
  5
1B0
330
184
100
AcDbEntity
  8
Graypants_Drum18
 62
    36
420
  8866048
370
    -3
100
AcDbVertex
100
AcDb2dVertex
 10
200.9484690650102
 20
-1407.711865984889
 30
0.0
  0
VERTEX
  5
1B1
330
184
100
AcDbEntity
  8
Graypants_Drum18
 62
    36
420
  8866048
370
    -3
100
AcDbVertex
100
AcDb2dVertex
 10
200.9691083632124
 20
-1407.667170582765
 30
0.0
  0
VERTEX
  5
1B2
330
184
100
AcDbEntity
  8
Graypants_Drum18
 62
    36
420
  8866048
370
    -3
100
AcDbVertex
100
AcDb2dVertex
 10
200.9886857494697
 20
-1407.622064540401
 30
0.0
  0
VERTEX
  5
1B3
330
184
100
AcDbEntity
  8
Graypants_Drum18
 62
    36
420
  8866048
370
    -3
100
AcDbVertex
100
AcDb2dVertex
 10
201.0071950883145
 20
-1407.576596757722
 30
0.0
  0
VERTEX
  5
1B4
330
184
100
AcDbEntity
  8
Graypants_Drum18
 62
    36
420
  8866048
370
    -3
100
AcDbVertex
100
AcDb2dVertex
 10
201.0246324167292
 20
-1407.530816014412
 30
0.0
  0
VERTEX
  5
1B5
330
184
100
AcDbEntity
  8
Graypants_Drum18
 62
    36
420
  8866048
370
    -3
100
AcDbVertex
100
AcDb2dVertex
 10
201.0409959097624
 20
-1407.484770815776
 30
0.0
  0
VERTEX
  5
1B6
330
184
100
AcDbEntity
  8
Graypants_Drum18
 62
    36
420
  8866048
370
    -3
100
AcDbVertex
100
AcDb2dVertex
 10
201.0562858368162
 20
-1407.438509244068
 30
0.0
  0
VERTEX
  5
1B7
330
184
100
AcDbEntity
  8
Graypants_Drum18
 62
    36
420
  8866048
370
    -3
100
AcDbVertex
100
AcDb2dVertex
 10
201.0705045091992
 20
-1407.392078816083
 30
0.0
  0
VERTEX
  5
1B8
330
184
100
AcDbEntity
  8
Graypants_Drum18
 62
    36
420
  8866048
370
    -3
100
AcDbVertex
100
AcDb2dVertex
 10
201.0836562195926
 20
-1407.345526347744
 30
0.0
  0
VERTEX
  5
1B9
330
184
100
AcDbEntity
  8
Graypants_Drum18
 62
    36
420
  8866048
370
    -3
100
AcDbVertex
100
AcDb2dVertex
 10
201.0957471741204
 20
-1407.298897826343
 30
0.0
  0
VERTEX
  5
1BA
330
184
100
AcDbEntity
  8
Graypants_Drum18
 62
    36
420
  8866048
370
    -3
100
AcDbVertex
100
AcDb2dVertex
 10
201.1067854177538
 20
-1407.252238290949
 30
0.0
  0
VERTEX
  5
1BB
330
184
100
AcDbEntity
  8
Graypants_Drum18
 62
    36
420
  8866048
370
    -3
100
AcDbVertex
100
AcDb2dVertex
 10
201.1167807538011
 20
-1407.205591721465
 30
0.0
  0
VERTEX
  5
1BC
330
184
100
AcDbEntity
  8
Graypants_Drum18
 62
    36
420
  8866048
370
    -3
100
AcDbVertex
100
AcDb2dVertex
 10
201.125744658253
 20
-1407.159000936663
 30
0.0
  0
VERTEX
  5
1BD
330
184
100
AcDbEntity
  8
Graypants_Drum18
 62
    36
420
  8866048
370
    -3
100
AcDbVertex
100
AcDb2dVertex
 10
201.1336901897585
 20
-1407.112507501476
 30
0.0
  0
VERTEX
  5
1BE
330
184
100
AcDbEntity
  8
Graypants_Drum18
 62
    36
420
  8866048
370
    -3
100
AcDbVertex
100
AcDb2dVertex
 10
201.140631896004
 20
-1407.066151643702
 30
0.0
  0
VERTEX
  5
1BF
330
184
100
AcDbEntity
  8
Graypants_Drum18
 62
    36
420
  8866048
370
    -3
100
AcDbVertex
100
AcDb2dVertex
 10
201.1465857172579
 20
-1407.019972180206
 30
0.0
  0
VERTEX
  5
1C0
330
184
100
AcDbEntity
  8
Graypants_Drum18
 62
    36
420
  8866048
370
    -3
100
AcDbVertex
100
AcDb2dVertex
 10
201.1515688878258
 20
-1406.97400645262
 30
0.0
  0
VERTEX
  5
1C1
330
184
100
AcDbEntity
  8
Graypants_Drum18
 62
    36
420
  8866048
370
    -3
100
AcDbVertex
100
AcDb2dVertex
 10
201.155599836134
 20
-1406.928290272447
 30
0.0
  0
VERTEX
  5
1C2
330
184
100
AcDbEntity
  8
Graypants_Drum18
 62
    36
420
  8866048
370
    -3
100
AcDbVertex
100
AcDb2dVertex
 10
201.1586980841304
 20
-1406.882857875431
 30
0.0
  0
VERTEX
  5
1C3
330
184
100
AcDbEntity
  8
Graypants_Drum18
 62
    36
420
  8866048
370
    -3
100
AcDbVertex
100
AcDb2dVertex
 10
201.1608841466546
 20
-1406.837741884949
 30
0.0
  0
VERTEX
  5
1C4
330
184
100
AcDbEntity
  8
Graypants_Drum18
 62
    36
420
  8866048
370
    -3
100
AcDbVertex
100
AcDb2dVertex
 10
201.162179431389
 20
-1406.792973284175
 30
0.0
  0
VERTEX
  5
1C5
330
184
100
AcDbEntity
  8
Graypants_Drum18
 62
    36
420
  8866048
370
    -3
100
AcDbVertex
100
AcDb2dVertex
 10
201.1626061399579
 20
-1406.748581396652
 30
0.0
  0
SEQEND
  5
1C6
330
184
100
AcDbEntity
  8
Graypants_Drum18
 62
    36
420
  8866048
370
    -3
  0
POLYLINE
  5
1C7
330
1F
100
AcDbEntity
  8
Graypants_Drum18
 62
    36
420
  8866048
370
    -3
100
AcDb2dPolyline
 66
     1
 10
0.0
 20
0.0
 30
0.0
  0
VERTEX
  5
1C8
330
1C7
100
AcDbEntity
  8
Graypants_Drum18
 62
    36
420
  8866048
370
    -3
100
AcDbVertex
100
AcDb2dVertex
 10
197.9305553403497
 20
-1408.748581396652
 30
0.0
  0
VERTEX
  5
1C9
330
1C7
100
AcDbEntity
  8
Graypants_Drum18
 62
    36
420
  8866048
370
    -3
100
AcDbVertex
100
AcDb2dVertex
 10
197.9689998427773
 20
-1408.748088676039
 30
0.0
  0
VERTEX
  5
1CA
330
1C7
100
AcDbEntity
  8
Graypants_Drum18
 62
    36
420
  8866048
370
    -3
100
AcDbVertex
100
AcDb2dVertex
 10
198.007770588451
 20
-1408.746593010063
 30
0.0
  0
VERTEX
  5
1CB
330
1C7
100
AcDbEntity
  8
Graypants_Drum18
 62
    36
420
  8866048
370
    -3
100
AcDbVertex
100
AcDb2dVertex
 10
198.0468421824373
 20
-1408.744068762497
 30
0.0
  0
VERTEX
  5
1CC
330
1C7
100
AcDbEntity
  8
Graypants_Drum18
 62
    36
420
  8866048
370
    -3
100
AcDbVertex
100
AcDb2dVertex
 10
198.0861877925216
 20
-1408.740491213878
 30
0.0
  0
VERTEX
  5
1CD
330
1C7
100
AcDbEntity
  8
Graypants_Drum18
 62
    36
420
  8866048
370
    -3
100
AcDbVertex
100
AcDb2dVertex
 10
198.1257791660287
 20
-1408.73583667571
 30
0.0
  0
VERTEX
  5
1CE
330
1C7
100
AcDbEntity
  8
Graypants_Drum18
 62
    36
420
  8866048
370
    -3
100
AcDbVertex
100
AcDb2dVertex
 10
198.1655866539363
 20
-1408.730082605988
 30
0.0
  0
VERTEX
  5
1CF
330
1C7
100
AcDbEntity
  8
Graypants_Drum18
 62
    36
420
  8866048
370
    -3
100
AcDbVertex
100
AcDb2dVertex
 10
198.2055792425719
 20
-1408.723207725401
 30
0.0
  0
VERTEX
  5
1D0
330
1C7
100
AcDbEntity
  8
Graypants_Drum18
 62
    36
420
  8866048
370
    -3
100
AcDbVertex
100
AcDb2dVertex
 10
198.2457245931343
 20
-1408.715192133485
 30
0.0
  0
VERTEX
  5
1D1
330
1C7
100
AcDbEntity
  8
Graypants_Drum18
 62
    36
420
  8866048
370
    -3
100
AcDbVertex
100
AcDb2dVertex
 10
198.2859890892312
 20
-1408.706017424004
 30
0.0
  0
VERTEX
  5
1D2
330
1C7
100
AcDbEntity
  8
Graypants_Drum18
 62
    36
420
  8866048
370
    -3
100
AcDbVertex
100
AcDb2dVertex
 10
198.3263378925678
 20
-1408.695666798737
 30
0.0
  0
VERTEX
  5
1D3
330
1C7
100
AcDbEntity
  8
Graypants_Drum18
 62
    36
420
  8866048
370
    -3
100
AcDbVertex
100
AcDb2dVertex
 10
198.3667350068566
 20
-1408.684125178856
 30
0.0
  0
VERTEX
  5
1D4
330
1C7
100
AcDbEntity
  8
Graypants_Drum18
 62
    36
420
  8866048
370
    -3
100
AcDbVertex
100
AcDb2dVertex
 10
198.4071433499525
 20
-1408.671379313026
 30
0.0
  0
VERTEX
  5
1D5
330
1C7
100
AcDbEntity
  8
Graypants_Drum18
 62
    36
420
  8866048
370
    -3
100
AcDbVertex
100
AcDb2dVertex
 10
198.4475248341432
 20
-1408.657417881363
 30
0.0
  0
VERTEX
  5
1D6
330
1C7
100
AcDbEntity
  8
Graypants_Drum18
 62
    36
420
  8866048
370
    -3
100
AcDbVertex
100
AcDb2dVertex
 10
198.4878404544491
 20
-1408.642231594335
 30
0.0
  0
VERTEX
  5
1D7
330
1C7
100
AcDbEntity
  8
Graypants_Drum18
 62
    36
420
  8866048
370
    -3
100
AcDbVertex
100
AcDb2dVertex
 10
198.528050384709
 20
-1408.625813285727
 30
0.0
  0
VERTEX
  5
1D8
330
1C7
100
AcDbEntity
  8
Graypants_Drum18
 62
    36
420
  8866048
370
    -3
100
AcDbVertex
100
AcDb2dVertex
 10
198.5681140811419
 20
-1408.608157998777
 30
0.0
  0
VERTEX
  5
1D9
330
1C7
100
AcDbEntity
  8
Graypants_Drum18
 62
    36
420
  8866048
370
    -3
100
AcDbVertex
100
AcDb2dVertex
 10
198.6079903929974
 20
-1408.589263064616
 30
0.0
  0
VERTEX
  5
1DA
330
1C7
100
AcDbEntity
  8
Graypants_Drum18
 62
    36
420
  8866048
370
    -3
100
AcDbVertex
100
AcDb2dVertex
 10
198.6476376798223
 20
-1408.569128172166
 30
0.0
  0
VERTEX
  5
1DB
330
1C7
100
AcDbEntity
  8
Graypants_Drum18
 62
    36
420
  8866048
370
    -3
100
AcDbVertex
100
AcDb2dVertex
 10
198.6870139347886
 20
-1408.547755428699
 30
0.0
  0
VERTEX
  5
1DC
330
1C7
100
AcDbEntity
  8
Graypants_Drum18
 62
    36
420
  8866048
370
    -3
100
AcDbVertex
100
AcDb2dVertex
 10
198.7260769134525
 20
-1408.525149410312
 30
0.0
  0
VERTEX
  5
1DD
330
1C7
100
AcDbEntity
  8
Graypants_Drum18
 62
    36
420
  8866048
370
    -3
100
AcDbVertex
100
AcDb2dVertex
 10
198.7647842672357
 20
-1408.501317201635
 30
0.0
  0
VERTEX
  5
1DE
330
1C7
100
AcDbEntity
  8
Graypants_Drum18
 62
    36
420
  8866048
370
    -3
100
AcDbVertex
100
AcDb2dVertex
 10
198.8030936808534
 20
-1408.476268424147
 30
0.0
  0
VERTEX
  5
1DF
330
1C7
100
AcDbEntity
  8
Graypants_Drum18
 62
    36
420
  8866048
370
    -3
100
AcDbVertex
100
AcDb2dVertex
 10
198.8409630128485
 20
-1408.4500152526
 30
0.0
  0
VERTEX
  5
1E0
330
1C7
100
AcDbEntity
  8
Graypants_Drum18
 62
    36
420
  8866048
370
    -3
100
AcDbVertex
100
AcDb2dVertex
 10
198.878350438336
 20
-1408.422572419089
 30
0.0
  0
VERTEX
  5
1E1
330
1C7
100
AcDbEntity
  8
Graypants_Drum18
 62
    36
420
  8866048
370
    -3
100
AcDbVertex
100
AcDb2dVertex
 10
198.9152145930171
 20
-1408.39395720447
 30
0.0
  0
VERTEX
  5
1E2
330
1C7
100
AcDbEntity
  8
Graypants_Drum18
 62
    36
420
  8866048
370
    -3
100
AcDbVertex
100
AcDb2dVertex
 10
198.9515147174806
 20
-1408.36418941687
 30
0.0
  0
VERTEX
  5
1E3
330
1C7
100
AcDbEntity
  8
Graypants_Drum18
 62
    36
420
  8866048
370
    -3
100
AcDbVertex
100
AcDb2dVertex
 10
198.9872108007891
 20
-1408.333291357222
 30
0.0
  0
VERTEX
  5
1E4
330
1C7
100
AcDbEntity
  8
Graypants_Drum18
 62
    36
420
  8866048
370
    -3
100
AcDbVertex
100
AcDb2dVertex
 10
199.0222637223286
 20
-1408.301287771802
 30
0.0
  0
VERTEX
  5
1E5
330
1C7
100
AcDbEntity
  8
Graypants_Drum18
 62
    36
420
  8866048
370
    -3
100
AcDbVertex
100
AcDb2dVertex
 10
199.0566353908974
 20
-1408.268205791935
 30
0.0
  0
VERTEX
  5
1E6
330
1C7
100
AcDbEntity
  8
Graypants_Drum18
 62
    36
420
  8866048
370
    -3
100
AcDbVertex
100
AcDb2dVertex
 10
199.090288880022
 20
-1408.234074861104
 30
0.0
  0
VERTEX
  5
1E7
330
1C7
100
AcDbEntity
  8
Graypants_Drum18
 62
    36
420
  8866048
370
    -3
100
AcDbVertex
100
AcDb2dVertex
 10
199.1231885585074
 20
-1408.198926649861
 30
0.0
  0
VERTEX
  5
1E8
330
1C7
100
AcDbEntity
  8
Graypants_Drum18
 62
    36
420
  8866048
370
    -3
100
AcDbVertex
100
AcDb2dVertex
 10
199.1553002152639
 20
-1408.162794959025
 30
0.0
  0
VERTEX
  5
1E9
330
1C7
100
AcDbEntity
  8
Graypants_Drum18
 62
    36
420
  8866048
370
    -3
100
AcDbVertex
100
AcDb2dVertex
 10
199.1865911774994
 20
-1408.125715611787
 30
0.0
  0
VERTEX
  5
1EA
330
1C7
100
AcDbEntity
  8
Graypants_Drum18
 62
    36
420
  8866048
370
    -3
100
AcDbVertex
100
AcDb2dVertex
 10
199.2170304214207
 20
-1408.087726335437
 30
0.0
  0
VERTEX
  5
1EB
330
1C7
100
AcDbEntity
  8
Graypants_Drum18
 62
    36
420
  8866048
370
    -3
100
AcDbVertex
100
AcDb2dVertex
 10
199.24658867466
 20
-1408.048866633538
 30
0.0
  0
VERTEX
  5
1EC
330
1C7
100
AcDbEntity
  8
Graypants_Drum18
 62
    36
420
  8866048
370
    -3
100
AcDbVertex
100
AcDb2dVertex
 10
199.275238509715
 20
-1408.009177649451
 30
0.0
  0
VERTEX
  5
1ED
330
1C7
100
AcDbEntity
  8
Graypants_Drum18
 62
    36
420
  8866048
370
    -3
100
AcDbVertex
100
AcDb2dVertex
 10
199.3029544277805
 20
-1407.968702022194
 30
0.0
  0
VERTEX
  5
1EE
330
1C7
100
AcDbEntity
  8
Graypants_Drum18
 62
    36
420
  8866048
370
    -3
100
AcDbVertex
100
AcDb2dVertex
 10
199.3297129324407
 20
-1407.927483735698
 30
0.0
  0
VERTEX
  5
1EF
330
1C7
100
AcDbEntity
  8
Graypants_Drum18
 62
    36
420
  8866048
370
    -3
100
AcDbVertex
100
AcDb2dVertex
 10
199.3554925927906
 20
-1407.885567962557
 30
0.0
  0
VERTEX
  5
1F0
330
1C7
100
AcDbEntity
  8
Graypants_Drum18
 62
    36
420
  8866048
370
    -3
100
AcDbVertex
100
AcDb2dVertex
 10
199.3802740956572
 20
-1407.843000903422
 30
0.0
  0
VERTEX
  5
1F1
330
1C7
100
AcDbEntity
  8
Graypants_Drum18
 62
    36
420
  8866048
370
    -3
100
AcDbVertex
100
AcDb2dVertex
 10
199.4040402866973
 20
-1407.799829623208
 30
0.0
  0
VERTEX
  5
1F2
330
1C7
100
AcDbEntity
  8
Graypants_Drum18
 62
    36
420
  8866048
370
    -3
100
AcDbVertex
100
AcDb2dVertex
 10
199.4267762002526
 20
-1407.756101885291
 30
0.0
  0
VERTEX
  5
1F3
330
1C7
100
AcDbEntity
  8
Graypants_Drum18
 62
    36
420
  8866048
370
    -3
100
AcDbVertex
100
AcDb2dVertex
 10
199.4484690779529
 20
-1407.711865984889
 30
0.0
  0
VERTEX
  5
1F4
330
1C7
100
AcDbEntity
  8
Graypants_Drum18
 62
    36
420
  8866048
370
    -3
100
AcDbVertex
100
AcDb2dVertex
 10
199.469108376155
 20
-1407.667170582765
 30
0.0
  0
VERTEX
  5
1F5
330
1C7
100
AcDbEntity
  8
Graypants_Drum18
 62
    36
420
  8866048
370
    -3
100
AcDbVertex
100
AcDb2dVertex
 10
199.4886857624124
 20
-1407.622064540401
 30
0.0
  0
VERTEX
  5
1F6
330
1C7
100
AcDbEntity
  8
Graypants_Drum18
 62
    36
420
  8866048
370
    -3
100
AcDbVertex
100
AcDb2dVertex
 10
199.5071951012571
 20
-1407.576596757722
 30
0.0
  0
VERTEX
  5
1F7
330
1C7
100
AcDbEntity
  8
Graypants_Drum18
 62
    36
420
  8866048
370
    -3
100
AcDbVertex
100
AcDb2dVertex
 10
199.5246324296718
 20
-1407.530816014412
 30
0.0
  0
VERTEX
  5
1F8
330
1C7
100
AcDbEntity
  8
Graypants_Drum18
 62
    36
420
  8866048
370
    -3
100
AcDbVertex
100
AcDb2dVertex
 10
199.5409959227051
 20
-1407.484770815776
 30
0.0
  0
VERTEX
  5
1F9
330
1C7
100
AcDbEntity
  8
Graypants_Drum18
 62
    36
420
  8866048
370
    -3
100
AcDbVertex
100
AcDb2dVertex
 10
199.5562858497588
 20
-1407.438509244068
 30
0.0
  0
VERTEX
  5
1FA
330
1C7
100
AcDbEntity
  8
Graypants_Drum18
 62
    36
420
  8866048
370
    -3
100
AcDbVertex
100
AcDb2dVertex
 10
199.5705045221418
 20
-1407.392078816083
 30
0.0
  0
VERTEX
  5
1FB
330
1C7
100
AcDbEntity
  8
Graypants_Drum18
 62
    36
420
  8866048
370
    -3
100
AcDbVertex
100
AcDb2dVertex
 10
199.5836562325352
 20
-1407.345526347744
 30
0.0
  0
VERTEX
  5
1FC
330
1C7
100
AcDbEntity
  8
Graypants_Drum18
 62
    36
420
  8866048
370
    -3
100
AcDbVertex
100
AcDb2dVertex
 10
199.595747187063
 20
-1407.298897826343
 30
0.0
  0
VERTEX
  5
1FD
330
1C7
100
AcDbEntity
  8
Graypants_Drum18
 62
    36
420
  8866048
370
    -3
100
AcDbVertex
100
AcDb2dVertex
 10
199.6067854306964
 20
-1407.252238290949
 30
0.0
  0
VERTEX
  5
1FE
330
1C7
100
AcDbEntity
  8
Graypants_Drum18
 62
    36
420
  8866048
370
    -3
100
AcDbVertex
100
AcDb2dVertex
 10
199.6167807667436
 20
-1407.205591721465
 30
0.0
  0
VERTEX
  5
1FF
330
1C7
100
AcDbEntity
  8
Graypants_Drum18
 62
    36
420
  8866048
370
    -3
100
AcDbVertex
100
AcDb2dVertex
 10
199.6257446711955
 20
-1407.159000936663
 30
0.0
  0
VERTEX
  5
200
330
1C7
100
AcDbEntity
  8
Graypants_Drum18
 62
    36
420
  8866048
370
    -3
100
AcDbVertex
100
AcDb2dVertex
 10
199.6336902027011
 20
-1407.112507501476
 30
0.0
  0
VERTEX
  5
201
330
1C7
100
AcDbEntity
  8
Graypants_Drum18
 62
    36
420
  8866048
370
    -3
100
AcDbVertex
100
AcDb2dVertex
 10
199.6406319089465
 20
-1407.066151643702
 30
0.0
  0
VERTEX
  5
202
330
1C7
100
AcDbEntity
  8
Graypants_Drum18
 62
    36
420
  8866048
370
    -3
100
AcDbVertex
100
AcDb2dVertex
 10
199.6465857302005
 20
-1407.019972180206
 30
0.0
  0
VERTEX
  5
203
330
1C7
100
AcDbEntity
  8
Graypants_Drum18
 62
    36
420
  8866048
370
    -3
100
AcDbVertex
100
AcDb2dVertex
 10
199.6515689007684
 20
-1406.97400645262
 30
0.0
  0
VERTEX
  5
204
330
1C7
100
AcDbEntity
  8
Graypants_Drum18
 62
    36
420
  8866048
370
    -3
100
AcDbVertex
100
AcDb2dVertex
 10
199.6555998490765
 20
-1406.928290272447
 30
0.0
  0
VERTEX
  5
205
330
1C7
100
AcDbEntity
  8
Graypants_Drum18
 62
    36
420
  8866048
370
    -3
100
AcDbVertex
100
AcDb2dVertex
 10
199.6586980970729
 20
-1406.882857875431
 30
0.0
  0
VERTEX
  5
206
330
1C7
100
AcDbEntity
  8
Graypants_Drum18
 62
    36
420
  8866048
370
    -3
100
AcDbVertex
100
AcDb2dVertex
 10
199.6608841595972
 20
-1406.837741884949
 30
0.0
  0
VERTEX
  5
207
330
1C7
100
AcDbEntity
  8
Graypants_Drum18
 62
    36
420
  8866048
370
    -3
100
AcDbVertex
100
AcDb2dVertex
 10
199.6621794443315
 20
-1406.792973284175
 30
0.0
  0
VERTEX
  5
208
330
1C7
100
AcDbEntity
  8
Graypants_Drum18
 62
    36
420
  8866048
370
    -3
100
AcDbVertex
100
AcDb2dVertex
 10
199.6626061529005
 20
-1406.748581396652
 30
0.0
  0
SEQEND
  5
209
330
1C7
100
AcDbEntity
  8
Graypants_Drum18
 62
    36
420
  8866048
370
    -3
  0
LINE
  5
20A
330
1F
100
AcDbEntity
  8
Graypants_Drum18
 62
    36
420
  8866048
370
    -3
100
AcDbLine
 10
201.1626061399579
 20
-1406.748581396652
 30
0.0
 11
201.1626061399579
 21
-1404.73705370221
 31
0.0
  0
LINE
  5
20B
330
1F
100
AcDbEntity
  8
Graypants_Drum18
 62
    36
420
  8866048
370
    -3
100
AcDbLine
 10
199.6626061529005
 20
-1406.748581396652
 30
0.0
 11
199.6626061529005
 21
-1404.73705370221
 31
0.0
  0
POLYLINE
  5
20C
330
1F
100
AcDbEntity
  8
Graypants_Drum18
 62
    36
420
  8866048
370
    -3
100
AcDb2dPolyline
 66
     1
 10
0.0
 20
0.0
 30
0.0
  0
VERTEX
  5
20D
330
20C
100
AcDbEntity
  8
Graypants_Drum18
 62
    36
420
  8866048
370
    -3
100
AcDbVertex
100
AcDb2dVertex
 10
180.9410657745334
 20
-1406.309747826238
 30
0.0
  0
VERTEX
  5
20E
330
20C
100
AcDbEntity
  8
Graypants_Drum18
 62
    36
420
  8866048
370
    -3
100
AcDbVertex
100
AcDb2dVertex
 10
180.9512923186184
 20
-1406.368556652667
 30
0.0
  0
VERTEX
  5
20F
330
20C
100
AcDbEntity
  8
Graypants_Drum18
 62
    36
420
  8866048
370
    -3
100
AcDbVertex
100
AcDb2dVertex
 10
180.9626176262223
 20
-1406.427528038678
 30
0.0
  0
VERTEX
  5
210
330
20C
100
AcDbEntity
  8
Graypants_Drum18
 62
    36
420
  8866048
370
    -3
100
AcDbVertex
100
AcDb2dVertex
 10
180.9750569336452
 20
-1406.486624892104
 30
0.0
  0
VERTEX
  5
211
330
20C
100
AcDbEntity
  8
Graypants_Drum18
 62
    36
420
  8866048
370
    -3
100
AcDbVertex
100
AcDb2dVertex
 10
180.9886243583954
 20
-1406.545808921754
 30
0.0
  0
VERTEX
  5
212
330
20C
100
AcDbEntity
  8
Graypants_Drum18
 62
    36
420
  8866048
370
    -3
100
AcDbVertex
100
AcDb2dVertex
 10
181.0033328281876
 20
-1406.605040685189
 30
0.0
  0
VERTEX
  5
213
330
20C
100
AcDbEntity
  8
Graypants_Drum18
 62
    36
420
  8866048
370
    -3
100
AcDbVertex
100
AcDb2dVertex
 10
181.0191940112245
 20
-1406.664279642475
 30
0.0
  0
VERTEX
  5
214
330
20C
100
AcDbEntity
  8
Graypants_Drum18
 62
    36
420
  8866048
370
    -3
100
AcDbVertex
100
AcDb2dVertex
 10
181.0362182481622
 20
-1406.723484215913
 30
0.0
  0
VERTEX
  5
215
330
20C
100
AcDbEntity
  8
Graypants_Drum18
 62
    36
420
  8866048
370
    -3
100
AcDbVertex
100
AcDb2dVertex
 10
181.054414486175
 20
-1406.782611855728
 30
0.0
  0
VERTEX
  5
216
330
20C
100
AcDbEntity
  8
Graypants_Drum18
 62
    36
420
  8866048
370
    -3
100
AcDbVertex
100
AcDb2dVertex
 10
181.0737902155402
 20
-1406.841619111661
 30
0.0
  0
VERTEX
  5
217
330
20C
100
AcDbEntity
  8
Graypants_Drum18
 62
    36
420
  8866048
370
    -3
100
AcDbVertex
100
AcDb2dVertex
 10
181.0943514091687
 20
-1406.900461710332
 30
0.0
  0
VERTEX
  5
218
330
20C
100
AcDbEntity
  8
Graypants_Drum18
 62
    36
420
  8866048
370
    -3
100
AcDbVertex
100
AcDb2dVertex
 10
181.1161024655064
 20
-1406.959094638254
 30
0.0
  0
VERTEX
  5
219
330
20C
100
AcDbEntity
  8
Graypants_Drum18
 62
    36
420
  8866048
370
    -3
100
AcDbVertex
100
AcDb2dVertex
 10
181.1390461552292
 20
-1407.01747223027
 30
0.0
  0
VERTEX
  5
21A
330
20C
100
AcDbEntity
  8
Graypants_Drum18
 62
    36
420
  8866048
370
    -3
100
AcDbVertex
100
AcDb2dVertex
 10
181.1631835721488
 20
-1407.075548263199
 30
0.0
  0
VERTEX
  5
21B
330
20C
100
AcDbEntity
  8
Graypants_Drum18
 62
    36
420
  8866048
370
    -3
100
AcDbVertex
100
AcDb2dVertex
 10
181.1885140887316
 20
-1407.133276054378
 30
0.0
  0
VERTEX
  5
21C
330
20C
100
AcDbEntity
  8
Graypants_Drum18
 62
    36
420
  8866048
370
    -3
100
AcDbVertex
100
AcDb2dVertex
 10
181.2150353166244
 20
-1407.190608564784
 30
0.0
  0
VERTEX
  5
21D
330
20C
100
AcDbEntity
  8
Graypants_Drum18
 62
    36
420
  8866048
370
    -3
100
AcDbVertex
100
AcDb2dVertex
 10
181.2427430725542
 20
-1407.247498506348
 30
0.0
  0
VERTEX
  5
21E
330
20C
100
AcDbEntity
  8
Graypants_Drum18
 62
    36
420
  8866048
370
    -3
100
AcDbVertex
100
AcDb2dVertex
 10
181.2716313499524
 20
-1407.303898453049
 30
0.0
  0
VERTEX
  5
21F
330
20C
100
AcDbEntity
  8
Graypants_Drum18
 62
    36
420
  8866048
370
    -3
100
AcDbVertex
100
AcDb2dVertex
 10
181.3016922966229
 20
-1407.359760955311
 30
0.0
  0
VERTEX
  5
220
330
20C
100
AcDbEntity
  8
Graypants_Drum18
 62
    36
420
  8866048
370
    -3
100
AcDbVertex
100
AcDb2dVertex
 10
181.3329161987442
 20
-1407.415038657218
 30
0.0
  0
VERTEX
  5
221
330
20C
100
AcDbEntity
  8
Graypants_Drum18
 62
    36
420
  8866048
370
    -3
100
AcDbVertex
100
AcDb2dVertex
 10
181.3652914714588
 20
-1407.469684416005
 30
0.0
  0
VERTEX
  5
222
330
20C
100
AcDbEntity
  8
Graypants_Drum18
 62
    36
420
  8866048
370
    -3
100
AcDbVertex
100
AcDb2dVertex
 10
181.3988046562676
 20
-1407.523651423245
 30
0.0
  0
VERTEX
  5
223
330
20C
100
AcDbEntity
  8
Graypants_Drum18
 62
    36
420
  8866048
370
    -3
100
AcDbVertex
100
AcDb2dVertex
 10
181.4334404254021
 20
-1407.57689332716
 30
0.0
  0
VERTEX
  5
224
330
20C
100
AcDbEntity
  8
Graypants_Drum18
 62
    36
420
  8866048
370
    -3
100
AcDbVertex
100
AcDb2dVertex
 10
181.4691815933064
 20
-1407.629364355409
 30
0.0
  0
VERTEX
  5
225
330
20C
100
AcDbEntity
  8
Graypants_Drum18
 62
    36
420
  8866048
370
    -3
100
AcDbVertex
100
AcDb2dVertex
 10
181.5060091353101
 20
-1407.681019437741
 30
0.0
  0
VERTEX
  5
226
330
20C
100
AcDbEntity
  8
Graypants_Drum18
 62
    36
420
  8866048
370
    -3
100
AcDbVertex
100
AcDb2dVertex
 10
181.5439022135287
 20
-1407.731814327841
 30
0.0
  0
VERTEX
  5
227
330
20C
100
AcDbEntity
  8
Graypants_Drum18
 62
    36
420
  8866048
370
    -3
100
AcDbVertex
100
AcDb2dVertex
 10
181.5828382099731
 20
-1407.781705723716
 30
0.0
  0
VERTEX
  5
228
330
20C
100
AcDbEntity
  8
Graypants_Drum18
 62
    36
420
  8866048
370
    -3
100
AcDbVertex
100
AcDb2dVertex
 10
181.6227927668032
 20
-1407.830651385978
 30
0.0
  0
VERTEX
  5
229
330
20C
100
AcDbEntity
  8
Graypants_Drum18
 62
    36
420
  8866048
370
    -3
100
AcDbVertex
100
AcDb2dVertex
 10
181.6637398336051
 20
-1407.878610253338
 30
0.0
  0
VERTEX
  5
22A
330
20C
100
AcDbEntity
  8
Graypants_Drum18
 62
    36
420
  8866048
370
    -3
100
AcDbVertex
100
AcDb2dVertex
 10
181.705651721523
 20
-1407.925542554689
 30
0.0
  0
VERTEX
  5
22B
330
20C
100
AcDbEntity
  8
Graypants_Drum18
 62
    36
420
  8866048
370
    -3
100
AcDbVertex
100
AcDb2dVertex
 10
181.7484991640227
 20
-1407.971409917139
 30
0.0
  0
VERTEX
  5
22C
330
20C
100
AcDbEntity
  8
Graypants_Drum18
 62
    36
420
  8866048
370
    -3
100
AcDbVertex
100
AcDb2dVertex
 10
181.7922513840191
 20
-1408.016175469393
 30
0.0
  0
VERTEX
  5
22D
330
20C
100
AcDbEntity
  8
Graypants_Drum18
 62
    36
420
  8866048
370
    -3
100
AcDbVertex
100
AcDb2dVertex
 10
181.8368761670483
 20
-1408.059803939892
 30
0.0
  0
VERTEX
  5
22E
330
20C
100
AcDbEntity
  8
Graypants_Drum18
 62
    36
420
  8866048
370
    -3
100
AcDbVertex
100
AcDb2dVertex
 10
181.8823399401223
 20
-1408.102261749181
 30
0.0
  0
VERTEX
  5
22F
330
20C
100
AcDbEntity
  8
Graypants_Drum18
 62
    36
420
  8866048
370
    -3
100
AcDbVertex
100
AcDb2dVertex
 10
181.9286078558621
 20
-1408.143517095994
 30
0.0
  0
VERTEX
  5
230
330
20C
100
AcDbEntity
  8
Graypants_Drum18
 62
    36
420
  8866048
370
    -3
100
AcDbVertex
100
AcDb2dVertex
 10
181.9756438814684
 20
-1408.183540036578
 30
0.0
  0
VERTEX
  5
231
330
20C
100
AcDbEntity
  8
Graypants_Drum18
 62
    36
420
  8866048
370
    -3
100
AcDbVertex
100
AcDb2dVertex
 10
182.02341089205
 20
-1408.222302556869
 30
0.0
  0
VERTEX
  5
232
330
20C
100
AcDbEntity
  8
Graypants_Drum18
 62
    36
420
  8866048
370
    -3
100
AcDbVertex
100
AcDb2dVertex
 10
182.0718707678076
 20
-1408.259778637133
 30
0.0
  0
VERTEX
  5
233
330
20C
100
AcDbEntity
  8
Graypants_Drum18
 62
    36
420
  8866048
370
    -3
100
AcDbVertex
100
AcDb2dVertex
 10
182.1209844945373
 20
-1408.295944308768
 30
0.0
  0
VERTEX
  5
234
330
20C
100
AcDbEntity
  8
Graypants_Drum18
 62
    36
420
  8866048
370
    -3
100
AcDbVertex
100
AcDb2dVertex
 10
182.1707122669066
 20
-1408.330777703025
 30
0.0
  0
VERTEX
  5
235
330
20C
100
AcDbEntity
  8
Graypants_Drum18
 62
    36
420
  8866048
370
    -3
100
AcDbVertex
100
AcDb2dVertex
 10
182.221013593931
 20
-1408.364259091444
 30
0.0
  0
VERTEX
  5
236
330
20C
100
AcDbEntity
  8
Graypants_Drum18
 62
    36
420
  8866048
370
    -3
100
AcDbVertex
100
AcDb2dVertex
 10
182.2718474060785
 20
-1408.396370917879
 30
0.0
  0
VERTEX
  5
237
330
20C
100
AcDbEntity
  8
Graypants_Drum18
 62
    36
420
  8866048
370
    -3
100
AcDbVertex
100
AcDb2dVertex
 10
182.3231721634197
 20
-1408.427097822029
 30
0.0
  0
VERTEX
  5
238
330
20C
100
AcDbEntity
  8
Graypants_Drum18
 62
    36
420
  8866048
370
    -3
100
AcDbVertex
100
AcDb2dVertex
 10
182.3749459642421
 20
-1408.456426654482
 30
0.0
  0
VERTEX
  5
239
330
20C
100
AcDbEntity
  8
Graypants_Drum18
 62
    36
420
  8866048
370
    -3
100
AcDbVertex
100
AcDb2dVertex
 10
182.4271266535568
 20
-1408.484346483295
 30
0.0
  0
VERTEX
  5
23A
330
20C
100
AcDbEntity
  8
Graypants_Drum18
 62
    36
420
  8866048
370
    -3
100
AcDbVertex
100
AcDb2dVertex
 10
182.4796719309313
 20
-1408.510848592239
 30
0.0
  0
VERTEX
  5
23B
330
20C
100
AcDbEntity
  8
Graypants_Drum18
 62
    36
420
  8866048
370
    -3
100
AcDbVertex
100
AcDb2dVertex
 10
182.5325394571034
 20
-1408.535926470851
 30
0.0
  0
VERTEX
  5
23C
330
20C
100
AcDbEntity
  8
Graypants_Drum18
 62
    36
420
  8866048
370
    -3
100
AcDbVertex
100
AcDb2dVertex
 10
182.5856869588481
 20
-1408.559575796516
 30
0.0
  0
VERTEX
  5
23D
330
20C
100
AcDbEntity
  8
Graypants_Drum18
 62
    36
420
  8866048
370
    -3
100
AcDbVertex
100
AcDb2dVertex
 10
182.6390723315945
 20
-1408.581794408841
 30
0.0
  0
VERTEX
  5
23E
330
20C
100
AcDbEntity
  8
Graypants_Drum18
 62
    36
420
  8866048
370
    -3
100
AcDbVertex
100
AcDb2dVertex
 10
182.6926537393188
 20
-1408.602582276631
 30
0.0
  0
VERTEX
  5
23F
330
20C
100
AcDbEntity
  8
Graypants_Drum18
 62
    36
420
  8866048
370
    -3
100
AcDbVertex
100
AcDb2dVertex
 10
182.7463897112686
 20
-1408.621941457818
 30
0.0
  0
VERTEX
  5
240
330
20C
100
AcDbEntity
  8
Graypants_Drum18
 62
    36
420
  8866048
370
    -3
100
AcDbVertex
100
AcDb2dVertex
 10
182.8002392351131
 20
-1408.639876052725
 30
0.0
  0
VERTEX
  5
241
330
20C
100
AcDbEntity
  8
Graypants_Drum18
 62
    36
420
  8866048
370
    -3
100
AcDbVertex
100
AcDb2dVertex
 10
182.8541618461425
 20
-1408.656392151105
 30
0.0
  0
VERTEX
  5
242
330
20C
100
AcDbEntity
  8
Graypants_Drum18
 62
    36
420
  8866048
370
    -3
100
AcDbVertex
100
AcDb2dVertex
 10
182.9081177121884
 20
-1408.671497773382
 30
0.0
  0
VERTEX
  5
243
330
20C
100
AcDbEntity
  8
Graypants_Drum18
 62
    36
420
  8866048
370
    -3
100
AcDbVertex
100
AcDb2dVertex
 10
182.9620677139673
 20
-1408.685202806586
 30
0.0
  0
VERTEX
  5
244
330
20C
100
AcDbEntity
  8
Graypants_Drum18
 62
    36
420
  8866048
370
    -3
100
AcDbVertex
100
AcDb2dVertex
 10
183.0159735205984
 20
-1408.697518935467
 30
0.0
  0
VERTEX
  5
245
330
20C
100
AcDbEntity
  8
Graypants_Drum18
 62
    36
420
  8866048
370
    -3
100
AcDbVertex
100
AcDb2dVertex
 10
183.0697976600823
 20
-1408.708459569286
 30
0.0
  0
VERTEX
  5
246
330
20C
100
AcDbEntity
  8
Graypants_Drum18
 62
    36
420
  8866048
370
    -3
100
AcDbVertex
100
AcDb2dVertex
 10
183.1235035845734
 20
-1408.718039764809
 30
0.0
  0
VERTEX
  5
247
330
20C
100
AcDbEntity
  8
Graypants_Drum18
 62
    36
420
  8866048
370
    -3
100
AcDbVertex
100
AcDb2dVertex
 10
183.1770557303155
 20
-1408.726276146013
 30
0.0
  0
VERTEX
  5
248
330
20C
100
AcDbEntity
  8
Graypants_Drum18
 62
    36
420
  8866048
370
    -3
100
AcDbVertex
100
AcDb2dVertex
 10
183.230419572154
 20
-1408.733186821017
 30
0.0
  0
VERTEX
  5
249
330
20C
100
AcDbEntity
  8
Graypants_Drum18
 62
    36
420
  8866048
370
    -3
100
AcDbVertex
100
AcDb2dVertex
 10
183.2835616725741
 20
-1408.738791296764
 30
0.0
  0
VERTEX
  5
24A
330
20C
100
AcDbEntity
  8
Graypants_Drum18
 62
    36
420
  8866048
370
    -3
100
AcDbVertex
100
AcDb2dVertex
 10
183.3364497252533
 20
-1408.743110391938
 30
0.0
  0
VERTEX
  5
24B
330
20C
100
AcDbEntity
  8
Graypants_Drum18
 62
    36
420
  8866048
370
    -3
100
AcDbVertex
100
AcDb2dVertex
 10
183.3890525931519
 20
-1408.746166148621
 30
0.0
  0
VERTEX
  5
24C
330
20C
100
AcDbEntity
  8
Graypants_Drum18
 62
    36
420
  8866048
370
    -3
100
AcDbVertex
100
AcDb2dVertex
 10
183.4413403411978
 20
-1408.747981743151
 30
0.0
  0
VERTEX
  5
24D
330
20C
100
AcDbEntity
  8
Graypants_Drum18
 62
    36
420
  8866048
370
    -3
100
AcDbVertex
100
AcDb2dVertex
 10
183.4932842636535
 20
-1408.748581396652
 30
0.0
  0
SEQEND
  5
24E
330
20C
100
AcDbEntity
  8
Graypants_Drum18
 62
    36
420
  8866048
370
    -3
  0
LINE
  5
24F
330
1F
100
AcDbEntity
  8
Graypants_Drum18
 62
    36
420
  8866048
370
    -3
100
AcDbLine
 10
199.4305553274071
 20
-1408.748581396652
 30
0.0
 11
197.9305553403497
 21
-1408.748581396652
 31
0.0
  0
ARC
  5
250
330
1F
100
AcDbEntity
  8
Graypants_Drum18
 62
    36
420
  8866048
370
    -3
100
AcDbCircle
 10
-141.7209792866016
 20
-1412.776419968516
 30
0.0
 40
39.7496293406186
210
0.0
220
0.0
230
-1.0
100
AcDbArc
 50
168.3314306710038
 51
170.6372168787756
  0
LINE
  5
251
330
1F
100
AcDbEntity
  8
Graypants_Drum18
 62
    36
420
  8866048
370
    -3
100
AcDbLine
 10
183.4932842636535
 20
-1408.748581396652
 30
0.0
 11
197.9305553403497
 21
-1408.748581396652
 31
0.0
  0
LINE
  5
252
330
1F
100
AcDbEntity
  8
Graypants_Drum18
 62
    36
420
  8866048
370
    -3
100
AcDbLine
 10
234.9947081899973
 20
-1191.73705370221
 30
0.0
 11
234.9947081899973
 21
-1404.73705370221
 31
0.0
  0
LINE
  5
253
330
1F
100
AcDbEntity
  8
Graypants_Drum18
 62
    36
420
  8866048
370
    -3
100
AcDbLine
 10
-233.4072081899997
 20
-1404.73705370221
 30
0.0
 11
-233.4072081899997
 21
-1191.73705370221
 31
0.0
  0
LINE
  5
254
330
1F
100
AcDbEntity
  8
Graypants_Drum18
 62
    36
420
  8866048
370
    -3
100
AcDbLine
 10
-233.4072081899997
 20
-1404.73705370221
 30
0.0
 11
234.9947081899973
 21
-1404.73705370221
 31
0.0
  0
LINE
  5
255
330
1F
100
AcDbEntity
  8
Graypants_Drum18
 62
    36
420
  8866048
370
    -3
100
AcDbLine
 10
-233.4072081899997
 20
-1191.73705370221
 30
0.0
 11
234.9947081899973
 21
-1191.73705370221
 31
0.0
  0
LINE
  5
256
330
1F
100
AcDbEntity
  8
Graypants_Drum18
 62
    36
420
  8866048
370
    -3
100
AcDbLine
 10
-1.587500000001455
 20
-1191.73705370221
 30
0.0
 11
-1.587500000001455
 21
-1173.686536299282
 31
0.0
  0
ARC
  5
257
330
1F
100
AcDbEntity
  8
Graypants_Drum18
 62
    36
420
  8866048
370
    -3
100
AcDbCircle
 10
-0.7937500904387207
 20
-1173.68653647856
 30
0.0
 40
2.381250175148609
210
0.0
220
0.0
230
-1.0
100
AcDbArc
 50
32.33013249196541
 51
153.0000139307679
  0
POLYLINE
  5
258
330
1F
100
AcDbEntity
  8
Graypants_Drum18
 62
    36
420
  8866048
370
    -3
100
AcDb2dPolyline
 66
     1
 10
0.0
 20
0.0
 30
0.0
  0
VERTEX
  5
259
330
258
100
AcDbEntity
  8
Graypants_Drum18
 62
    36
420
  8866048
370
    -3
100
AcDbVertex
100
AcDb2dVertex
 10
-1.587500000001455
 20
-1173.686536299282
 30
0.0
  0
VERTEX
  5
25A
330
258
100
AcDbEntity
  8
Graypants_Drum18
 62
    36
420
  8866048
370
    -3
100
AcDbVertex
100
AcDb2dVertex
 10
-1.554314729244537
 20
-1173.351742898044
 30
0.0
  0
VERTEX
  5
25B
330
258
100
AcDbEntity
  8
Graypants_Drum18
 62
    36
420
  8866048
370
    -3
100
AcDbVertex
100
AcDb2dVertex
 10
-1.54196702701484
 20
-1173.254034872925
 30
0.0
  0
VERTEX
  5
25C
330
258
100
AcDbEntity
  8
Graypants_Drum18
 62
    36
420
  8866048
370
    -3
100
AcDbVertex
100
AcDb2dVertex
 10
-1.532667020984047
 20
-1173.197063328845
 30
0.0
  0
VERTEX
  5
25D
330
258
100
AcDbEntity
  8
Graypants_Drum18
 62
    36
420
  8866048
370
    -3
100
AcDbVertex
100
AcDb2dVertex
 10
-1.521528165637537
 20
-1173.140481587569
 30
0.0
  0
VERTEX
  5
25E
330
258
100
AcDbEntity
  8
Graypants_Drum18
 62
    36
420
  8866048
370
    -3
100
AcDbVertex
100
AcDb2dVertex
 10
-1.508625982296349
 20
-1173.084304537905
 30
0.0
  0
VERTEX
  5
25F
330
258
100
AcDbEntity
  8
Graypants_Drum18
 62
    36
420
  8866048
370
    -3
100
AcDbVertex
100
AcDb2dVertex
 10
-1.49403599228152
 20
-1173.028547068664
 30
0.0
  0
VERTEX
  5
260
330
258
100
AcDbEntity
  8
Graypants_Drum18
 62
    36
420
  8866048
370
    -3
100
AcDbVertex
100
AcDb2dVertex
 10
-1.477833716914088
 20
-1172.973224068657
 30
0.0
  0
VERTEX
  5
261
330
258
100
AcDbEntity
  8
Graypants_Drum18
 62
    36
420
  8866048
370
    -3
100
AcDbVertex
100
AcDb2dVertex
 10
-1.460094677515089
 20
-1172.918350426692
 30
0.0
  0
VERTEX
  5
262
330
258
100
AcDbEntity
  8
Graypants_Drum18
 62
    36
420
  8866048
370
    -3
100
AcDbVertex
100
AcDb2dVertex
 10
-1.440894395405562
 20
-1172.863941031579
 30
0.0
  0
VERTEX
  5
263
330
258
100
AcDbEntity
  8
Graypants_Drum18
 62
    36
420
  8866048
370
    -3
100
AcDbVertex
100
AcDb2dVertex
 10
-1.420308391906545
 20
-1172.810010772128
 30
0.0
  0
VERTEX
  5
264
330
258
100
AcDbEntity
  8
Graypants_Drum18
 62
    36
420
  8866048
370
    -3
100
AcDbVertex
100
AcDb2dVertex
 10
-1.40022216242518
 20
-1172.760880902315
 30
0.0
  0
VERTEX
  5
265
330
258
100
AcDbEntity
  8
Graypants_Drum18
 62
    36
420
  8866048
370
    -3
100
AcDbVertex
100
AcDb2dVertex
 10
-1.379067825082176
 20
-1172.712259744177
 30
0.0
  0
VERTEX
  5
266
330
258
100
AcDbEntity
  8
Graypants_Drum18
 62
    36
420
  8866048
370
    -3
100
AcDbVertex
100
AcDb2dVertex
 10
-1.356856111557833
 20
-1172.664163713386
 30
0.0
  0
VERTEX
  5
267
330
258
100
AcDbEntity
  8
Graypants_Drum18
 62
    36
420
  8866048
370
    -3
100
AcDbVertex
100
AcDb2dVertex
 10
-1.333597753532453
 20
-1172.616609225615
 30
0.0
  0
VERTEX
  5
268
330
258
100
AcDbEntity
  8
Graypants_Drum18
 62
    36
420
  8866048
370
    -3
100
AcDbVertex
100
AcDb2dVertex
 10
-1.309303482686337
 20
-1172.569612696535
 30
0.0
  0
VERTEX
  5
269
330
258
100
AcDbEntity
  8
Graypants_Drum18
 62
    36
420
  8866048
370
    -3
100
AcDbVertex
100
AcDb2dVertex
 10
-1.283984030699785
 20
-1172.523190541819
 30
0.0
  0
VERTEX
  5
26A
330
258
100
AcDbEntity
  8
Graypants_Drum18
 62
    36
420
  8866048
370
    -3
100
AcDbVertex
100
AcDb2dVertex
 10
-1.257650129253099
 20
-1172.47735917714
 30
0.0
  0
VERTEX
  5
26B
330
258
100
AcDbEntity
  8
Graypants_Drum18
 62
    36
420
  8866048
370
    -3
100
AcDbVertex
100
AcDb2dVertex
 10
-1.230312510026579
 20
-1172.432135018168
 30
0.0
  0
SEQEND
  5
26C
330
258
100
AcDbEntity
  8
Graypants_Drum18
 62
    36
420
  8866048
370
    -3
  0
LINE
  5
26D
330
1F
100
AcDbEntity
  8
Graypants_Drum18
 62
    36
420
  8866048
370
    -3
100
AcDbLine
 10
3.174999999998363
 20
-1173.686536299282
 30
0.0
 11
3.174999999998364
 21
-1191.73705370221
 31
0.0
  0
LINE
  5
26E
330
1F
100
AcDbEntity
  8
Graypants_Drum18
 62
    36
420
  8866048
370
    -3
100
AcDbLine
 10
-5.556250000001455
 20
-1186.84858139665
 30
0.0
 11
-1.58750000000154
 21
-1186.84858139665
 31
0.0
  0
LINE
  5
26F
330
1F
100
AcDbEntity
  8
Graypants_Drum18
 62
    36
420
  8866048
370
    -3
100
AcDbLine
 10
3.174999999998479
 20
-1186.84858139665
 30
0.0
 11
7.143749999998363
 21
-1186.84858139665
 31
0.0
  0
LINE
  5
270
330
1F
100
AcDbEntity
  8
Graypants_Drum18
 62
    36
420
  8866048
370
    -3
100
AcDbLine
 10
-181.9057843234393
 20
-1408.74858139665
 30
0.0
 11
-196.3430554047832
 21
-1408.74858139665
 31
0.0
  0
LINE
  5
271
330
1F
100
AcDbEntity
  8
Graypants_Drum18
 62
    36
420
  8866048
370
    -3
100
AcDbLine
 10
0.79399999999805
 20
-474.3579156152032
 30
0.0
 11
0.7938701211173793
 21
-1158.97757596339
 31
0.0
  0
ARC
  5
272
330
1F
100
AcDbEntity
  8
Graypants_Drum18
 62
    36
420
  8866048
370
    -3
100
AcDbCircle
 10
12.70020581208393
 20
-1165.323770206001
 30
0.0
 40
13.49409157992039
210
0.0
220
0.0
230
-1.0
100
AcDbArc
 50
180.2567582972125
 51
211.7881984384049
  0
ARC
  5
273
330
1F
100
AcDbEntity
  8
Graypants_Drum18
 62
    36
420
  8866048
370
    -3
100
AcDbCircle
 10
-14.28750008006788
 20
-1165.323861414188
 30
0.0
 40
13.49386831912213
210
0.0
220
0.0
230
-1.0
100
AcDbArc
 50
328.2116705766277
 51
0.0000011936362379
  0
LINE
  5
274
330
1F
100
AcDbEntity
  8
Graypants_Drum18
 62
    36
420
  8866048
370
    -3
100
AcDbLine
 10
-1.587500000002666
 20
-1158.97757596339
 30
0.0
 11
-0.0000000000022737
 21
-1158.97757596339
 31
0.0
  0
LINE
  5
275
330
1F
100
AcDbEntity
  8
Graypants_Drum18
 62
    36
420
  8866048
370
    -3
100
AcDbLine
 10
-1.587500000002666
 20
-1165.32757596339
 30
0.0
 11
-0.0000000000022737
 21
-1165.32757596339
 31
0.0
  0
LINE
  5
276
330
1F
100
AcDbEntity
  8
Graypants_Drum18
 62
    36
420
  8866048
370
    -3
100
AcDbLine
 10
1.587499576359733
 20
-1158.97757596339
 30
0.0
 11
3.174999999997906
 21
-1158.97757596339
 31
0.0
  0
LINE
  5
277
330
1F
100
AcDbEntity
  8
Graypants_Drum18
 62
    36
420
  8866048
370
    -3
100
AcDbLine
 10
1.587499576359733
 20
-1165.32757596339
 30
0.0
 11
3.174999999997906
 21
-1165.32757596339
 31
0.0
  0
LINE
  5
278
330
1F
100
AcDbEntity
  8
Graypants_Drum18
 62
    36
420
  8866048
370
    -3
100
AcDbLine
 10
-0.0000000000022737
 20
-1158.97757596339
 30
0.0
 11
1.587499576359733
 21
-1158.97757596339
 31
0.0
  0
LINE
  5
279
330
1F
100
AcDbEntity
  8
Graypants_Drum18
 62
    36
420
  8866048
370
    -3
100
AcDbLine
 10
-0.0000000000022737
 20
-1165.32757596339
 30
0.0
 11
1.587499576359733
 21
-1165.32757596339
 31
0.0
  0
LINE
  5
27A
330
1F
100
AcDbEntity
  8
Graypants_Drum18
 62
    36
420
  8866048
370
    -3
100
AcDbLine
 10
3.056020442335011
 20
-1172.943948746181
 30
0.0
 11
2.915265161160278
 21
-1172.60504540798
 31
0.0
  0
ARC
  5
27B
330
1F
100
AcDbEntity
  8
Graypants_Drum18
 62
    36
420
  8866048
370
    -3
100
AcDbCircle
 10
-0.1375754553619938
 20
-1173.790295902363
 30
0.0
 40
3.0391962621049
210
0.0
220
0.0
230
-1.0
100
AcDbArc
 50
164.1122248161976
 51
178.0435146930264
  0
ARC
  5
27C
330
1F
100
AcDbEntity
  8
Graypants_Drum18
 62
    36
420
  8866048
370
    -3
100
AcDbCircle
 10
0.7941942559856165
 20
-1173.686822175341
 30
0.0
 40
2.381533442698955
100
AcDbArc
 50
162.1814480120829
 51
179.9931185929291
  0
ARC
  5
27D
330
1F
100
AcDbEntity
  8
Graypants_Drum18
 62
    36
420
  8866048
370
    -3
100
AcDbCircle
 10
0.7929091502335808
 20
-1173.686905121672
 30
0.0
 40
2.381935290493373
100
AcDbArc
 50
0.1050822593004747
 51
17.81149420478206
  0
ARC
  5
27E
330
1F
100
AcDbEntity
  8
Graypants_Drum18
 62
    36
420
  8866048
370
    -3
100
AcDbCircle
 10
0.793685325283397
 20
-1173.686568377549
 30
0.0
 40
2.381177985519821
100
AcDbArc
 50
206.999999999835
 51
207.0495288531907
  0
LINE
  5
27F
330
1F
100
AcDbEntity
  8
Graypants_Drum18
 62
    36
420
  8866048
370
    -3
100
AcDbLine
 10
-7.143750000001546
 20
-1191.734497855725
 30
0.0
 11
-7.143750000001546
 21
-1188.43608139665
 31
0.0
  0
ARC
  5
280
330
1F
100
AcDbEntity
  8
Graypants_Drum18
 62
    36
420
  8866048
370
    -3
100
AcDbCircle
 10
-0.7966903575554928
 20
-1173.685697400777
 30
0.0
 40
3.970926771719034
210
0.0
220
0.0
230
-1.0
100
AcDbArc
 50
306.8993795086641
 51
31.75569272592712
  0
ARC
  5
281
330
1F
100
AcDbEntity
  8
Graypants_Drum18
 62
    36
420
  8866048
370
    -3
100
AcDbCircle
 10
5.55625000000191
 20
-1188.436081396649
 30
0.0
 40
1.587499999999636
210
0.0
220
0.0
230
-1.0
100
AcDbArc
 50
359.9999999999754
 51
90.00000000001641
  0
ARC
  5
282
330
1F
100
AcDbEntity
  8
Graypants_Drum18
 62
    36
420
  8866048
370
    -3
100
AcDbCircle
 10
7.143749999998875
 20
-1188.43608139665
 30
0.0
 40
1.587499999999579
100
AcDbArc
 50
359.9999999999836
 51
90.00000000001846
  0
LINE
  5
283
330
1F
100
AcDbEntity
  8
Graypants_Drum18
 62
    36
420
  8866048
370
    -3
100
AcDbLine
 10
8.731249999998454
 20
-1188.43608139665
 30
0.0
 11
8.731249999998454
 21
-1191.73705370221
 31
0.0
  0
LINE
  5
284
330
1F
100
AcDbEntity
  8
Graypants_Drum18
 62
    36
420
  8866048
370
    -3
100
AcDbLine
 10
2.29374999999742
 20
-1404.733283783666
 30
0.0
 11
2.293749999997317
 21
-1406.309747826238
 31
0.0
  0
LINE
  5
285
330
1F
100
AcDbEntity
  8
Graypants_Drum18
 62
    36
420
  8866048
370
    -3
100
AcDbLine
 10
-0.7062500000027623
 20
-1404.73705370221
 30
0.0
 11
-0.706250000002683
 21
-1406.309747826238
 31
0.0
  0
ARC
  5
286
330
1F
100
AcDbEntity
  8
Graypants_Drum18
 62
    36
420
  8866048
370
    -3
100
AcDbCircle
 10
-140.1336397001783
 20
-1412.776391331621
 30
0.0
 40
39.74946646344782
100
AcDbArc
 50
168.3288201201677
 51
170.6372200039086
  0
ARC
  5
287
330
1F
100
AcDbEntity
  8
Graypants_Drum18
 62
    36
420
  8866048
370
    -3
100
AcDbCircle
 10
14.28751320988622
 20
-1165.323854975411
 30
0.0
 40
11.90614607300609
100
AcDbArc
 50
180.0179064584778
 51
211.7883223171723
  0
LINE
  5
288
330
1F
100
AcDbEntity
  8
Graypants_Drum18
 62
    36
420
  8866048
370
    -3
100
AcDbLine
 10
2.293749999997317
 20
-1406.309747826238
 30
0.0
 11
2.293749999997317
 21
-1408.748581396651
 31
0.0
  0
LINE
  5
289
330
1F
100
AcDbEntity
  8
Graypants_Drum18
 62
    36
420
  8866048
370
    -3
100
AcDbLine
 10
-0.706250000002683
 20
-1406.309747826238
 30
0.0
 11
-0.706250000002683
 21
-1408.748581396651
 31
0.0
  0
LINE
  5
28A
330
1F
100
AcDbEntity
  8
Graypants_Drum18
 62
    36
420
  8866048
370
    -3
100
AcDbLine
 10
2.293749999997317
 20
-1408.748581396651
 30
0.0
 11
-0.706250000002683
 21
-1408.748581396651
 31
0.0
  0
LINE
  5
28B
330
1F
100
AcDbEntity
  8
Graypants_Drum18
 62
    36
420
  8866048
370
    -3
100
AcDbLine
 10
-196.3430554047832
 20
-1408.74858139665
 30
0.0
 11
-197.8430553903922
 21
-1408.74858139665
 31
0.0
  0
POLYLINE
  5
28C
330
1F
100
AcDbEntity
  8
Graypants_Drum18
 62
    36
420
  8866048
370
    -3
100
AcDb2dPolyline
 66
     1
 10
0.0
 20
0.0
 30
0.0
  0
VERTEX
  5
28D
330
28C
100
AcDbEntity
  8
Graypants_Drum18
 62
    36
420
  8866048
370
    -3
100
AcDbVertex
100
AcDb2dVertex
 10
-179.3535658334977
 20
-1406.309747826237
 30
0.0
  0
VERTEX
  5
28E
330
28C
100
AcDbEntity
  8
Graypants_Drum18
 62
    36
420
  8866048
370
    -3
100
AcDbVertex
100
AcDb2dVertex
 10
-179.3637923775859
 20
-1406.368556652666
 30
0.0
  0
VERTEX
  5
28F
330
28C
100
AcDbEntity
  8
Graypants_Drum18
 62
    36
420
  8866048
370
    -3
100
AcDbVertex
100
AcDb2dVertex
 10
-179.3751176851934
 20
-1406.427528038677
 30
0.0
  0
VERTEX
  5
290
330
28C
100
AcDbEntity
  8
Graypants_Drum18
 62
    36
420
  8866048
370
    -3
100
AcDbVertex
100
AcDb2dVertex
 10
-179.3875569926204
 20
-1406.486624892103
 30
0.0
  0
VERTEX
  5
291
330
28C
100
AcDbEntity
  8
Graypants_Drum18
 62
    36
420
  8866048
370
    -3
100
AcDbVertex
100
AcDb2dVertex
 10
-179.4011244173749
 20
-1406.545808921752
 30
0.0
  0
VERTEX
  5
292
330
28C
100
AcDbEntity
  8
Graypants_Drum18
 62
    36
420
  8866048
370
    -3
100
AcDbVertex
100
AcDb2dVertex
 10
-179.4158328871718
 20
-1406.605040685188
 30
0.0
  0
VERTEX
  5
293
330
28C
100
AcDbEntity
  8
Graypants_Drum18
 62
    36
420
  8866048
370
    -3
100
AcDbVertex
100
AcDb2dVertex
 10
-179.4316940702139
 20
-1406.664279642474
 30
0.0
  0
VERTEX
  5
294
330
28C
100
AcDbEntity
  8
Graypants_Drum18
 62
    36
420
  8866048
370
    -3
100
AcDbVertex
100
AcDb2dVertex
 10
-179.448718307157
 20
-1406.723484215911
 30
0.0
  0
VERTEX
  5
295
330
28C
100
AcDbEntity
  8
Graypants_Drum18
 62
    36
420
  8866048
370
    -3
100
AcDbVertex
100
AcDb2dVertex
 10
-179.4669145451757
 20
-1406.782611855727
 30
0.0
  0
VERTEX
  5
296
330
28C
100
AcDbEntity
  8
Graypants_Drum18
 62
    36
420
  8866048
370
    -3
100
AcDbVertex
100
AcDb2dVertex
 10
-179.4862902745471
 20
-1406.841619111659
 30
0.0
  0
VERTEX
  5
297
330
28C
100
AcDbEntity
  8
Graypants_Drum18
 62
    36
420
  8866048
370
    -3
100
AcDbVertex
100
AcDb2dVertex
 10
-179.5068514681822
 20
-1406.900461710331
 30
0.0
  0
VERTEX
  5
298
330
28C
100
AcDbEntity
  8
Graypants_Drum18
 62
    36
420
  8866048
370
    -3
100
AcDbVertex
100
AcDb2dVertex
 10
-179.5286025245269
 20
-1406.959094638252
 30
0.0
  0
VERTEX
  5
299
330
28C
100
AcDbEntity
  8
Graypants_Drum18
 62
    36
420
  8866048
370
    -3
100
AcDbVertex
100
AcDb2dVertex
 10
-179.5515462142571
 20
-1407.017472230269
 30
0.0
  0
VERTEX
  5
29A
330
28C
100
AcDbEntity
  8
Graypants_Drum18
 62
    36
420
  8866048
370
    -3
100
AcDbVertex
100
AcDb2dVertex
 10
-179.5756836311844
 20
-1407.075548263198
 30
0.0
  0
VERTEX
  5
29B
330
28C
100
AcDbEntity
  8
Graypants_Drum18
 62
    36
420
  8866048
370
    -3
100
AcDbVertex
100
AcDb2dVertex
 10
-179.6010141477754
 20
-1407.133276054377
 30
0.0
  0
VERTEX
  5
29C
330
28C
100
AcDbEntity
  8
Graypants_Drum18
 62
    36
420
  8866048
370
    -3
100
AcDbVertex
100
AcDb2dVertex
 10
-179.6275353756768
 20
-1407.190608564782
 30
0.0
  0
VERTEX
  5
29D
330
28C
100
AcDbEntity
  8
Graypants_Drum18
 62
    36
420
  8866048
370
    -3
100
AcDbVertex
100
AcDb2dVertex
 10
-179.6552431316155
 20
-1407.247498506347
 30
0.0
  0
VERTEX
  5
29E
330
28C
100
AcDbEntity
  8
Graypants_Drum18
 62
    36
420
  8866048
370
    -3
100
AcDbVertex
100
AcDb2dVertex
 10
-179.6841314090229
 20
-1407.303898453047
 30
0.0
  0
VERTEX
  5
29F
330
28C
100
AcDbEntity
  8
Graypants_Drum18
 62
    36
420
  8866048
370
    -3
100
AcDbVertex
100
AcDb2dVertex
 10
-179.7141923557031
 20
-1407.359760955309
 30
0.0
  0
VERTEX
  5
2A0
330
28C
100
AcDbEntity
  8
Graypants_Drum18
 62
    36
420
  8866048
370
    -3
100
AcDbVertex
100
AcDb2dVertex
 10
-179.7454162578344
 20
-1407.415038657216
 30
0.0
  0
VERTEX
  5
2A1
330
28C
100
AcDbEntity
  8
Graypants_Drum18
 62
    36
420
  8866048
370
    -3
100
AcDbVertex
100
AcDb2dVertex
 10
-179.7777915305595
 20
-1407.469684416003
 30
0.0
  0
VERTEX
  5
2A2
330
28C
100
AcDbEntity
  8
Graypants_Drum18
 62
    36
420
  8866048
370
    -3
100
AcDbVertex
100
AcDb2dVertex
 10
-179.8113047153791
 20
-1407.523651423243
 30
0.0
  0
VERTEX
  5
2A3
330
28C
100
AcDbEntity
  8
Graypants_Drum18
 62
    36
420
  8866048
370
    -3
100
AcDbVertex
100
AcDb2dVertex
 10
-179.8459404845248
 20
-1407.576893327158
 30
0.0
  0
VERTEX
  5
2A4
330
28C
100
AcDbEntity
  8
Graypants_Drum18
 62
    36
420
  8866048
370
    -3
100
AcDbVertex
100
AcDb2dVertex
 10
-179.8816816524405
 20
-1407.629364355408
 30
0.0
  0
VERTEX
  5
2A5
330
28C
100
AcDbEntity
  8
Graypants_Drum18
 62
    36
420
  8866048
370
    -3
100
AcDbVertex
100
AcDb2dVertex
 10
-179.9185091944561
 20
-1407.68101943774
 30
0.0
  0
VERTEX
  5
2A6
330
28C
100
AcDbEntity
  8
Graypants_Drum18
 62
    36
420
  8866048
370
    -3
100
AcDbVertex
100
AcDb2dVertex
 10
-179.9564022726869
 20
-1407.731814327839
 30
0.0
  0
VERTEX
  5
2A7
330
28C
100
AcDbEntity
  8
Graypants_Drum18
 62
    36
420
  8866048
370
    -3
100
AcDbVertex
100
AcDb2dVertex
 10
-179.9953382691438
 20
-1407.781705723714
 30
0.0
  0
VERTEX
  5
2A8
330
28C
100
AcDbEntity
  8
Graypants_Drum18
 62
    36
420
  8866048
370
    -3
100
AcDbVertex
100
AcDb2dVertex
 10
-180.0352928259867
 20
-1407.830651385977
 30
0.0
  0
VERTEX
  5
2A9
330
28C
100
AcDbEntity
  8
Graypants_Drum18
 62
    36
420
  8866048
370
    -3
100
AcDbVertex
100
AcDb2dVertex
 10
-180.0762398928019
 20
-1407.878610253336
 30
0.0
  0
VERTEX
  5
2AA
330
28C
100
AcDbEntity
  8
Graypants_Drum18
 62
    36
420
  8866048
370
    -3
100
AcDbVertex
100
AcDb2dVertex
 10
-180.1181517807332
 20
-1407.925542554687
 30
0.0
  0
VERTEX
  5
2AB
330
28C
100
AcDbEntity
  8
Graypants_Drum18
 62
    36
420
  8866048
370
    -3
100
AcDbVertex
100
AcDb2dVertex
 10
-180.1609992232466
 20
-1407.971409917138
 30
0.0
  0
VERTEX
  5
2AC
330
28C
100
AcDbEntity
  8
Graypants_Drum18
 62
    36
420
  8866048
370
    -3
100
AcDbVertex
100
AcDb2dVertex
 10
-180.2047514432572
 20
-1408.016175469392
 30
0.0
  0
VERTEX
  5
2AD
330
28C
100
AcDbEntity
  8
Graypants_Drum18
 62
    36
420
  8866048
370
    -3
100
AcDbVertex
100
AcDb2dVertex
 10
-180.2493762263008
 20
-1408.059803939891
 30
0.0
  0
VERTEX
  5
2AE
330
28C
100
AcDbEntity
  8
Graypants_Drum18
 62
    36
420
  8866048
370
    -3
100
AcDbVertex
100
AcDb2dVertex
 10
-180.2948399993894
 20
-1408.10226174918
 30
0.0
  0
VERTEX
  5
2AF
330
28C
100
AcDbEntity
  8
Graypants_Drum18
 62
    36
420
  8866048
370
    -3
100
AcDbVertex
100
AcDb2dVertex
 10
-180.3411079151441
 20
-1408.143517095992
 30
0.0
  0
VERTEX
  5
2B0
330
28C
100
AcDbEntity
  8
Graypants_Drum18
 62
    36
420
  8866048
370
    -3
100
AcDbVertex
100
AcDb2dVertex
 10
-180.3881439407656
 20
-1408.183540036576
 30
0.0
  0
VERTEX
  5
2B1
330
28C
100
AcDbEntity
  8
Graypants_Drum18
 62
    36
420
  8866048
370
    -3
100
AcDbVertex
100
AcDb2dVertex
 10
-180.4359109513626
 20
-1408.222302556868
 30
0.0
  0
VERTEX
  5
2B2
330
28C
100
AcDbEntity
  8
Graypants_Drum18
 62
    36
420
  8866048
370
    -3
100
AcDbVertex
100
AcDb2dVertex
 10
-180.4843708271356
 20
-1408.259778637132
 30
0.0
  0
VERTEX
  5
2B3
330
28C
100
AcDbEntity
  8
Graypants_Drum18
 62
    36
420
  8866048
370
    -3
100
AcDbVertex
100
AcDb2dVertex
 10
-180.5334845538812
 20
-1408.295944308767
 30
0.0
  0
VERTEX
  5
2B4
330
28C
100
AcDbEntity
  8
Graypants_Drum18
 62
    36
420
  8866048
370
    -3
100
AcDbVertex
100
AcDb2dVertex
 10
-180.5832123262666
 20
-1408.330777703024
 30
0.0
  0
VERTEX
  5
2B5
330
28C
100
AcDbEntity
  8
Graypants_Drum18
 62
    36
420
  8866048
370
    -3
100
AcDbVertex
100
AcDb2dVertex
 10
-180.6335136533071
 20
-1408.364259091443
 30
0.0
  0
VERTEX
  5
2B6
330
28C
100
AcDbEntity
  8
Graypants_Drum18
 62
    36
420
  8866048
370
    -3
100
AcDbVertex
100
AcDb2dVertex
 10
-180.6843474654709
 20
-1408.396370917878
 30
0.0
  0
VERTEX
  5
2B7
330
28C
100
AcDbEntity
  8
Graypants_Drum18
 62
    36
420
  8866048
370
    -3
100
AcDbVertex
100
AcDb2dVertex
 10
-180.7356722228286
 20
-1408.427097822028
 30
0.0
  0
VERTEX
  5
2B8
330
28C
100
AcDbEntity
  8
Graypants_Drum18
 62
    36
420
  8866048
370
    -3
100
AcDbVertex
100
AcDb2dVertex
 10
-180.7874460236678
 20
-1408.456426654481
 30
0.0
  0
VERTEX
  5
2B9
330
28C
100
AcDbEntity
  8
Graypants_Drum18
 62
    36
420
  8866048
370
    -3
100
AcDbVertex
100
AcDb2dVertex
 10
-180.8396267129993
 20
-1408.484346483294
 30
0.0
  0
VERTEX
  5
2BA
330
28C
100
AcDbEntity
  8
Graypants_Drum18
 62
    36
420
  8866048
370
    -3
100
AcDbVertex
100
AcDb2dVertex
 10
-180.8921719903907
 20
-1408.510848592238
 30
0.0
  0
VERTEX
  5
2BB
330
28C
100
AcDbEntity
  8
Graypants_Drum18
 62
    36
420
  8866048
370
    -3
100
AcDbVertex
100
AcDb2dVertex
 10
-180.9450395165798
 20
-1408.53592647085
 30
0.0
  0
VERTEX
  5
2BC
330
28C
100
AcDbEntity
  8
Graypants_Drum18
 62
    36
420
  8866048
370
    -3
100
AcDbVertex
100
AcDb2dVertex
 10
-180.9981870183416
 20
-1408.559575796515
 30
0.0
  0
VERTEX
  5
2BD
330
28C
100
AcDbEntity
  8
Graypants_Drum18
 62
    36
420
  8866048
370
    -3
100
AcDbVertex
100
AcDb2dVertex
 10
-181.0515723911053
 20
-1408.581794408839
 30
0.0
  0
VERTEX
  5
2BE
330
28C
100
AcDbEntity
  8
Graypants_Drum18
 62
    36
420
  8866048
370
    -3
100
AcDbVertex
100
AcDb2dVertex
 10
-181.1051537988467
 20
-1408.60258227663
 30
0.0
  0
VERTEX
  5
2BF
330
28C
100
AcDbEntity
  8
Graypants_Drum18
 62
    36
420
  8866048
370
    -3
100
AcDbVertex
100
AcDb2dVertex
 10
-181.1588897708139
 20
-1408.621941457817
 30
0.0
  0
VERTEX
  5
2C0
330
28C
100
AcDbEntity
  8
Graypants_Drum18
 62
    36
420
  8866048
370
    -3
100
AcDbVertex
100
AcDb2dVertex
 10
-181.2127392946756
 20
-1408.639876052724
 30
0.0
  0
VERTEX
  5
2C1
330
28C
100
AcDbEntity
  8
Graypants_Drum18
 62
    36
420
  8866048
370
    -3
100
AcDbVertex
100
AcDb2dVertex
 10
-181.2666619057224
 20
-1408.656392151104
 30
0.0
  0
VERTEX
  5
2C2
330
28C
100
AcDbEntity
  8
Graypants_Drum18
 62
    36
420
  8866048
370
    -3
100
AcDbVertex
100
AcDb2dVertex
 10
-181.3206177717858
 20
-1408.671497773381
 30
0.0
  0
VERTEX
  5
2C3
330
28C
100
AcDbEntity
  8
Graypants_Drum18
 62
    36
420
  8866048
370
    -3
100
AcDbVertex
100
AcDb2dVertex
 10
-181.3745677735821
 20
-1408.685202806585
 30
0.0
  0
VERTEX
  5
2C4
330
28C
100
AcDbEntity
  8
Graypants_Drum18
 62
    36
420
  8866048
370
    -3
100
AcDbVertex
100
AcDb2dVertex
 10
-181.4284735802305
 20
-1408.697518935466
 30
0.0
  0
VERTEX
  5
2C5
330
28C
100
AcDbEntity
  8
Graypants_Drum18
 62
    36
420
  8866048
370
    -3
100
AcDbVertex
100
AcDb2dVertex
 10
-181.4822977197317
 20
-1408.708459569285
 30
0.0
  0
VERTEX
  5
2C6
330
28C
100
AcDbEntity
  8
Graypants_Drum18
 62
    36
420
  8866048
370
    -3
100
AcDbVertex
100
AcDb2dVertex
 10
-181.53600364424
 20
-1408.718039764808
 30
0.0
  0
VERTEX
  5
2C7
330
28C
100
AcDbEntity
  8
Graypants_Drum18
 62
    36
420
  8866048
370
    -3
100
AcDbVertex
100
AcDb2dVertex
 10
-181.5895557899994
 20
-1408.726276146012
 30
0.0
  0
VERTEX
  5
2C8
330
28C
100
AcDbEntity
  8
Graypants_Drum18
 62
    36
420
  8866048
370
    -3
100
AcDbVertex
100
AcDb2dVertex
 10
-181.6429196318551
 20
-1408.733186821015
 30
0.0
  0
VERTEX
  5
2C9
330
28C
100
AcDbEntity
  8
Graypants_Drum18
 62
    36
420
  8866048
370
    -3
100
AcDbVertex
100
AcDb2dVertex
 10
-181.6960617322923
 20
-1408.738791296762
 30
0.0
  0
VERTEX
  5
2CA
330
28C
100
AcDbEntity
  8
Graypants_Drum18
 62
    36
420
  8866048
370
    -3
100
AcDbVertex
100
AcDb2dVertex
 10
-181.7489497849886
 20
-1408.743110391937
 30
0.0
  0
VERTEX
  5
2CB
330
28C
100
AcDbEntity
  8
Graypants_Drum18
 62
    36
420
  8866048
370
    -3
100
AcDbVertex
100
AcDb2dVertex
 10
-181.8015526529041
 20
-1408.746166148619
 30
0.0
  0
VERTEX
  5
2CC
330
28C
100
AcDbEntity
  8
Graypants_Drum18
 62
    36
420
  8866048
370
    -3
100
AcDbVertex
100
AcDb2dVertex
 10
-181.8538404009668
 20
-1408.74798174315
 30
0.0
  0
VERTEX
  5
2CD
330
28C
100
AcDbEntity
  8
Graypants_Drum18
 62
    36
420
  8866048
370
    -3
100
AcDbVertex
100
AcDb2dVertex
 10
-181.9057843234393
 20
-1408.74858139665
 30
0.0
  0
SEQEND
  5
2CE
330
28C
100
AcDbEntity
  8
Graypants_Drum18
 62
    36
420
  8866048
370
    -3
  0
LINE
  5
2CF
330
1F
100
AcDbEntity
  8
Graypants_Drum18
 62
    36
420
  8866048
370
    -3
100
AcDbLine
 10
-199.5751062035004
 20
-1406.74858139665
 30
0.0
 11
-199.5751062035004
 21
-1404.73705370221
 31
0.0
  0
LINE
  5
2D0
330
1F
100
AcDbEntity
  8
Graypants_Drum18
 62
    36
420
  8866048
370
    -3
100
AcDbLine
 10
-198.0751062178913
 20
-1406.74858139665
 30
0.0
 11
-198.0751062178913
 21
-1404.73705370221
 31
0.0
  0
POLYLINE
  5
2D1
330
1F
100
AcDbEntity
  8
Graypants_Drum18
 62
    36
420
  8866048
370
    -3
100
AcDb2dPolyline
 66
     1
 10
0.0
 20
0.0
 30
0.0
  0
VERTEX
  5
2D2
330
2D1
100
AcDbEntity
  8
Graypants_Drum18
 62
    36
420
  8866048
370
    -3
100
AcDbVertex
100
AcDb2dVertex
 10
-197.8430553903922
 20
-1408.74858139665
 30
0.0
  0
VERTEX
  5
2D3
330
2D1
100
AcDbEntity
  8
Graypants_Drum18
 62
    36
420
  8866048
370
    -3
100
AcDbVertex
100
AcDb2dVertex
 10
-197.8814998928322
 20
-1408.748088676038
 30
0.0
  0
VERTEX
  5
2D4
330
2D1
100
AcDbEntity
  8
Graypants_Drum18
 62
    36
420
  8866048
370
    -3
100
AcDbVertex
100
AcDb2dVertex
 10
-197.9202706385184
 20
-1408.746593010062
 30
0.0
  0
VERTEX
  5
2D5
330
2D1
100
AcDbEntity
  8
Graypants_Drum18
 62
    36
420
  8866048
370
    -3
100
AcDbVertex
100
AcDb2dVertex
 10
-197.9593422325173
 20
-1408.744068762495
 30
0.0
  0
VERTEX
  5
2D6
330
2D1
100
AcDbEntity
  8
Graypants_Drum18
 62
    36
420
  8866048
370
    -3
100
AcDbVertex
100
AcDb2dVertex
 10
-197.9986878426143
 20
-1408.740491213876
 30
0.0
  0
VERTEX
  5
2D7
330
2D1
100
AcDbEntity
  8
Graypants_Drum18
 62
    36
420
  8866048
370
    -3
100
AcDbVertex
100
AcDb2dVertex
 10
-198.0382792161341
 20
-1408.735836675708
 30
0.0
  0
VERTEX
  5
2D8
330
2D1
100
AcDbEntity
  8
Graypants_Drum18
 62
    36
420
  8866048
370
    -3
100
AcDbVertex
100
AcDb2dVertex
 10
-198.0780867040546
 20
-1408.730082605987
 30
0.0
  0
VERTEX
  5
2D9
330
2D1
100
AcDbEntity
  8
Graypants_Drum18
 62
    36
420
  8866048
370
    -3
100
AcDbVertex
100
AcDb2dVertex
 10
-198.118079292703
 20
-1408.723207725399
 30
0.0
  0
VERTEX
  5
2DA
330
2D1
100
AcDbEntity
  8
Graypants_Drum18
 62
    36
420
  8866048
370
    -3
100
AcDbVertex
100
AcDb2dVertex
 10
-198.1582246432783
 20
-1408.715192133484
 30
0.0
  0
VERTEX
  5
2DB
330
2D1
100
AcDbEntity
  8
Graypants_Drum18
 62
    36
420
  8866048
370
    -3
100
AcDbVertex
100
AcDb2dVertex
 10
-198.1984891393881
 20
-1408.706017424003
 30
0.0
  0
VERTEX
  5
2DC
330
2D1
100
AcDbEntity
  8
Graypants_Drum18
 62
    36
420
  8866048
370
    -3
100
AcDbVertex
100
AcDb2dVertex
 10
-198.2388379427377
 20
-1408.695666798736
 30
0.0
  0
VERTEX
  5
2DD
330
2D1
100
AcDbEntity
  8
Graypants_Drum18
 62
    36
420
  8866048
370
    -3
100
AcDbVertex
100
AcDb2dVertex
 10
-198.2792350570396
 20
-1408.684125178855
 30
0.0
  0
VERTEX
  5
2DE
330
2D1
100
AcDbEntity
  8
Graypants_Drum18
 62
    36
420
  8866048
370
    -3
100
AcDbVertex
100
AcDb2dVertex
 10
-198.3196434001485
 20
-1408.671379313025
 30
0.0
  0
VERTEX
  5
2DF
330
2D1
100
AcDbEntity
  8
Graypants_Drum18
 62
    36
420
  8866048
370
    -3
100
AcDbVertex
100
AcDb2dVertex
 10
-198.3600248843521
 20
-1408.657417881362
 30
0.0
  0
VERTEX
  5
2E0
330
2D1
100
AcDbEntity
  8
Graypants_Drum18
 62
    36
420
  8866048
370
    -3
100
AcDbVertex
100
AcDb2dVertex
 10
-198.400340504671
 20
-1408.642231594334
 30
0.0
  0
VERTEX
  5
2E1
330
2D1
100
AcDbEntity
  8
Graypants_Drum18
 62
    36
420
  8866048
370
    -3
100
AcDbVertex
100
AcDb2dVertex
 10
-198.4405504349438
 20
-1408.625813285725
 30
0.0
  0
VERTEX
  5
2E2
330
2D1
100
AcDbEntity
  8
Graypants_Drum18
 62
    36
420
  8866048
370
    -3
100
AcDbVertex
100
AcDb2dVertex
 10
-198.4806141313896
 20
-1408.608157998776
 30
0.0
  0
VERTEX
  5
2E3
330
2D1
100
AcDbEntity
  8
Graypants_Drum18
 62
    36
420
  8866048
370
    -3
100
AcDbVertex
100
AcDb2dVertex
 10
-198.5204904432579
 20
-1408.589263064615
 30
0.0
  0
VERTEX
  5
2E4
330
2D1
100
AcDbEntity
  8
Graypants_Drum18
 62
    36
420
  8866048
370
    -3
100
AcDbVertex
100
AcDb2dVertex
 10
-198.5601377300955
 20
-1408.569128172164
 30
0.0
  0
VERTEX
  5
2E5
330
2D1
100
AcDbEntity
  8
Graypants_Drum18
 62
    36
420
  8866048
370
    -3
100
AcDbVertex
100
AcDb2dVertex
 10
-198.5995139850745
 20
-1408.547755428697
 30
0.0
  0
VERTEX
  5
2E6
330
2D1
100
AcDbEntity
  8
Graypants_Drum18
 62
    36
420
  8866048
370
    -3
100
AcDbVertex
100
AcDb2dVertex
 10
-198.6385769637509
 20
-1408.52514941031
 30
0.0
  0
VERTEX
  5
2E7
330
2D1
100
AcDbEntity
  8
Graypants_Drum18
 62
    36
420
  8866048
370
    -3
100
AcDbVertex
100
AcDb2dVertex
 10
-198.6772843175467
 20
-1408.501317201633
 30
0.0
  0
VERTEX
  5
2E8
330
2D1
100
AcDbEntity
  8
Graypants_Drum18
 62
    36
420
  8866048
370
    -3
100
AcDbVertex
100
AcDb2dVertex
 10
-198.7155937311767
 20
-1408.476268424145
 30
0.0
  0
VERTEX
  5
2E9
330
2D1
100
AcDbEntity
  8
Graypants_Drum18
 62
    36
420
  8866048
370
    -3
100
AcDbVertex
100
AcDb2dVertex
 10
-198.7534630631839
 20
-1408.450015252598
 30
0.0
  0
VERTEX
  5
2EA
330
2D1
100
AcDbEntity
  8
Graypants_Drum18
 62
    36
420
  8866048
370
    -3
100
AcDbVertex
100
AcDb2dVertex
 10
-198.7908504886835
 20
-1408.422572419088
 30
0.0
  0
VERTEX
  5
2EB
330
2D1
100
AcDbEntity
  8
Graypants_Drum18
 62
    36
420
  8866048
370
    -3
100
AcDbVertex
100
AcDb2dVertex
 10
-198.8277146433765
 20
-1408.393957204468
 30
0.0
  0
VERTEX
  5
2EC
330
2D1
100
AcDbEntity
  8
Graypants_Drum18
 62
    36
420
  8866048
370
    -3
100
AcDbVertex
100
AcDb2dVertex
 10
-198.8640147678516
 20
-1408.364189416868
 30
0.0
  0
VERTEX
  5
2ED
330
2D1
100
AcDbEntity
  8
Graypants_Drum18
 62
    36
420
  8866048
370
    -3
100
AcDbVertex
100
AcDb2dVertex
 10
-198.8997108511717
 20
-1408.33329135722
 30
0.0
  0
VERTEX
  5
2EE
330
2D1
100
AcDbEntity
  8
Graypants_Drum18
 62
    36
420
  8866048
370
    -3
100
AcDbVertex
100
AcDb2dVertex
 10
-198.9347637727225
 20
-1408.3012877718
 30
0.0
  0
VERTEX
  5
2EF
330
2D1
100
AcDbEntity
  8
Graypants_Drum18
 62
    36
420
  8866048
370
    -3
100
AcDbVertex
100
AcDb2dVertex
 10
-198.9691354413023
 20
-1408.268205791933
 30
0.0
  0
VERTEX
  5
2F0
330
2D1
100
AcDbEntity
  8
Graypants_Drum18
 62
    36
420
  8866048
370
    -3
100
AcDbVertex
100
AcDb2dVertex
 10
-199.0027889304377
 20
-1408.234074861102
 30
0.0
  0
VERTEX
  5
2F1
330
2D1
100
AcDbEntity
  8
Graypants_Drum18
 62
    36
420
  8866048
370
    -3
100
AcDbVertex
100
AcDb2dVertex
 10
-199.0356886089337
 20
-1408.198926649859
 30
0.0
  0
VERTEX
  5
2F2
330
2D1
100
AcDbEntity
  8
Graypants_Drum18
 62
    36
420
  8866048
370
    -3
100
AcDbVertex
100
AcDb2dVertex
 10
-199.0678002657006
 20
-1408.162794959024
 30
0.0
  0
VERTEX
  5
2F3
330
2D1
100
AcDbEntity
  8
Graypants_Drum18
 62
    36
420
  8866048
370
    -3
100
AcDbVertex
100
AcDb2dVertex
 10
-199.099091227946
 20
-1408.125715611785
 30
0.0
  0
VERTEX
  5
2F4
330
2D1
100
AcDbEntity
  8
Graypants_Drum18
 62
    36
420
  8866048
370
    -3
100
AcDbVertex
100
AcDb2dVertex
 10
-199.1295304718772
 20
-1408.087726335435
 30
0.0
  0
VERTEX
  5
2F5
330
2D1
100
AcDbEntity
  8
Graypants_Drum18
 62
    36
420
  8866048
370
    -3
100
AcDbVertex
100
AcDb2dVertex
 10
-199.159088725126
 20
-1408.048866633536
 30
0.0
  0
VERTEX
  5
2F6
330
2D1
100
AcDbEntity
  8
Graypants_Drum18
 62
    36
420
  8866048
370
    -3
100
AcDbVertex
100
AcDb2dVertex
 10
-199.1877385601902
 20
-1408.009177649449
 30
0.0
  0
VERTEX
  5
2F7
330
2D1
100
AcDbEntity
  8
Graypants_Drum18
 62
    36
420
  8866048
370
    -3
100
AcDbVertex
100
AcDb2dVertex
 10
-199.2154544782647
 20
-1407.968702022192
 30
0.0
  0
VERTEX
  5
2F8
330
2D1
100
AcDbEntity
  8
Graypants_Drum18
 62
    36
420
  8866048
370
    -3
100
AcDbVertex
100
AcDb2dVertex
 10
-199.2422129829334
 20
-1407.927483735696
 30
0.0
  0
VERTEX
  5
2F9
330
2D1
100
AcDbEntity
  8
Graypants_Drum18
 62
    36
420
  8866048
370
    -3
100
AcDbVertex
100
AcDb2dVertex
 10
-199.2679926432916
 20
-1407.885567962555
 30
0.0
  0
VERTEX
  5
2FA
330
2D1
100
AcDbEntity
  8
Graypants_Drum18
 62
    36
420
  8866048
370
    -3
100
AcDbVertex
100
AcDb2dVertex
 10
-199.2927741461662
 20
-1407.843000903421
 30
0.0
  0
VERTEX
  5
2FB
330
2D1
100
AcDbEntity
  8
Graypants_Drum18
 62
    36
420
  8866048
370
    -3
100
AcDbVertex
100
AcDb2dVertex
 10
-199.316540337214
 20
-1407.799829623206
 30
0.0
  0
VERTEX
  5
2FC
330
2D1
100
AcDbEntity
  8
Graypants_Drum18
 62
    36
420
  8866048
370
    -3
100
AcDbVertex
100
AcDb2dVertex
 10
-199.3392762507765
 20
-1407.756101885289
 30
0.0
  0
VERTEX
  5
2FD
330
2D1
100
AcDbEntity
  8
Graypants_Drum18
 62
    36
420
  8866048
370
    -3
100
AcDbVertex
100
AcDb2dVertex
 10
-199.3609691284838
 20
-1407.711865984887
 30
0.0
  0
VERTEX
  5
2FE
330
2D1
100
AcDbEntity
  8
Graypants_Drum18
 62
    36
420
  8866048
370
    -3
100
AcDbVertex
100
AcDb2dVertex
 10
-199.3816084266926
 20
-1407.667170582763
 30
0.0
  0
VERTEX
  5
2FF
330
2D1
100
AcDbEntity
  8
Graypants_Drum18
 62
    36
420
  8866048
370
    -3
100
AcDbVertex
100
AcDb2dVertex
 10
-199.4011858129562
 20
-1407.622064540398
 30
0.0
  0
VERTEX
  5
300
330
2D1
100
AcDbEntity
  8
Graypants_Drum18
 62
    36
420
  8866048
370
    -3
100
AcDbVertex
100
AcDb2dVertex
 10
-199.4196951518069
 20
-1407.57659675772
 30
0.0
  0
VERTEX
  5
301
330
2D1
100
AcDbEntity
  8
Graypants_Drum18
 62
    36
420
  8866048
370
    -3
100
AcDbVertex
100
AcDb2dVertex
 10
-199.4371324802273
 20
-1407.53081601441
 30
0.0
  0
VERTEX
  5
302
330
2D1
100
AcDbEntity
  8
Graypants_Drum18
 62
    36
420
  8866048
370
    -3
100
AcDbVertex
100
AcDb2dVertex
 10
-199.4534959732658
 20
-1407.484770815775
 30
0.0
  0
VERTEX
  5
303
330
2D1
100
AcDbEntity
  8
Graypants_Drum18
 62
    36
420
  8866048
370
    -3
100
AcDbVertex
100
AcDb2dVertex
 10
-199.4687859003245
 20
-1407.438509244067
 30
0.0
  0
VERTEX
  5
304
330
2D1
100
AcDbEntity
  8
Graypants_Drum18
 62
    36
420
  8866048
370
    -3
100
AcDbVertex
100
AcDb2dVertex
 10
-199.4830045727121
 20
-1407.392078816081
 30
0.0
  0
VERTEX
  5
305
330
2D1
100
AcDbEntity
  8
Graypants_Drum18
 62
    36
420
  8866048
370
    -3
100
AcDbVertex
100
AcDb2dVertex
 10
-199.4961562831096
 20
-1407.345526347742
 30
0.0
  0
VERTEX
  5
306
330
2D1
100
AcDbEntity
  8
Graypants_Drum18
 62
    36
420
  8866048
370
    -3
100
AcDbVertex
100
AcDb2dVertex
 10
-199.5082472376413
 20
-1407.298897826341
 30
0.0
  0
VERTEX
  5
307
330
2D1
100
AcDbEntity
  8
Graypants_Drum18
 62
    36
420
  8866048
370
    -3
100
AcDbVertex
100
AcDb2dVertex
 10
-199.5192854812783
 20
-1407.252238290948
 30
0.0
  0
VERTEX
  5
308
330
2D1
100
AcDbEntity
  8
Graypants_Drum18
 62
    36
420
  8866048
370
    -3
100
AcDbVertex
100
AcDb2dVertex
 10
-199.5292808173288
 20
-1407.205591721463
 30
0.0
  0
VERTEX
  5
309
330
2D1
100
AcDbEntity
  8
Graypants_Drum18
 62
    36
420
  8866048
370
    -3
100
AcDbVertex
100
AcDb2dVertex
 10
-199.5382447217836
 20
-1407.159000936662
 30
0.0
  0
VERTEX
  5
30A
330
2D1
100
AcDbEntity
  8
Graypants_Drum18
 62
    36
420
  8866048
370
    -3
100
AcDbVertex
100
AcDb2dVertex
 10
-199.5461902532917
 20
-1407.112507501475
 30
0.0
  0
VERTEX
  5
30B
330
2D1
100
AcDbEntity
  8
Graypants_Drum18
 62
    36
420
  8866048
370
    -3
100
AcDbVertex
100
AcDb2dVertex
 10
-199.5531319595394
 20
-1407.0661516437
 30
0.0
  0
VERTEX
  5
30C
330
2D1
100
AcDbEntity
  8
Graypants_Drum18
 62
    36
420
  8866048
370
    -3
100
AcDbVertex
100
AcDb2dVertex
 10
-199.5590857807952
 20
-1407.019972180205
 30
0.0
  0
VERTEX
  5
30D
330
2D1
100
AcDbEntity
  8
Graypants_Drum18
 62
    36
420
  8866048
370
    -3
100
AcDbVertex
100
AcDb2dVertex
 10
-199.5640689513647
 20
-1406.974006452618
 30
0.0
  0
VERTEX
  5
30E
330
2D1
100
AcDbEntity
  8
Graypants_Drum18
 62
    36
420
  8866048
370
    -3
100
AcDbVertex
100
AcDb2dVertex
 10
-199.5680998996742
 20
-1406.928290272446
 30
0.0
  0
VERTEX
  5
30F
330
2D1
100
AcDbEntity
  8
Graypants_Drum18
 62
    36
420
  8866048
370
    -3
100
AcDbVertex
100
AcDb2dVertex
 10
-199.5711981476716
 20
-1406.882857875429
 30
0.0
  0
VERTEX
  5
310
330
2D1
100
AcDbEntity
  8
Graypants_Drum18
 62
    36
420
  8866048
370
    -3
100
AcDbVertex
100
AcDb2dVertex
 10
-199.5733842101965
 20
-1406.837741884948
 30
0.0
  0
VERTEX
  5
311
330
2D1
100
AcDbEntity
  8
Graypants_Drum18
 62
    36
420
  8866048
370
    -3
100
AcDbVertex
100
AcDb2dVertex
 10
-199.5746794949313
 20
-1406.792973284174
 30
0.0
  0
VERTEX
  5
312
330
2D1
100
AcDbEntity
  8
Graypants_Drum18
 62
    36
420
  8866048
370
    -3
100
AcDbVertex
100
AcDb2dVertex
 10
-199.5751062035004
 20
-1406.74858139665
 30
0.0
  0
SEQEND
  5
313
330
2D1
100
AcDbEntity
  8
Graypants_Drum18
 62
    36
420
  8866048
370
    -3
  0
POLYLINE
  5
314
330
1F
100
AcDbEntity
  8
Graypants_Drum18
 62
    36
420
  8866048
370
    -3
100
AcDb2dPolyline
 66
     1
 10
0.0
 20
0.0
 30
0.0
  0
VERTEX
  5
315
330
314
100
AcDbEntity
  8
Graypants_Drum18
 62
    36
420
  8866048
370
    -3
100
AcDbVertex
100
AcDb2dVertex
 10
-196.3430554047832
 20
-1408.74858139665
 30
0.0
  0
VERTEX
  5
316
330
314
100
AcDbEntity
  8
Graypants_Drum18
 62
    36
420
  8866048
370
    -3
100
AcDbVertex
100
AcDb2dVertex
 10
-196.3814999072231
 20
-1408.748088676038
 30
0.0
  0
VERTEX
  5
317
330
314
100
AcDbEntity
  8
Graypants_Drum18
 62
    36
420
  8866048
370
    -3
100
AcDbVertex
100
AcDb2dVertex
 10
-196.4202706529094
 20
-1408.746593010062
 30
0.0
  0
VERTEX
  5
318
330
314
100
AcDbEntity
  8
Graypants_Drum18
 62
    36
420
  8866048
370
    -3
100
AcDbVertex
100
AcDb2dVertex
 10
-196.4593422469082
 20
-1408.744068762495
 30
0.0
  0
VERTEX
  5
319
330
314
100
AcDbEntity
  8
Graypants_Drum18
 62
    36
420
  8866048
370
    -3
100
AcDbVertex
100
AcDb2dVertex
 10
-196.4986878570052
 20
-1408.740491213876
 30
0.0
  0
VERTEX
  5
31A
330
314
100
AcDbEntity
  8
Graypants_Drum18
 62
    36
420
  8866048
370
    -3
100
AcDbVertex
100
AcDb2dVertex
 10
-196.5382792305251
 20
-1408.735836675708
 30
0.0
  0
VERTEX
  5
31B
330
314
100
AcDbEntity
  8
Graypants_Drum18
 62
    36
420
  8866048
370
    -3
100
AcDbVertex
100
AcDb2dVertex
 10
-196.5780867184455
 20
-1408.730082605987
 30
0.0
  0
VERTEX
  5
31C
330
314
100
AcDbEntity
  8
Graypants_Drum18
 62
    36
420
  8866048
370
    -3
100
AcDbVertex
100
AcDb2dVertex
 10
-196.618079307094
 20
-1408.723207725399
 30
0.0
  0
VERTEX
  5
31D
330
314
100
AcDbEntity
  8
Graypants_Drum18
 62
    36
420
  8866048
370
    -3
100
AcDbVertex
100
AcDb2dVertex
 10
-196.6582246576692
 20
-1408.715192133484
 30
0.0
  0
VERTEX
  5
31E
330
314
100
AcDbEntity
  8
Graypants_Drum18
 62
    36
420
  8866048
370
    -3
100
AcDbVertex
100
AcDb2dVertex
 10
-196.698489153779
 20
-1408.706017424003
 30
0.0
  0
VERTEX
  5
31F
330
314
100
AcDbEntity
  8
Graypants_Drum18
 62
    36
420
  8866048
370
    -3
100
AcDbVertex
100
AcDb2dVertex
 10
-196.7388379571286
 20
-1408.695666798736
 30
0.0
  0
VERTEX
  5
320
330
314
100
AcDbEntity
  8
Graypants_Drum18
 62
    36
420
  8866048
370
    -3
100
AcDbVertex
100
AcDb2dVertex
 10
-196.7792350714305
 20
-1408.684125178855
 30
0.0
  0
VERTEX
  5
321
330
314
100
AcDbEntity
  8
Graypants_Drum18
 62
    36
420
  8866048
370
    -3
100
AcDbVertex
100
AcDb2dVertex
 10
-196.8196434145394
 20
-1408.671379313025
 30
0.0
  0
VERTEX
  5
322
330
314
100
AcDbEntity
  8
Graypants_Drum18
 62
    36
420
  8866048
370
    -3
100
AcDbVertex
100
AcDb2dVertex
 10
-196.860024898743
 20
-1408.657417881362
 30
0.0
  0
VERTEX
  5
323
330
314
100
AcDbEntity
  8
Graypants_Drum18
 62
    36
420
  8866048
370
    -3
100
AcDbVertex
100
AcDb2dVertex
 10
-196.900340519062
 20
-1408.642231594334
 30
0.0
  0
VERTEX
  5
324
330
314
100
AcDbEntity
  8
Graypants_Drum18
 62
    36
420
  8866048
370
    -3
100
AcDbVertex
100
AcDb2dVertex
 10
-196.9405504493348
 20
-1408.625813285725
 30
0.0
  0
VERTEX
  5
325
330
314
100
AcDbEntity
  8
Graypants_Drum18
 62
    36
420
  8866048
370
    -3
100
AcDbVertex
100
AcDb2dVertex
 10
-196.9806141457805
 20
-1408.608157998776
 30
0.0
  0
VERTEX
  5
326
330
314
100
AcDbEntity
  8
Graypants_Drum18
 62
    36
420
  8866048
370
    -3
100
AcDbVertex
100
AcDb2dVertex
 10
-197.0204904576489
 20
-1408.589263064615
 30
0.0
  0
VERTEX
  5
327
330
314
100
AcDbEntity
  8
Graypants_Drum18
 62
    36
420
  8866048
370
    -3
100
AcDbVertex
100
AcDb2dVertex
 10
-197.0601377444865
 20
-1408.569128172164
 30
0.0
  0
VERTEX
  5
328
330
314
100
AcDbEntity
  8
Graypants_Drum18
 62
    36
420
  8866048
370
    -3
100
AcDbVertex
100
AcDb2dVertex
 10
-197.0995139994655
 20
-1408.547755428697
 30
0.0
  0
VERTEX
  5
329
330
314
100
AcDbEntity
  8
Graypants_Drum18
 62
    36
420
  8866048
370
    -3
100
AcDbVertex
100
AcDb2dVertex
 10
-197.1385769781419
 20
-1408.52514941031
 30
0.0
  0
VERTEX
  5
32A
330
314
100
AcDbEntity
  8
Graypants_Drum18
 62
    36
420
  8866048
370
    -3
100
AcDbVertex
100
AcDb2dVertex
 10
-197.1772843319376
 20
-1408.501317201633
 30
0.0
  0
VERTEX
  5
32B
330
314
100
AcDbEntity
  8
Graypants_Drum18
 62
    36
420
  8866048
370
    -3
100
AcDbVertex
100
AcDb2dVertex
 10
-197.2155937455676
 20
-1408.476268424145
 30
0.0
  0
VERTEX
  5
32C
330
314
100
AcDbEntity
  8
Graypants_Drum18
 62
    36
420
  8866048
370
    -3
100
AcDbVertex
100
AcDb2dVertex
 10
-197.2534630775749
 20
-1408.450015252598
 30
0.0
  0
VERTEX
  5
32D
330
314
100
AcDbEntity
  8
Graypants_Drum18
 62
    36
420
  8866048
370
    -3
100
AcDbVertex
100
AcDb2dVertex
 10
-197.2908505030745
 20
-1408.422572419088
 30
0.0
  0
VERTEX
  5
32E
330
314
100
AcDbEntity
  8
Graypants_Drum18
 62
    36
420
  8866048
370
    -3
100
AcDbVertex
100
AcDb2dVertex
 10
-197.3277146577674
 20
-1408.393957204468
 30
0.0
  0
VERTEX
  5
32F
330
314
100
AcDbEntity
  8
Graypants_Drum18
 62
    36
420
  8866048
370
    -3
100
AcDbVertex
100
AcDb2dVertex
 10
-197.3640147822425
 20
-1408.364189416868
 30
0.0
  0
VERTEX
  5
330
330
314
100
AcDbEntity
  8
Graypants_Drum18
 62
    36
420
  8866048
370
    -3
100
AcDbVertex
100
AcDb2dVertex
 10
-197.3997108655626
 20
-1408.33329135722
 30
0.0
  0
VERTEX
  5
331
330
314
100
AcDbEntity
  8
Graypants_Drum18
 62
    36
420
  8866048
370
    -3
100
AcDbVertex
100
AcDb2dVertex
 10
-197.4347637871134
 20
-1408.3012877718
 30
0.0
  0
VERTEX
  5
332
330
314
100
AcDbEntity
  8
Graypants_Drum18
 62
    36
420
  8866048
370
    -3
100
AcDbVertex
100
AcDb2dVertex
 10
-197.4691354556933
 20
-1408.268205791933
 30
0.0
  0
VERTEX
  5
333
330
314
100
AcDbEntity
  8
Graypants_Drum18
 62
    36
420
  8866048
370
    -3
100
AcDbVertex
100
AcDb2dVertex
 10
-197.5027889448287
 20
-1408.234074861102
 30
0.0
  0
VERTEX
  5
334
330
314
100
AcDbEntity
  8
Graypants_Drum18
 62
    36
420
  8866048
370
    -3
100
AcDbVertex
100
AcDb2dVertex
 10
-197.5356886233246
 20
-1408.198926649859
 30
0.0
  0
VERTEX
  5
335
330
314
100
AcDbEntity
  8
Graypants_Drum18
 62
    36
420
  8866048
370
    -3
100
AcDbVertex
100
AcDb2dVertex
 10
-197.5678002800915
 20
-1408.162794959024
 30
0.0
  0
VERTEX
  5
336
330
314
100
AcDbEntity
  8
Graypants_Drum18
 62
    36
420
  8866048
370
    -3
100
AcDbVertex
100
AcDb2dVertex
 10
-197.599091242337
 20
-1408.125715611785
 30
0.0
  0
VERTEX
  5
337
330
314
100
AcDbEntity
  8
Graypants_Drum18
 62
    36
420
  8866048
370
    -3
100
AcDbVertex
100
AcDb2dVertex
 10
-197.6295304862681
 20
-1408.087726335435
 30
0.0
  0
VERTEX
  5
338
330
314
100
AcDbEntity
  8
Graypants_Drum18
 62
    36
420
  8866048
370
    -3
100
AcDbVertex
100
AcDb2dVertex
 10
-197.659088739517
 20
-1408.048866633536
 30
0.0
  0
VERTEX
  5
339
330
314
100
AcDbEntity
  8
Graypants_Drum18
 62
    36
420
  8866048
370
    -3
100
AcDbVertex
100
AcDb2dVertex
 10
-197.6877385745812
 20
-1408.009177649449
 30
0.0
  0
VERTEX
  5
33A
330
314
100
AcDbEntity
  8
Graypants_Drum18
 62
    36
420
  8866048
370
    -3
100
AcDbVertex
100
AcDb2dVertex
 10
-197.7154544926556
 20
-1407.968702022192
 30
0.0
  0
VERTEX
  5
33B
330
314
100
AcDbEntity
  8
Graypants_Drum18
 62
    36
420
  8866048
370
    -3
100
AcDbVertex
100
AcDb2dVertex
 10
-197.7422129973244
 20
-1407.927483735696
 30
0.0
  0
VERTEX
  5
33C
330
314
100
AcDbEntity
  8
Graypants_Drum18
 62
    36
420
  8866048
370
    -3
100
AcDbVertex
100
AcDb2dVertex
 10
-197.7679926576826
 20
-1407.885567962555
 30
0.0
  0
VERTEX
  5
33D
330
314
100
AcDbEntity
  8
Graypants_Drum18
 62
    36
420
  8866048
370
    -3
100
AcDbVertex
100
AcDb2dVertex
 10
-197.7927741605572
 20
-1407.843000903421
 30
0.0
  0
VERTEX
  5
33E
330
314
100
AcDbEntity
  8
Graypants_Drum18
 62
    36
420
  8866048
370
    -3
100
AcDbVertex
100
AcDb2dVertex
 10
-197.8165403516049
 20
-1407.799829623206
 30
0.0
  0
VERTEX
  5
33F
330
314
100
AcDbEntity
  8
Graypants_Drum18
 62
    36
420
  8866048
370
    -3
100
AcDbVertex
100
AcDb2dVertex
 10
-197.8392762651675
 20
-1407.756101885289
 30
0.0
  0
VERTEX
  5
340
330
314
100
AcDbEntity
  8
Graypants_Drum18
 62
    36
420
  8866048
370
    -3
100
AcDbVertex
100
AcDb2dVertex
 10
-197.8609691428747
 20
-1407.711865984887
 30
0.0
  0
VERTEX
  5
341
330
314
100
AcDbEntity
  8
Graypants_Drum18
 62
    36
420
  8866048
370
    -3
100
AcDbVertex
100
AcDb2dVertex
 10
-197.8816084410835
 20
-1407.667170582763
 30
0.0
  0
VERTEX
  5
342
330
314
100
AcDbEntity
  8
Graypants_Drum18
 62
    36
420
  8866048
370
    -3
100
AcDbVertex
100
AcDb2dVertex
 10
-197.9011858273472
 20
-1407.622064540398
 30
0.0
  0
VERTEX
  5
343
330
314
100
AcDbEntity
  8
Graypants_Drum18
 62
    36
420
  8866048
370
    -3
100
AcDbVertex
100
AcDb2dVertex
 10
-197.9196951661979
 20
-1407.57659675772
 30
0.0
  0
VERTEX
  5
344
330
314
100
AcDbEntity
  8
Graypants_Drum18
 62
    36
420
  8866048
370
    -3
100
AcDbVertex
100
AcDb2dVertex
 10
-197.9371324946182
 20
-1407.53081601441
 30
0.0
  0
VERTEX
  5
345
330
314
100
AcDbEntity
  8
Graypants_Drum18
 62
    36
420
  8866048
370
    -3
100
AcDbVertex
100
AcDb2dVertex
 10
-197.9534959876567
 20
-1407.484770815775
 30
0.0
  0
VERTEX
  5
346
330
314
100
AcDbEntity
  8
Graypants_Drum18
 62
    36
420
  8866048
370
    -3
100
AcDbVertex
100
AcDb2dVertex
 10
-197.9687859147154
 20
-1407.438509244067
 30
0.0
  0
VERTEX
  5
347
330
314
100
AcDbEntity
  8
Graypants_Drum18
 62
    36
420
  8866048
370
    -3
100
AcDbVertex
100
AcDb2dVertex
 10
-197.983004587103
 20
-1407.392078816081
 30
0.0
  0
VERTEX
  5
348
330
314
100
AcDbEntity
  8
Graypants_Drum18
 62
    36
420
  8866048
370
    -3
100
AcDbVertex
100
AcDb2dVertex
 10
-197.9961562975006
 20
-1407.345526347742
 30
0.0
  0
VERTEX
  5
349
330
314
100
AcDbEntity
  8
Graypants_Drum18
 62
    36
420
  8866048
370
    -3
100
AcDbVertex
100
AcDb2dVertex
 10
-198.0082472520322
 20
-1407.298897826341
 30
0.0
  0
VERTEX
  5
34A
330
314
100
AcDbEntity
  8
Graypants_Drum18
 62
    36
420
  8866048
370
    -3
100
AcDbVertex
100
AcDb2dVertex
 10
-198.0192854956692
 20
-1407.252238290948
 30
0.0
  0
VERTEX
  5
34B
330
314
100
AcDbEntity
  8
Graypants_Drum18
 62
    36
420
  8866048
370
    -3
100
AcDbVertex
100
AcDb2dVertex
 10
-198.0292808317197
 20
-1407.205591721463
 30
0.0
  0
VERTEX
  5
34C
330
314
100
AcDbEntity
  8
Graypants_Drum18
 62
    36
420
  8866048
370
    -3
100
AcDbVertex
100
AcDb2dVertex
 10
-198.0382447361745
 20
-1407.159000936662
 30
0.0
  0
VERTEX
  5
34D
330
314
100
AcDbEntity
  8
Graypants_Drum18
 62
    36
420
  8866048
370
    -3
100
AcDbVertex
100
AcDb2dVertex
 10
-198.0461902676826
 20
-1407.112507501475
 30
0.0
  0
VERTEX
  5
34E
330
314
100
AcDbEntity
  8
Graypants_Drum18
 62
    36
420
  8866048
370
    -3
100
AcDbVertex
100
AcDb2dVertex
 10
-198.0531319739303
 20
-1407.0661516437
 30
0.0
  0
VERTEX
  5
34F
330
314
100
AcDbEntity
  8
Graypants_Drum18
 62
    36
420
  8866048
370
    -3
100
AcDbVertex
100
AcDb2dVertex
 10
-198.0590857951861
 20
-1407.019972180205
 30
0.0
  0
VERTEX
  5
350
330
314
100
AcDbEntity
  8
Graypants_Drum18
 62
    36
420
  8866048
370
    -3
100
AcDbVertex
100
AcDb2dVertex
 10
-198.0640689657556
 20
-1406.974006452618
 30
0.0
  0
VERTEX
  5
351
330
314
100
AcDbEntity
  8
Graypants_Drum18
 62
    36
420
  8866048
370
    -3
100
AcDbVertex
100
AcDb2dVertex
 10
-198.0680999140651
 20
-1406.928290272446
 30
0.0
  0
VERTEX
  5
352
330
314
100
AcDbEntity
  8
Graypants_Drum18
 62
    36
420
  8866048
370
    -3
100
AcDbVertex
100
AcDb2dVertex
 10
-198.0711981620625
 20
-1406.882857875429
 30
0.0
  0
VERTEX
  5
353
330
314
100
AcDbEntity
  8
Graypants_Drum18
 62
    36
420
  8866048
370
    -3
100
AcDbVertex
100
AcDb2dVertex
 10
-198.0733842245874
 20
-1406.837741884948
 30
0.0
  0
VERTEX
  5
354
330
314
100
AcDbEntity
  8
Graypants_Drum18
 62
    36
420
  8866048
370
    -3
100
AcDbVertex
100
AcDb2dVertex
 10
-198.0746795093222
 20
-1406.792973284174
 30
0.0
  0
VERTEX
  5
355
330
314
100
AcDbEntity
  8
Graypants_Drum18
 62
    36
420
  8866048
370
    -3
100
AcDbVertex
100
AcDb2dVertex
 10
-198.0751062178913
 20
-1406.74858139665
 30
0.0
  0
SEQEND
  5
356
330
314
100
AcDbEntity
  8
Graypants_Drum18
 62
    36
420
  8866048
370
    -3
  0
LINE
  5
357
330
1F
100
AcDbEntity
  8
Graypants_Drum18
 62
    36
420
  8866048
370
    -3
100
AcDbLine
 10
-0.7938701211216994
 20
-1158.977575963412
 30
0.0
 11
-0.794000000001688
 21
-474.3579156152032
 31
0.0
  0
LINE
  5
358
330
1F
100
AcDbEntity
  8
Graypants_Drum18
 62
    36
420
  8866048
370
    -3
100
AcDbLine
 10
2.38124999999809
 20
-1157.386361133072
 30
0.0
 11
0.7937499999979991
 21
-1157.386361133072
 31
0.0
  0
ARC
  5
359
330
1F
100
AcDbEntity
  8
Graypants_Drum18
 62
    36
420
  8866048
370
    -3
100
AcDbCircle
 10
-12.7000133339947
 20
-1165.323855595243
 30
0.0
 40
11.90614551032038
100
AcDbArc
 50
328.2116805328218
 51
359.9820965234839
  0
ARC
  5
35A
330
1F
100
AcDbEntity
  8
Graypants_Drum18
 62
    36
420
  8866048
370
    -3
100
AcDbCircle
 10
-0.790848685955818
 20
-1173.685700757894
 30
0.0
 40
3.970894998276479
210
0.0
220
0.0
230
-1.0
100
AcDbArc
 50
148.2439695951649
 51
233.0661745904668
  0
LINE
  5
35B
330
1F
100
AcDbEntity
  8
Graypants_Drum18
 62
    36
420
  8866048
370
    -3
100
AcDbLine
 10
2.38124999999809
 20
-1157.386361133072
 30
0.0
 11
2.3812623500462
 21
-1158.977575963301
 31
0.0
  0
LINE
  5
35C
330
1F
100
AcDbEntity
  8
Graypants_Drum18
 62
    36
420
  8866048
370
    -3
100
AcDbLine
 10
-1.58750000000242
 20
-1165.32757596339
 30
0.0
 11
-1.58750000000242
 21
-1158.97757596339
 31
0.0
  0
LINE
  5
35D
330
1F
100
AcDbEntity
  8
Graypants_Drum18
 62
    36
420
  8866048
370
    -3
100
AcDbLine
 10
3.174999999998028
 20
-1158.97757596339
 30
0.0
 11
3.174999999998028
 21
-1165.32757596339
 31
0.0
  0
ENDSEC
  0
SECTION
  2
OBJECTS
  0
DICTIONARY
  5
C
330
0
100
AcDbDictionary
281
     1
  3
ACAD_DETAILVIEWSTYLE
350
399
  3
ACAD_GROUP
350
D
  3
ACAD_LAYOUT
350
1A
  3
ACAD_MATERIAL
350
43
  3
ACAD_MLEADERSTYLE
350
6B
  3
ACAD_MLINESTYLE
350
17
  3
ACAD_PLOTSETTINGS
350
19
  3
ACAD_PLOTSTYLENAME
350
E
  3
ACAD_SCALELIST
350
47
  3
ACAD_SECTIONVIEWSTYLE
350
39A
  3
ACAD_TABLESTYLE
350
69
  3
ACAD_VISUALSTYLE
350
2A
  3
AcDbVariableDictionary
350
35E
  3
ACDB_RECOMPOSE_DATA
350
396
  0
SUN
  5
6D
330
29
100
AcDbSun
 90
        1
290
     0
 63
     7
421
 16777215
 40
1.0
291
     1
 91
  2455826
 92
 54000000
292
     0
 70
     2
 71
   256
280
     1
  0
DICTIONARY
  5
399
102
{ACAD_REACTORS
330
C
102
}
330
C
100
AcDbDictionary
281
     1
  0
DICTIONARY
  5
D
102
{ACAD_REACTORS
330
C
102
}
330
C
100
AcDbDictionary
281
     1
  0
DICTIONARY
  5
1A
102
{ACAD_REACTORS
330
C
102
}
330
C
100
AcDbDictionary
281
     1
  3
Layout1
350
1E
  3
Layout2
350
26
  3
Model
350
22
  0
DICTIONARY
  5
43
102
{ACAD_REACTORS
330
C
102
}
330
C
100
AcDbDictionary
281
     1
  3
ByBlock
350
45
  3
ByLayer
350
44
  3
Global
350
46
  0
DICTIONARY
  5
6B
102
{ACAD_REACTORS
330
C
102
}
330
C
100
AcDbDictionary
281
     1
  3
Standard
350
6C
  0
DICTIONARY
  5
17
102
{ACAD_REACTORS
330
C
102
}
330
C
100
AcDbDictionary
281
     1
  3
Standard
350
18
  0
DICTIONARY
  5
19
102
{ACAD_REACTORS
330
C
102
}
330
C
100
AcDbDictionary
281
     1
  0
ACDBDICTIONARYWDFLT
  5
E
102
{ACAD_REACTORS
330
C
102
}
330
C
100
AcDbDictionary
281
     1
  3
Normal
350
F
100
AcDbDictionaryWithDefault
340
F
  0
DICTIONARY
  5
47
102
{ACAD_REACTORS
330
C
102
}
330
C
100
AcDbDictionary
281
     1
  3
A0
350
48
  3
A1
350
49
  3
A2
350
4A
  3
A3
350
4B
  3
A4
350
4C
  3
A5
350
4D
  3
A6
350
4E
  3
A7
350
4F
  3
A8
350
50
  3
A9
350
51
  3
B0
350
52
  3
B1
350
53
  3
B2
350
54
  3
B3
350
55
  3
B4
350
56
  3
B5
350
57
  3
B6
350
58
  3
B7
350
59
  3
B8
350
5A
  3
B9
350
5B
  3
C0
350
5C
  3
C1
350
5D
  3
C2
350
5E
  3
C3
350
5F
  3
C4
350
60
  3
C5
350
61
  3
C6
350
62
  3
C7
350
63
  3
C8
350
64
  3
C9
350
65
  3
D0
350
66
  3
D1
350
67
  3
D2
350
68
  0
DICTIONARY
  5
39A
102
{ACAD_REACTORS
330
C
102
}
330
C
100
AcDbDictionary
281
     1
  0
DICTIONARY
  5
69
102
{ACAD_REACTORS
330
C
102
}
330
C
100
AcDbDictionary
281
     1
  3
Standard
350
6A
  0
DICTIONARY
  5
2A
102
{ACAD_REACTORS
330
C
102
}
330
C
100
AcDbDictionary
281
     1
  3
2dWireframe
350
2F
  3
Basic
350
32
  3
Brighten
350
36
  3
ColorChange
350
3A
  3
Conceptual
350
34
  3
Dim
350
35
  3
EdgeColorOff
350
3D
  3
Facepattern
350
39
  3
Flat
350
2B
  3
FlatWithEdges
350
2C
  3
Gouraud
350
2D
  3
GouraudWithEdges
350
2E
  3
Hidden
350
31
  3
JitterOff
350
3B
  3
Linepattern
350
38
  3
OverhangOff
350
3C
  3
Realistic
350
33
  3
Shaded
350
42
  3
Shaded with edges
350
41
  3
Shades of Gray
350
3E
  3
Sketchy
350
3F
  3
Thicken
350
37
  3
Wireframe
350
30
  3
X-Ray
350
40
  0
DICTIONARY
  5
35E
102
{ACAD_REACTORS
330
C
102
}
330
C
100
AcDbDictionary
281
     1
  3
CANNOSCALE
350
35F
  3
CMLEADERSTYLE
350
398
  3
CTABLESTYLE
350
397
  3
XCLIPFRAME
350
360
  0
XRECORD
  5
396
102
{ACAD_REACTORS
330
C
102
}
330
C
100
AcDbXrecord
280
     1
 90
        1
330
6A
  0
LAYOUT
  5
1E
102
{ACAD_REACTORS
330
1A
102
}
330
1A
100
AcDbPlotSettings
  1

  2
none_device
  4

  6

 40
0.0
 41
0.0
 42
0.0
 43
0.0
 44
0.0
 45
0.0
 46
0.0
 47
0.0
 48
0.0
 49
0.0
140
0.0
141
0.0
142
1.0
143
1.0
 70
   688
 72
     0
 73
     0
 74
     5
  7

 75
    16
 76
     0
 77
     2
 78
   300
147
1.0
148
0.0
149
0.0
100
AcDbLayout
  1
Layout1
 70
     1
 71
     1
 10
0.0
 20
0.0
 11
12.0
 21
9.0
 12
0.0
 22
0.0
 32
0.0
 14
1.000000000000000E+20
 24
1.000000000000000E+20
 34
1.000000000000000E+20
 15
-1.000000000000000E+20
 25
-1.000000000000000E+20
 35
-1.000000000000000E+20
146
0.0
 13
0.0
 23
0.0
 33
0.0
 16
1.0
 26
0.0
 36
0.0
 17
0.0
 27
1.0
 37
0.0
 76
     0
330
1B
  0
LAYOUT
  5
26
102
{ACAD_REACTORS
330
1A
102
}
330
1A
100
AcDbPlotSettings
  1

  2
none_device
  4

  6

 40
0.0
 41
0.0
 42
0.0
 43
0.0
 44
0.0
 45
0.0
 46
0.0
 47
0.0
 48
0.0
 49
0.0
140
0.0
141
0.0
142
1.0
143
1.0
 70
   688
 72
     0
 73
     0
 74
     5
  7

 75
    16
 76
     0
 77
     2
 78
   300
147
1.0
148
0.0
149
0.0
100
AcDbLayout
  1
Layout2
 70
     1
 71
     2
 10
0.0
 20
0.0
 11
0.0
 21
0.0
 12
0.0
 22
0.0
 32
0.0
 14
0.0
 24
0.0
 34
0.0
 15
0.0
 25
0.0
 35
0.0
146
0.0
 13
0.0
 23
0.0
 33
0.0
 16
1.0
 26
0.0
 36
0.0
 17
0.0
 27
1.0
 37
0.0
 76
     0
330
23
  0
LAYOUT
  5
22
102
{ACAD_REACTORS
330
1A
102
}
330
1A
100
AcDbPlotSettings
  1

  2
none_device
  4
Letter_(8.50_x_11.00_Inches)
  6

 40
6.35
 41
6.35
 42
6.35000508
 43
6.35000508
 44
215.9
 45
279.4
 46
0.0
 47
0.0
 48
0.0
 49
0.0
140
0.0
141
0.0
142
1.0
143
1.0
 70
  1712
 72
     0
 73
     0
 74
     0
  7

 75
     0
 76
     0
 77
     2
 78
   300
147
1.0
148
0.0
149
0.0
100
AcDbLayout
  1
Model
 70
     1
 71
     0
 10
0.0
 20
0.0
 11
12.0
 21
9.0
 12
3804.693056528511
 22
1444.863951419895
 32
0.0
 14
1.000000000000000E+20
 24
1.000000000000000E+20
 34
1.000000000000000E+20
 15
-1.000000000000000E+20
 25
-1.000000000000000E+20
 35
-1.000000000000000E+20
146
0.0
 13
0.0
 23
0.0
 33
0.0
 16
1.0
 26
0.0
 36
0.0
 17
0.0
 27
1.0
 37
0.0
 76
     0
330
1F
331
29
  0
MATERIAL
  5
45
102
{ACAD_REACTORS
330
43
102
}
330
43
100
AcDbMaterial
  1
ByBlock
 72
     1
 94
      127
  0
MATERIAL
  5
44
102
{ACAD_REACTORS
330
43
102
}
330
43
100
AcDbMaterial
  1
ByLayer
 72
     1
 94
      127
  0
MATERIAL
  5
46
102
{ACAD_REACTORS
330
43
102
}
330
43
100
AcDbMaterial
  1
Global
 72
     1
 94
      127
  0
MLEADERSTYLE
  5
6C
102
{ACAD_REACTORS
330
6B
102
}
102
{ACAD_XDICTIONARY
360
394
102
}
330
6B
100
AcDbMLeaderStyle
170
     2
171
     1
172
     0
 90
        2
 40
0.0
 41
0.0
173
     1
 91
-1056964608
340
14
 92
       -2
290
     1
 42
0.09
291
     1
 43
0.36
  3
Standard
341
0
 44
0.18
300

342
11
174
     1
178
     6
175
     1
176
     0
 93
-1056964608
 45
0.18
292
     0
297
     0
 46
0.18
343
0
 94
-1056964608
 47
1.0
 49
1.0
140
1.0
293
     1
141
0.0
294
     1
177
     0
142
1.0
295
     0
296
     0
143
0.125
1001
ACAD_MLEADERVER
1070
     2
  0
MLINESTYLE
  5
18
102
{ACAD_REACTORS
330
17
102
}
330
17
100
AcDbMlineStyle
  2
Standard
 70
     0
  3

 62
   256
 51
90.0
 52
90.0
 71
     2
 49
0.5
 62
   256
  6
BYLAYER
 49
-0.5
 62
   256
  6
BYLAYER
  0
ACDBPLACEHOLDER
  5
F
102
{ACAD_REACTORS
330
E
102
}
330
E
  0
SCALE
  5
48
102
{ACAD_REACTORS
330
47
102
}
330
47
100
AcDbScale
 70
     0
300
1:1
140
1.0
141
1.0
290
     1
  0
SCALE
  5
49
102
{ACAD_REACTORS
330
47
102
}
330
47
100
AcDbScale
 70
     0
300
1:2
140
1.0
141
2.0
290
     0
  0
SCALE
  5
4A
102
{ACAD_REACTORS
330
47
102
}
330
47
100
AcDbScale
 70
     0
300
1:4
140
1.0
141
4.0
290
     0
  0
SCALE
  5
4B
102
{ACAD_REACTORS
330
47
102
}
330
47
100
AcDbScale
 70
     0
300
1:5
140
1.0
141
5.0
290
     0
  0
SCALE
  5
4C
102
{ACAD_REACTORS
330
47
102
}
330
47
100
AcDbScale
 70
     0
300
1:8
140
1.0
141
8.0
290
     0
  0
SCALE
  5
4D
102
{ACAD_REACTORS
330
47
102
}
330
47
100
AcDbScale
 70
     0
300
1:10
140
1.0
141
10.0
290
     0
  0
SCALE
  5
4E
102
{ACAD_REACTORS
330
47
102
}
330
47
100
AcDbScale
 70
     0
300
1:16
140
1.0
141
16.0
290
     0
  0
SCALE
  5
4F
102
{ACAD_REACTORS
330
47
102
}
330
47
100
AcDbScale
 70
     0
300
1:20
140
1.0
141
20.0
290
     0
  0
SCALE
  5
50
102
{ACAD_REACTORS
330
47
102
}
330
47
100
AcDbScale
 70
     0
300
1:30
140
1.0
141
30.0
290
     0
  0
SCALE
  5
51
102
{ACAD_REACTORS
330
47
102
}
330
47
100
AcDbScale
 70
     0
300
1:40
140
1.0
141
40.0
290
     0
  0
SCALE
  5
52
102
{ACAD_REACTORS
330
47
102
}
330
47
100
AcDbScale
 70
     0
300
1:50
140
1.0
141
50.0
290
     0
  0
SCALE
  5
53
102
{ACAD_REACTORS
330
47
102
}
330
47
100
AcDbScale
 70
     0
300
1:100
140
1.0
141
100.0
290
     0
  0
SCALE
  5
54
102
{ACAD_REACTORS
330
47
102
}
330
47
100
AcDbScale
 70
     0
300
2:1
140
2.0
141
1.0
290
     0
  0
SCALE
  5
55
102
{ACAD_REACTORS
330
47
102
}
330
47
100
AcDbScale
 70
     0
300
4:1
140
4.0
141
1.0
290
     0
  0
SCALE
  5
56
102
{ACAD_REACTORS
330
47
102
}
330
47
100
AcDbScale
 70
     0
300
8:1
140
8.0
141
1.0
290
     0
  0
SCALE
  5
57
102
{ACAD_REACTORS
330
47
102
}
330
47
100
AcDbScale
 70
     0
300
10:1
140
10.0
141
1.0
290
     0
  0
SCALE
  5
58
102
{ACAD_REACTORS
330
47
102
}
330
47
100
AcDbScale
 70
     0
300
100:1
140
100.0
141
1.0
290
     0
  0
SCALE
  5
59
102
{ACAD_REACTORS
330
47
102
}
330
47
100
AcDbScale
 70
     0
300
1/128" = 1'-0"
140
0.0078125
141
12.0
290
     0
  0
SCALE
  5
5A
102
{ACAD_REACTORS
330
47
102
}
330
47
100
AcDbScale
 70
     0
300
1/64" = 1'-0"
140
0.015625
141
12.0
290
     0
  0
SCALE
  5
5B
102
{ACAD_REACTORS
330
47
102
}
330
47
100
AcDbScale
 70
     0
300
1/32" = 1'-0"
140
0.03125
141
12.0
290
     0
  0
SCALE
  5
5C
102
{ACAD_REACTORS
330
47
102
}
330
47
100
AcDbScale
 70
     0
300
1/16" = 1'-0"
140
0.0625
141
12.0
290
     0
  0
SCALE
  5
5D
102
{ACAD_REACTORS
330
47
102
}
330
47
100
AcDbScale
 70
     0
300
3/32" = 1'-0"
140
0.09375
141
12.0
290
     0
  0
SCALE
  5
5E
102
{ACAD_REACTORS
330
47
102
}
330
47
100
AcDbScale
 70
     0
300
1/8" = 1'-0"
140
0.125
141
12.0
290
     0
  0
SCALE
  5
5F
102
{ACAD_REACTORS
330
47
102
}
330
47
100
AcDbScale
 70
     0
300
3/16" = 1'-0"
140
0.1875
141
12.0
290
     0
  0
SCALE
  5
60
102
{ACAD_REACTORS
330
47
102
}
330
47
100
AcDbScale
 70
     0
300
1/4" = 1'-0"
140
0.25
141
12.0
290
     0
  0
SCALE
  5
61
102
{ACAD_REACTORS
330
47
102
}
330
47
100
AcDbScale
 70
     0
300
3/8" = 1'-0"
140
0.375
141
12.0
290
     0
  0
SCALE
  5
62
102
{ACAD_REACTORS
330
47
102
}
330
47
100
AcDbScale
 70
     0
300
1/2" = 1'-0"
140
0.5
141
12.0
290
     0
  0
SCALE
  5
63
102
{ACAD_REACTORS
330
47
102
}
330
47
100
AcDbScale
 70
     0
300
3/4" = 1'-0"
140
0.75
141
12.0
290
     0
  0
SCALE
  5
64
102
{ACAD_REACTORS
330
47
102
}
330
47
100
AcDbScale
 70
     0
300
1" = 1'-0"
140
1.0
141
12.0
290
     0
  0
SCALE
  5
65
102
{ACAD_REACTORS
330
47
102
}
330
47
100
AcDbScale
 70
     0
300
1-1/2" = 1'-0"
140
1.5
141
12.0
290
     0
  0
SCALE
  5
66
102
{ACAD_REACTORS
330
47
102
}
330
47
100
AcDbScale
 70
     0
300
3" = 1'-0"
140
3.0
141
12.0
290
     0
  0
SCALE
  5
67
102
{ACAD_REACTORS
330
47
102
}
330
47
100
AcDbScale
 70
     0
300
6" = 1'-0"
140
6.0
141
12.0
290
     0
  0
SCALE
  5
68
102
{ACAD_REACTORS
330
47
102
}
330
47
100
AcDbScale
 70
     0
300
1'-0" = 1'-0"
140
12.0
141
12.0
290
     0
  0
TABLESTYLE
  5
6A
102
{ACAD_REACTORS
330
69
102
}
102
{ACAD_XDICTIONARY
360
391
102
}
330
69
100
AcDbTableStyle
  3
Standard
 70
     0
 71
     0
 40
0.06
 41
0.06
280
     0
281
     0
  7
Standard
140
0.18
170
     2
 62
     0
 63
   257
283
     0
 90
        4
 91
        0
  1

274
    -2
284
     1
 64
     0
275
    -2
285
     1
 65
     0
276
    -2
286
     1
 66
     0
277
    -2
287
     1
 67
     0
278
    -2
288
     1
 68
     0
279
    -2
289
     1
 69
     0
  7
Standard
140
0.25
170
     5
 62
     0
 63
   257
283
     0
 90
        4
 91
        0
  1

274
    -2
284
     1
 64
     0
275
    -2
285
     1
 65
     0
276
    -2
286
     1
 66
     0
277
    -2
287
     1
 67
     0
278
    -2
288
     1
 68
     0
279
    -2
289
     1
 69
     0
  7
Standard
140
0.18
170
     5
 62
     0
 63
   257
283
     0
 90
        4
 91
        0
  1

274
    -2
284
     1
 64
     0
275
    -2
285
     1
 65
     0
276
    -2
286
     1
 66
     0
277
    -2
287
     1
 67
     0
278
    -2
288
     1
 68
     0
279
    -2
289
     1
 69
     0
  0
VISUALSTYLE
  5
2F
102
{ACAD_REACTORS
330
2A
102
}
102
{ACAD_XDICTIONARY
360
369
102
}
330
2A
100
AcDbVisualStyle
  2
2dWireframe
 70
     4
 71
     0
 72
     2
 73
     0
 90
        0
 40
0.6
 41
30.0
 62
     5
 63
     7
421
 16777215
 74
     1
 91
        4
 64
     7
 65
   257
 75
     1
175
     1
 42
1.0
 92
        0
 66
   257
 43
1.0
 76
     1
 77
     6
 78
     2
 67
     7
 79
     5
170
     0
171
     0
290
     0
174
     0
 93
        1
 44
0.0
173
     0
291
     0
 45
0.0
  0
VISUALSTYLE
  5
32
102
{ACAD_REACTORS
330
2A
102
}
102
{ACAD_XDICTIONARY
360
36F
102
}
330
2A
100
AcDbVisualStyle
  2
Basic
 70
     7
 71
     1
 72
     0
 73
     1
 90
        0
 40
0.6
 41
30.0
 62
     5
 63
     7
421
 16777215
 74
     0
 91
        4
 64
     7
 65
   257
 75
     1
175
     1
 42
1.0
 92
        8
 66
     7
 43
1.0
 76
     1
 77
     6
 78
     2
 67
     7
 79
     5
170
     0
171
     0
290
     0
174
     0
 93
        1
 44
0.0
173
     0
291
     1
 45
0.0
  0
VISUALSTYLE
  5
36
102
{ACAD_REACTORS
330
2A
102
}
102
{ACAD_XDICTIONARY
360
377
102
}
330
2A
100
AcDbVisualStyle
  2
Brighten
 70
    12
 71
     2
 72
     2
 73
     0
 90
        0
 40
0.6
 41
30.0
 62
     5
 63
     7
421
 16777215
 74
     1
 91
        4
 64
     7
 65
   257
 75
     1
175
     1
 42
1.0
 92
        8
 66
     7
 43
1.0
 76
     1
 77
     6
 78
     2
 67
     7
 79
     5
170
     0
171
     0
290
     0
174
     0
 93
        1
 44
50.0
173
     0
291
     1
 45
0.0
  0
VISUALSTYLE
  5
3A
102
{ACAD_REACTORS
330
2A
102
}
102
{ACAD_XDICTIONARY
360
37F
102
}
330
2A
100
AcDbVisualStyle
  2
ColorChange
 70
    16
 71
     2
 72
     2
 73
     3
 90
        0
 40
0.6
 41
30.0
 62
     5
 63
     8
421
  8421504
 74
     1
 91
        4
 64
     7
 65
   257
 75
     1
175
     1
 42
1.0
 92
        8
 66
     8
424
  8421504
 43
1.0
 76
     1
 77
     6
 78
     2
 67
     7
 79
     5
170
     0
171
     0
290
     0
174
     0
 93
        1
 44
0.0
173
     0
291
     1
 45
0.0
  0
VISUALSTYLE
  5
34
102
{ACAD_REACTORS
330
2A
102
}
102
{ACAD_XDICTIONARY
360
373
102
}
330
2A
100
AcDbVisualStyle
  2
Conceptual
 70
     9
 71
     3
 72
     2
 73
     0
 90
        0
 40
0.6
 41
30.0
 62
     5
 63
     7
421
 16777215
 74
     2
 91
        2
 64
     7
 65
   257
 75
     1
175
     1
 42
179.0
 92
        8
 66
     7
 43
1.0
 76
     1
 77
     6
 78
     2
 67
     7
 79
     3
170
     0
171
     0
290
     0
174
     0
 93
        1
 44
0.0
173
     0
291
     0
 45
0.0
  0
VISUALSTYLE
  5
35
102
{ACAD_REACTORS
330
2A
102
}
102
{ACAD_XDICTIONARY
360
375
102
}
330
2A
100
AcDbVisualStyle
  2
Dim
 70
    11
 71
     2
 72
     2
 73
     0
 90
        0
 40
0.6
 41
30.0
 62
     5
 63
     7
421
 16777215
 74
     1
 91
        4
 64
     7
 65
   257
 75
     1
175
     1
 42
1.0
 92
        8
 66
     7
 43
1.0
 76
     1
 77
     6
 78
     2
 67
     7
 79
     5
170
     0
171
     0
290
     0
174
     0
 93
        1
 44
-50.0
173
     0
291
     1
 45
0.0
  0
VISUALSTYLE
  5
3D
102
{ACAD_REACTORS
330
2A
102
}
102
{ACAD_XDICTIONARY
360
385
102
}
330
2A
100
AcDbVisualStyle
  2
EdgeColorOff
 70
    22
 71
     2
 72
     2
 73
     0
 90
        0
 40
0.6
 41
30.0
 62
     5
 63
     7
421
 16777215
 74
     1
 91
        4
 64
     7
 65
   257
 75
     1
175
     1
 42
1.0
 92
        8
 66
     7
 43
1.0
 76
     1
 77
     6
 78
     2
 67
     7
 79
     5
170
     0
171
     0
290
     0
174
     0
 93
        1
 44
0.0
173
     0
291
     1
 45
0.0
  0
VISUALSTYLE
  5
39
102
{ACAD_REACTORS
330
2A
102
}
102
{ACAD_XDICTIONARY
360
37D
102
}
330
2A
100
AcDbVisualStyle
  2
Facepattern
 70
    15
 71
     2
 72
     2
 73
     0
 90
        0
 40
0.6
 41
30.0
 62
     5
 63
     7
421
 16777215
 74
     1
 91
        4
 64
     7
 65
   257
 75
     1
175
     1
 42
1.0
 92
        8
 66
     7
 43
1.0
 76
     1
 77
     6
 78
     2
 67
     7
 79
     5
170
     0
171
     0
290
     0
174
     0
 93
        1
 44
0.0
173
     0
291
     1
 45
0.0
  0
VISUALSTYLE
  5
2B
102
{ACAD_REACTORS
330
2A
102
}
102
{ACAD_XDICTIONARY
360
361
102
}
330
2A
100
AcDbVisualStyle
  2
Flat
 70
     0
 71
     2
 72
     1
 73
     1
 90
        2
 40
0.6
 41
30.0
 62
     5
 63
     7
421
 16777215
 74
     0
 91
        0
 64
     7
 65
   257
 75
     1
175
     1
 42
1.0
 92
        8
 66
     7
 43
1.0
 76
     1
 77
     6
 78
     2
 67
     7
 79
     5
170
     0
171
     0
290
     0
174
     0
 93
       13
 44
0.0
173
     0
291
     1
 45
0.0
  0
VISUALSTYLE
  5
2C
102
{ACAD_REACTORS
330
2A
102
}
102
{ACAD_XDICTIONARY
360
363
102
}
330
2A
100
AcDbVisualStyle
  2
FlatWithEdges
 70
     1
 71
     2
 72
     1
 73
     1
 90
        2
 40
0.6
 41
30.0
 62
     5
 63
     7
421
 16777215
 74
     1
 91
        0
 64
     7
 65
   257
 75
     1
175
     1
 42
1.0
 92
        0
 66
   257
 43
1.0
 76
     1
 77
     6
 78
     2
 67
     7
 79
     5
170
     0
171
     0
290
     0
174
     0
 93
       13
 44
0.0
173
     0
291
     1
 45
0.0
  0
VISUALSTYLE
  5
2D
102
{ACAD_REACTORS
330
2A
102
}
102
{ACAD_XDICTIONARY
360
365
102
}
330
2A
100
AcDbVisualStyle
  2
Gouraud
 70
     2
 71
     2
 72
     2
 73
     1
 90
        2
 40
0.6
 41
30.0
 62
     5
 63
     7
421
 16777215
 74
     0
 91
        0
 64
     7
 65
   257
 75
     1
175
     1
 42
1.0
 92
        0
 66
     7
 43
1.0
 76
     1
 77
     6
 78
     2
 67
     7
 79
     5
170
     0
171
     0
290
     0
174
     0
 93
       13
 44
0.0
173
     0
291
     1
 45
0.0
  0
VISUALSTYLE
  5
2E
102
{ACAD_REACTORS
330
2A
102
}
102
{ACAD_XDICTIONARY
360
367
102
}
330
2A
100
AcDbVisualStyle
  2
GouraudWithEdges
 70
     3
 71
     2
 72
     2
 73
     1
 90
        2
 40
0.6
 41
30.0
 62
     5
 63
     7
421
 16777215
 74
     1
 91
        0
 64
     7
 65
   257
 75
     1
175
     1
 42
1.0
 92
        0
 66
   257
 43
1.0
 76
     1
 77
     6
 78
     2
 67
     7
 79
     5
170
     0
171
     0
290
     0
174
     0
 93
       13
 44
0.0
173
     0
291
     1
 45
0.0
  0
VISUALSTYLE
  5
31
102
{ACAD_REACTORS
330
2A
102
}
102
{ACAD_XDICTIONARY
360
36D
102
}
330
2A
100
AcDbVisualStyle
  2
Hidden
 70
     6
 71
     1
 72
     2
 73
     2
 90
        0
 40
0.6
 41
30.0
 62
     5
 63
     7
421
 16777215
 74
     2
 91
        2
 64
     7
 65
   257
 75
     2
175
     1
 42
40.0
 92
        0
 66
   257
 43
1.0
 76
     1
 77
     6
 78
     2
 67
     7
 79
     3
170
     0
171
     0
290
     0
174
     0
 93
        1
 44
0.0
173
     0
291
     0
 45
0.0
  0
VISUALSTYLE
  5
3B
102
{ACAD_REACTORS
330
2A
102
}
102
{ACAD_XDICTIONARY
360
381
102
}
330
2A
100
AcDbVisualStyle
  2
JitterOff
 70
    20
 71
     2
 72
     2
 73
     0
 90
        0
 40
0.6
 41
30.0
 62
     5
 63
     7
421
 16777215
 74
     1
 91
        4
 64
     7
 65
   257
 75
     1
175
     1
 42
1.0
 92
       10
 66
     7
 43
1.0
 76
     1
 77
     6
 78
     2
 67
     7
 79
     5
170
     0
171
     0
290
     0
174
     0
 93
        1
 44
0.0
173
     0
291
     1
 45
0.0
  0
VISUALSTYLE
  5
38
102
{ACAD_REACTORS
330
2A
102
}
102
{ACAD_XDICTIONARY
360
37B
102
}
330
2A
100
AcDbVisualStyle
  2
Linepattern
 70
    14
 71
     2
 72
     2
 73
     0
 90
        0
 40
0.6
 41
30.0
 62
     5
 63
     7
421
 16777215
 74
     1
 91
        4
 64
     7
 65
   257
 75
     7
175
     7
 42
1.0
 92
        8
 66
     7
 43
1.0
 76
     1
 77
     6
 78
     2
 67
     7
 79
     5
170
     0
171
     0
290
     0
174
     0
 93
        1
 44
0.0
173
     0
291
     1
 45
0.0
  0
VISUALSTYLE
  5
3C
102
{ACAD_REACTORS
330
2A
102
}
102
{ACAD_XDICTIONARY
360
383
102
}
330
2A
100
AcDbVisualStyle
  2
OverhangOff
 70
    21
 71
     2
 72
     2
 73
     0
 90
        0
 40
0.6
 41
30.0
 62
     5
 63
     7
421
 16777215
 74
     1
 91
        4
 64
     7
 65
   257
 75
     1
175
     1
 42
1.0
 92
        9
 66
     7
 43
1.0
 76
     1
 77
     6
 78
     2
 67
     7
 79
     5
170
     0
171
     0
290
     0
174
     0
 93
        1
 44
0.0
173
     0
291
     1
 45
0.0
  0
VISUALSTYLE
  5
33
102
{ACAD_REACTORS
330
2A
102
}
102
{ACAD_XDICTIONARY
360
371
102
}
330
2A
100
AcDbVisualStyle
  2
Realistic
 70
     8
 71
     2
 72
     3
 73
     0
 90
        2
 40
0.6
 41
30.0
 62
     5
 63
     7
421
 16777215
 74
     0
 91
        0
 64
     7
 65
   257
 75
     1
175
     1
 42
1.0
 92
        8
 66
   257
 43
1.0
 76
     1
 77
     6
 78
     2
 67
     7
 79
     3
170
     0
171
     0
290
     0
174
     0
 93
       13
 44
0.0
173
     0
291
     0
 45
0.0
  0
VISUALSTYLE
  5
42
102
{ACAD_REACTORS
330
2A
102
}
102
{ACAD_XDICTIONARY
360
38F
102
}
330
2A
100
AcDbVisualStyle
  2
Shaded
 70
    27
 71
     2
 72
     2
 73
     1
 90
        2
 40
0.6
 41
30.0
 62
     5
 63
     7
421
 16777215
 74
     0
 91
        4
 64
     7
 65
   257
 75
     1
175
     1
 42
1.0
 92
        8
 66
   257
 43
1.0
 76
     1
 77
     6
 78
     2
 67
     8
425
  7895160
 79
     3
170
     0
171
     0
290
     0
174
     0
 93
        5
 44
0.0
173
     0
291
     0
 45
0.0
  0
VISUALSTYLE
  5
41
102
{ACAD_REACTORS
330
2A
102
}
102
{ACAD_XDICTIONARY
360
38D
102
}
330
2A
100
AcDbVisualStyle
  2
Shaded with edges
 70
    26
 71
     2
 72
     2
 73
     1
 90
        2
 40
0.6
 41
30.0
 62
     5
 63
     7
421
 16777215
 74
     1
 91
       10
 64
     7
 65
   257
 75
     2
175
     1
 42
1.0
 92
        8
 66
   257
 43
1.0
 76
     1
 77
     6
 78
     2
 67
     7
 79
     3
170
     0
171
     0
290
     0
174
     0
 93
        5
 44
0.0
173
     0
291
     0
 45
0.0
  0
VISUALSTYLE
  5
3E
102
{ACAD_REACTORS
330
2A
102
}
102
{ACAD_XDICTIONARY
360
387
102
}
330
2A
100
AcDbVisualStyle
  2
Shades of Gray
 70
    23
 71
     2
 72
     2
 73
     3
 90
        0
 40
0.6
 41
30.0
 62
     5
 63
     7
421
 16777215
 74
     2
 91
        2
 64
     7
 65
     7
 75
     1
175
     1
 42
40.0
 92
        8
 66
     7
 43
1.0
 76
     1
 77
     6
 78
     2
 67
     7
 79
     3
170
     0
171
     0
290
     0
174
     0
 93
        1
 44
0.0
173
     0
291
     0
 45
0.0
  0
VISUALSTYLE
  5
3F
102
{ACAD_REACTORS
330
2A
102
}
102
{ACAD_XDICTIONARY
360
389
102
}
330
2A
100
AcDbVisualStyle
  2
Sketchy
 70
    24
 71
     1
 72
     2
 73
     2
 90
        0
 40
0.6
 41
30.0
 62
     5
 63
     7
421
 16777215
 74
     2
 91
        2
 64
     7
 65
     7
 75
     1
175
     1
 42
40.0
 92
       11
 66
     7
 43
1.0
 76
     1
 77
     6
 78
     2
 67
     7
 79
     6
170
     0
171
     0
290
     0
174
     0
 93
        1
 44
0.0
173
     0
291
     0
 45
0.0
  0
VISUALSTYLE
  5
37
102
{ACAD_REACTORS
330
2A
102
}
102
{ACAD_XDICTIONARY
360
379
102
}
330
2A
100
AcDbVisualStyle
  2
Thicken
 70
    13
 71
     2
 72
     2
 73
     0
 90
        0
 40
0.6
 41
30.0
 62
     5
 63
     7
421
 16777215
 74
     1
 91
        4
 64
     7
 65
   257
 75
     1
175
     1
 42
1.0
 92
       12
 66
     7
 43
1.0
 76
     1
 77
     6
 78
     2
 67
     7
 79
     5
170
     0
171
     0
290
     0
174
     0
 93
        1
 44
0.0
173
     0
291
     1
 45
0.0
  0
VISUALSTYLE
  5
30
102
{ACAD_REACTORS
330
2A
102
}
102
{ACAD_XDICTIONARY
360
36B
102
}
330
2A
100
AcDbVisualStyle
  2
Wireframe
 70
     5
 71
     0
 72
     2
 73
     0
 90
        0
 40
0.6
 41
30.0
 62
     5
 63
     7
421
 16777215
 74
     1
 91
        4
 64
     7
 65
   257
 75
     1
175
     1
 42
1.0
 92
        0
 66
   257
 43
1.0
 76
     1
 77
     6
 78
     2
 67
     7
 79
     3
170
     0
171
     0
290
     0
174
     0
 93
        1
 44
0.0
173
     0
291
     0
 45
0.0
  0
VISUALSTYLE
  5
40
102
{ACAD_REACTORS
330
2A
102
}
102
{ACAD_XDICTIONARY
360
38B
102
}
330
2A
100
AcDbVisualStyle
  2
X-Ray
 70
    25
 71
     2
 72
     2
 73
     1
 90
        1
 40
0.5
 41
30.0
 62
     5
 63
     7
421
 16777215
 74
     1
 91
        0
 64
     7
 65
   257
 75
     1
175
     1
 42
1.0
 92
        8
 66
     7
 43
1.0
 76
     1
 77
     6
 78
     2
 67
     7
 79
     3
170
     0
171
     0
290
     0
174
     0
 93
       13
 44
0.0
173
     0
291
     0
 45
0.0
  0
DICTIONARYVAR
  5
35F
102
{ACAD_REACTORS
330
35E
102
}
330
35E
100
DictionaryVariables
280
     0
  1
1:1
  0
DICTIONARYVAR
  5
398
102
{ACAD_REACTORS
330
35E
102
}
330
35E
100
DictionaryVariables
280
     0
  1
Standard
  0
DICTIONARYVAR
  5
397
102
{ACAD_REACTORS
330
35E
102
}
330
35E
100
DictionaryVariables
280
     0
  1
Standard
  0
DICTIONARYVAR
  5
360
102
{ACAD_REACTORS
330
35E
102
}
330
35E
100
DictionaryVariables
280
     0
  1
2
  0
DICTIONARY
  5
394
330
6C
100
AcDbDictionary
280
     1
281
     1
  3
ACAD_XREC_ROUNDTRIP
360
395
  0
DICTIONARY
  5
391
330
6A
100
AcDbDictionary
280
     1
281
     1
  3
ACAD_ROUNDTRIP_2008_TABLESTYLE_CELLSTYLEMAP
360
392
  0
DICTIONARY
  5
369
330
2F
100
AcDbDictionary
280
     1
281
     1
  3
ACAD_XREC_ROUNDTRIP
360
36A
  0
DICTIONARY
  5
36F
330
32
100
AcDbDictionary
280
     1
281
     1
  3
ACAD_XREC_ROUNDTRIP
360
370
  0
DICTIONARY
  5
377
330
36
100
AcDbDictionary
280
     1
281
     1
  3
ACAD_XREC_ROUNDTRIP
360
378
  0
DICTIONARY
  5
37F
330
3A
100
AcDbDictionary
280
     1
281
     1
  3
ACAD_XREC_ROUNDTRIP
360
380
  0
DICTIONARY
  5
373
330
34
100
AcDbDictionary
280
     1
281
     1
  3
ACAD_XREC_ROUNDTRIP
360
374
  0
DICTIONARY
  5
375
330
35
100
AcDbDictionary
280
     1
281
     1
  3
ACAD_XREC_ROUNDTRIP
360
376
  0
DICTIONARY
  5
385
330
3D
100
AcDbDictionary
280
     1
281
     1
  3
ACAD_XREC_ROUNDTRIP
360
386
  0
DICTIONARY
  5
37D
330
39
100
AcDbDictionary
280
     1
281
     1
  3
ACAD_XREC_ROUNDTRIP
360
37E
  0
DICTIONARY
  5
361
330
2B
100
AcDbDictionary
280
     1
281
     1
  3
ACAD_XREC_ROUNDTRIP
360
362
  0
DICTIONARY
  5
363
330
2C
100
AcDbDictionary
280
     1
281
     1
  3
ACAD_XREC_ROUNDTRIP
360
364
  0
DICTIONARY
  5
365
330
2D
100
AcDbDictionary
280
     1
281
     1
  3
ACAD_XREC_ROUNDTRIP
360
366
  0
DICTIONARY
  5
367
330
2E
100
AcDbDictionary
280
     1
281
     1
  3
ACAD_XREC_ROUNDTRIP
360
368
  0
DICTIONARY
  5
36D
330
31
100
AcDbDictionary
280
     1
281
     1
  3
ACAD_XREC_ROUNDTRIP
360
36E
  0
DICTIONARY
  5
381
330
3B
100
AcDbDictionary
280
     1
281
     1
  3
ACAD_XREC_ROUNDTRIP
360
382
  0
DICTIONARY
  5
37B
330
38
100
AcDbDictionary
280
     1
281
     1
  3
ACAD_XREC_ROUNDTRIP
360
37C
  0
DICTIONARY
  5
383
330
3C
100
AcDbDictionary
280
     1
281
     1
  3
ACAD_XREC_ROUNDTRIP
360
384
  0
DICTIONARY
  5
371
330
33
100
AcDbDictionary
280
     1
281
     1
  3
ACAD_XREC_ROUNDTRIP
360
372
  0
DICTIONARY
  5
38F
330
42
100
AcDbDictionary
280
     1
281
     1
  3
ACAD_XREC_ROUNDTRIP
360
390
  0
DICTIONARY
  5
38D
330
41
100
AcDbDictionary
280
     1
281
     1
  3
ACAD_XREC_ROUNDTRIP
360
38E
  0
DICTIONARY
  5
387
330
3E
100
AcDbDictionary
280
     1
281
     1
  3
ACAD_XREC_ROUNDTRIP
360
388
  0
DICTIONARY
  5
389
330
3F
100
AcDbDictionary
280
     1
281
     1
  3
ACAD_XREC_ROUNDTRIP
360
38A
  0
DICTIONARY
  5
379
330
37
100
AcDbDictionary
280
     1
281
     1
  3
ACAD_XREC_ROUNDTRIP
360
37A
  0
DICTIONARY
  5
36B
330
30
100
AcDbDictionary
280
     1
281
     1
  3
ACAD_XREC_ROUNDTRIP
360
36C
  0
DICTIONARY
  5
38B
330
40
100
AcDbDictionary
280
     1
281
     1
  3
ACAD_XREC_ROUNDTRIP
360
38C
  0
XRECORD
  5
395
102
{ACAD_REACTORS
330
394
102
}
330
394
100
AcDbXrecord
280
     1
102
ACAD_ROUNDTRIP_2010_MLEADER_STYLE
  0
CELLSTYLEMAP
  5
392
102
{ACAD_REACTORS
330
391
102
}
330
391
100
AcDbCellStyleMap
 90
        3
300
CELLSTYLE
  1
TABLEFORMAT_BEGIN
 90
        5
170
     1
 91
        0
 92
    32768
 62
   257
 93
        1
300
CONTENTFORMAT
  1
CONTENTFORMAT_BEGIN
 90
        0
 91
        0
 92
        4
 93
        0
300

 40
0.0
140
1.0
 94
        5
 62
     0
340
11
144
0.25
309
CONTENTFORMAT_END
171
     1
301
MARGIN
  1
CELLMARGIN_BEGIN
 40
0.06
 40
0.06
 40
0.06
 40
0.06
 40
0.06
 40
0.06
309
CELLMARGIN_END
 94
        6
 95
        1
302
GRIDFORMAT
  1
GRIDFORMAT_BEGIN
 90
        0
 91
        1
 62
     0
 92
       -2
340
14
 93
        0
 40
0.045
309
GRIDFORMAT_END
 95
        2
302
GRIDFORMAT
  1
GRIDFORMAT_BEGIN
 90
        0
 91
        1
 62
     0
 92
       -2
340
14
 93
        0
 40
0.045
309
GRIDFORMAT_END
 95
        4
302
GRIDFORMAT
  1
GRIDFORMAT_BEGIN
 90
        0
 91
        1
 62
     0
 92
       -2
340
14
 93
        0
 40
0.045
309
GRIDFORMAT_END
 95
        8
302
GRIDFORMAT
  1
GRIDFORMAT_BEGIN
 90
        0
 91
        1
 62
     0
 92
       -2
340
14
 93
        0
 40
0.045
309
GRIDFORMAT_END
 95
       16
302
GRIDFORMAT
  1
GRIDFORMAT_BEGIN
 90
        0
 91
        1
 62
     0
 92
       -2
340
14
 93
        0
 40
0.045
309
GRIDFORMAT_END
 95
       32
302
GRIDFORMAT
  1
GRIDFORMAT_BEGIN
 90
        0
 91
        1
 62
     0
 92
       -2
340
14
 93
        0
 40
0.045
309
GRIDFORMAT_END
309
TABLEFORMAT_END
  1
CELLSTYLE_BEGIN
 90
        1
 91
        1
300
_TITLE
309
CELLSTYLE_END
300
CELLSTYLE
  1
TABLEFORMAT_BEGIN
 90
        5
170
     1
 91
        0
 92
        0
 62
   257
 93
        1
300
CONTENTFORMAT
  1
CONTENTFORMAT_BEGIN
 90
        0
 91
        0
 92
        4
 93
        0
300

 40
0.0
140
1.0
 94
        5
 62
     0
340
11
144
0.18
309
CONTENTFORMAT_END
171
     1
301
MARGIN
  1
CELLMARGIN_BEGIN
 40
0.06
 40
0.06
 40
0.06
 40
0.06
 40
0.06
 40
0.06
309
CELLMARGIN_END
 94
        6
 95
        1
302
GRIDFORMAT
  1
GRIDFORMAT_BEGIN
 90
        0
 91
        1
 62
     0
 92
       -2
340
14
 93
        0
 40
0.045
309
GRIDFORMAT_END
 95
        2
302
GRIDFORMAT
  1
GRIDFORMAT_BEGIN
 90
        0
 91
        1
 62
     0
 92
       -2
340
14
 93
        0
 40
0.045
309
GRIDFORMAT_END
 95
        4
302
GRIDFORMAT
  1
GRIDFORMAT_BEGIN
 90
        0
 91
        1
 62
     0
 92
       -2
340
14
 93
        0
 40
0.045
309
GRIDFORMAT_END
 95
        8
302
GRIDFORMAT
  1
GRIDFORMAT_BEGIN
 90
        0
 91
        1
 62
     0
 92
       -2
340
14
 93
        0
 40
0.045
309
GRIDFORMAT_END
 95
       16
302
GRIDFORMAT
  1
GRIDFORMAT_BEGIN
 90
        0
 91
        1
 62
     0
 92
       -2
340
14
 93
        0
 40
0.045
309
GRIDFORMAT_END
 95
       32
302
GRIDFORMAT
  1
GRIDFORMAT_BEGIN
 90
        0
 91
        1
 62
     0
 92
       -2
340
14
 93
        0
 40
0.045
309
GRIDFORMAT_END
309
TABLEFORMAT_END
  1
CELLSTYLE_BEGIN
 90
        2
 91
        1
300
_HEADER
309
CELLSTYLE_END
300
CELLSTYLE
  1
TABLEFORMAT_BEGIN
 90
        5
170
     1
 91
        0
 92
        0
 62
   257
 93
        1
300
CONTENTFORMAT
  1
CONTENTFORMAT_BEGIN
 90
        0
 91
        0
 92
        4
 93
        0
300

 40
0.0
140
1.0
 94
        2
 62
     0
340
11
144
0.18
309
CONTENTFORMAT_END
171
     1
301
MARGIN
  1
CELLMARGIN_BEGIN
 40
0.06
 40
0.06
 40
0.06
 40
0.06
 40
0.06
 40
0.06
309
CELLMARGIN_END
 94
        6
 95
        1
302
GRIDFORMAT
  1
GRIDFORMAT_BEGIN
 90
        0
 91
        1
 62
     0
 92
       -2
340
14
 93
        0
 40
0.045
309
GRIDFORMAT_END
 95
        2
302
GRIDFORMAT
  1
GRIDFORMAT_BEGIN
 90
        0
 91
        1
 62
     0
 92
       -2
340
14
 93
        0
 40
0.045
309
GRIDFORMAT_END
 95
        4
302
GRIDFORMAT
  1
GRIDFORMAT_BEGIN
 90
        0
 91
        1
 62
     0
 92
       -2
340
14
 93
        0
 40
0.045
309
GRIDFORMAT_END
 95
        8
302
GRIDFORMAT
  1
GRIDFORMAT_BEGIN
 90
        0
 91
        1
 62
     0
 92
       -2
340
14
 93
        0
 40
0.045
309
GRIDFORMAT_END
 95
       16
302
GRIDFORMAT
  1
GRIDFORMAT_BEGIN
 90
        0
 91
        1
 62
     0
 92
       -2
340
14
 93
        0
 40
0.045
309
GRIDFORMAT_END
 95
       32
302
GRIDFORMAT
  1
GRIDFORMAT_BEGIN
 90
        0
 91
        1
 62
     0
 92
       -2
340
14
 93
        0
 40
0.045
309
GRIDFORMAT_END
309
TABLEFORMAT_END
  1
CELLSTYLE_BEGIN
 90
        3
 91
        2
300
_DATA
309
CELLSTYLE_END
  0
XRECORD
  5
36A
102
{ACAD_REACTORS
330
369
102
}
330
369
100
AcDbXrecord
280
     1
102
RTVSPropertyOp0
 70
     1
102
RTVSPropertyOp1
 70
     1
102
RTVSPropertyOp2
 70
     1
102
RTVSPropertyOp3
 70
     1
102
RTVSPropertyOp4
 70
     1
102
RTVSPropertyOp5
 70
     1
102
RTVSPropertyOp6
 70
     1
102
RTVSPropertyOp7
 70
     1
102
RTVSPropertyOp8
 70
     1
102
RTVSPropertyOp9
 70
     1
102
RTVSPropertyOp10
 70
     1
102
RTVSPropertyOp11
 70
     1
102
RTVSPropertyOp12
 70
     1
102
RTVSPropertyOp13
 70
     1
102
RTVSPropertyOp14
 70
     1
102
RTVSPropertyOp15
 70
     1
102
RTVSPropertyOp16
 70
     1
102
RTVSPropertyOp17
 70
     1
102
RTVSPropertyOp18
 70
     1
102
RTVSPropertyOp19
 70
     1
102
RTVSPropertyOp20
 70
     1
102
RTVSPropertyOp21
 70
     1
102
RTVSPropertyOp22
 70
     1
102
RTVSPropertyOp23
 70
     1
102
RTVSPropertyOp24
 70
     1
102
RTVSPropertyOp25
 70
     1
102
RTVSPropertyOp26
 70
     1
102
RTVSPropertyOp27
 70
     1
102
RTVSPropertyOp28
 70
     1
102
RTVSPropertyOp29
 70
     1
102
RTVSPropertyOp30
 70
     1
102
RTVSPropertyOp31
 70
     1
102
RTVSPropertyOp32
 70
     1
102
RTVSPropertyOp33
 70
     1
102
RTVSPropertyOp34
 70
     1
102
RTVSPropertyOp35
 70
     1
102
RTVSPropertyOp36
 70
     1
102
RTVSPropertyOp37
 70
     1
102
RTVSPropertyOp38
 70
     1
102
RTVSPropertyOp39
 70
     1
102
RTVSPropertyOp40
 70
     1
102
RTVSPropertyOp41
 70
     1
102
RTVSPropertyOp42
 70
     1
102
RTVSPropertyOp43
 70
     1
102
RTVSPropertyOp44
 70
     1
102
RTVSPropertyOp45
 70
     1
102
RTVSPropertyOp46
 70
     1
102
RTVSPropertyOp47
 70
     1
102
RTVSPropertyOp48
 70
     1
102
RTVSPropertyOp49
 70
     1
102
RTVSPropertyOp50
 70
     1
102
RTVSPropertyOp51
 70
     0
102
RTVSPropertyOp52
 70
     0
102
RTVSPropertyOp53
 70
     1
102
RTVSPropertyOp54
 70
     1
102
RTVSPropertyOp55
 70
     1
102
RTVSPropertyOp56
 70
     1
102
RTVSPropertyOp57
 70
     1
102
RTVSPost2010Prop28
280
     1
102
RTVSPost2010PropOp28
 70
     1
102
RTVSPost2010Prop29
280
     1
102
RTVSPost2010PropOp29
 70
     1
102
RTVSPost2010Prop30
280
     0
102
RTVSPost2010PropOp30
 70
     1
102
RTVSPost2010Prop31
280
     0
102
RTVSPost2010PropOp31
 70
     1
102
RTVSPost2010Prop32
280
     0
102
RTVSPost2010PropOp32
 70
     1
102
RTVSPost2010Prop33
280
     0
102
RTVSPost2010PropOp33
 70
     1
102
RTVSPost2010Prop34
280
     0
102
RTVSPost2010PropOp34
 70
     1
102
RTVSPost2010Prop35
280
     0
102
RTVSPost2010PropOp35
 70
     1
102
RTVSPost2010Prop36
280
     0
102
RTVSPost2010PropOp36
 70
     1
102
RTVSPost2010Prop37
 90
       50
102
RTVSPost2010PropOp37
 70
     1
102
RTVSPost2010Prop38
140
0.0
102
RTVSPost2010PropOp38
 70
     1
102
RTVSPost2010Prop39
140
1.0
102
RTVSPost2010PropOp39
 70
     1
102
RTVSPost2010Prop40
 90
        0
102
RTVSPost2010PropOp40
 70
     1
102
RTVSPost2010Prop41ColorIndex
 90
      178
102
RTVSPost2010Prop41ColorRGB
 90
        0
102
RTVSPost2010PropOp41
 70
     1
102
RTVSPost2010Prop42
 90
       50
102
RTVSPost2010PropOp42
 70
     1
102
RTVSPost2010Prop43
 90
        3
102
RTVSPost2010PropOp43
 70
     1
102
RTVSPost2010Prop44ColorIndex
 90
        5
102
RTVSPost2010Prop44ColorRGB
 90
      255
102
RTVSPost2010PropOp44
 70
     1
102
RTVSPost2010Prop45
280
     0
102
RTVSPost2010PropOp45
 70
     1
102
RTVSPost2010Prop46
 90
       50
102
RTVSPost2010PropOp46
 70
     1
102
RTVSPost2010Prop47
 90
       50
102
RTVSPost2010PropOp47
 70
     1
102
RTVSPost2010Prop48
 90
       50
102
RTVSPost2010PropOp48
 70
     1
102
RTVSPost2010Prop49
280
     0
102
RTVSPost2010PropOp49
 70
     1
102
RTVSPost2010Prop50
 90
       50
102
RTVSPost2010PropOp50
 70
     1
102
RTVSPost2010Prop51ColorIndex
 90
      256
102
RTVSPost2010Prop51ColorRGB
 90
-16777216
102
RTVSPost2010PropOp51
 70
     0
102
RTVSPost2010Prop52
140
1.0
102
RTVSPost2010PropOp52
 70
     0
102
RTVSPost2010Prop53
 90
        2
102
RTVSPost2010PropOp53
 70
     1
102
RTVSPost2010Prop54
  1
strokes_ogs.tif
102
RTVSPost2010PropOp54
 70
     1
102
RTVSPost2010Prop55
280
     0
102
RTVSPost2010PropOp55
 70
     1
102
RTVSPost2010Prop56
140
1.0
102
RTVSPost2010PropOp56
 70
     1
102
RTVSPost2010Prop57
140
1.0
102
RTVSPost2010PropOp57
 70
     1
  0
XRECORD
  5
370
102
{ACAD_REACTORS
330
36F
102
}
330
36F
100
AcDbXrecord
280
     1
102
RTVSPropertyOp0
 70
     1
102
RTVSPropertyOp1
 70
     1
102
RTVSPropertyOp2
 70
     1
102
RTVSPropertyOp3
 70
     1
102
RTVSPropertyOp4
 70
     1
102
RTVSPropertyOp5
 70
     1
102
RTVSPropertyOp6
 70
     1
102
RTVSPropertyOp7
 70
     1
102
RTVSPropertyOp8
 70
     1
102
RTVSPropertyOp9
 70
     1
102
RTVSPropertyOp10
 70
     1
102
RTVSPropertyOp11
 70
     1
102
RTVSPropertyOp12
 70
     1
102
RTVSPropertyOp13
 70
     1
102
RTVSPropertyOp14
 70
     1
102
RTVSPropertyOp15
 70
     1
102
RTVSPropertyOp16
 70
     1
102
RTVSPropertyOp17
 70
     1
102
RTVSPropertyOp18
 70
     1
102
RTVSPropertyOp19
 70
     1
102
RTVSPropertyOp20
 70
     1
102
RTVSPropertyOp21
 70
     1
102
RTVSPropertyOp22
 70
     1
102
RTVSPropertyOp23
 70
     1
102
RTVSPropertyOp24
 70
     1
102
RTVSPropertyOp25
 70
     1
102
RTVSPropertyOp26
 70
     1
102
RTVSPropertyOp27
 70
     1
102
RTVSPropertyOp28
 70
     1
102
RTVSPropertyOp29
 70
     1
102
RTVSPropertyOp30
 70
     1
102
RTVSPropertyOp31
 70
     1
102
RTVSPropertyOp32
 70
     1
102
RTVSPropertyOp33
 70
     1
102
RTVSPropertyOp34
 70
     1
102
RTVSPropertyOp35
 70
     1
102
RTVSPropertyOp36
 70
     1
102
RTVSPropertyOp37
 70
     1
102
RTVSPropertyOp38
 70
     1
102
RTVSPropertyOp39
 70
     1
102
RTVSPropertyOp40
 70
     1
102
RTVSPropertyOp41
 70
     1
102
RTVSPropertyOp42
 70
     1
102
RTVSPropertyOp43
 70
     1
102
RTVSPropertyOp44
 70
     1
102
RTVSPropertyOp45
 70
     1
102
RTVSPropertyOp46
 70
     1
102
RTVSPropertyOp47
 70
     1
102
RTVSPropertyOp48
 70
     1
102
RTVSPropertyOp49
 70
     1
102
RTVSPropertyOp50
 70
     1
102
RTVSPropertyOp51
 70
     0
102
RTVSPropertyOp52
 70
     0
102
RTVSPropertyOp53
 70
     1
102
RTVSPropertyOp54
 70
     1
102
RTVSPropertyOp55
 70
     1
102
RTVSPropertyOp56
 70
     1
102
RTVSPropertyOp57
 70
     1
102
RTVSPost2010Prop28
280
     0
102
RTVSPost2010PropOp28
 70
     1
102
RTVSPost2010Prop29
280
     1
102
RTVSPost2010PropOp29
 70
     1
102
RTVSPost2010Prop30
280
     1
102
RTVSPost2010PropOp30
 70
     1
102
RTVSPost2010Prop31
280
     0
102
RTVSPost2010PropOp31
 70
     1
102
RTVSPost2010Prop32
280
     0
102
RTVSPost2010PropOp32
 70
     1
102
RTVSPost2010Prop33
280
     0
102
RTVSPost2010PropOp33
 70
     1
102
RTVSPost2010Prop34
280
     0
102
RTVSPost2010PropOp34
 70
     1
102
RTVSPost2010Prop35
280
     0
102
RTVSPost2010PropOp35
 70
     1
102
RTVSPost2010Prop36
280
     0
102
RTVSPost2010PropOp36
 70
     1
102
RTVSPost2010Prop37
 90
       50
102
RTVSPost2010PropOp37
 70
     1
102
RTVSPost2010Prop38
140
0.0
102
RTVSPost2010PropOp38
 70
     1
102
RTVSPost2010Prop39
140
1.0
102
RTVSPost2010PropOp39
 70
     1
102
RTVSPost2010Prop40
 90
        0
102
RTVSPost2010PropOp40
 70
     1
102
RTVSPost2010Prop41ColorIndex
 90
      178
102
RTVSPost2010Prop41ColorRGB
 90
        0
102
RTVSPost2010PropOp41
 70
     1
102
RTVSPost2010Prop42
 90
       50
102
RTVSPost2010PropOp42
 70
     1
102
RTVSPost2010Prop43
 90
        3
102
RTVSPost2010PropOp43
 70
     1
102
RTVSPost2010Prop44ColorIndex
 90
        5
102
RTVSPost2010Prop44ColorRGB
 90
      255
102
RTVSPost2010PropOp44
 70
     1
102
RTVSPost2010Prop45
280
     0
102
RTVSPost2010PropOp45
 70
     1
102
RTVSPost2010Prop46
 90
       50
102
RTVSPost2010PropOp46
 70
     1
102
RTVSPost2010Prop47
 90
       50
102
RTVSPost2010PropOp47
 70
     1
102
RTVSPost2010Prop48
 90
       50
102
RTVSPost2010PropOp48
 70
     1
102
RTVSPost2010Prop49
280
     0
102
RTVSPost2010PropOp49
 70
     1
102
RTVSPost2010Prop50
 90
       50
102
RTVSPost2010PropOp50
 70
     1
102
RTVSPost2010Prop51ColorIndex
 90
      256
102
RTVSPost2010Prop51ColorRGB
 90
-16777216
102
RTVSPost2010PropOp51
 70
     0
102
RTVSPost2010Prop52
140
1.0
102
RTVSPost2010PropOp52
 70
     0
102
RTVSPost2010Prop53
 90
        2
102
RTVSPost2010PropOp53
 70
     1
102
RTVSPost2010Prop54
  1
strokes_ogs.tif
102
RTVSPost2010PropOp54
 70
     1
102
RTVSPost2010Prop55
280
     0
102
RTVSPost2010PropOp55
 70
     1
102
RTVSPost2010Prop56
140
1.0
102
RTVSPost2010PropOp56
 70
     1
102
RTVSPost2010Prop57
140
1.0
102
RTVSPost2010PropOp57
 70
     1
  0
XRECORD
  5
378
102
{ACAD_REACTORS
330
377
102
}
330
377
100
AcDbXrecord
280
     1
102
RTVSPropertyOp0
 70
     1
102
RTVSPropertyOp1
 70
     1
102
RTVSPropertyOp2
 70
     1
102
RTVSPropertyOp3
 70
     1
102
RTVSPropertyOp4
 70
     1
102
RTVSPropertyOp5
 70
     1
102
RTVSPropertyOp6
 70
     1
102
RTVSPropertyOp7
 70
     1
102
RTVSPropertyOp8
 70
     1
102
RTVSPropertyOp9
 70
     1
102
RTVSPropertyOp10
 70
     1
102
RTVSPropertyOp11
 70
     1
102
RTVSPropertyOp12
 70
     1
102
RTVSPropertyOp13
 70
     1
102
RTVSPropertyOp14
 70
     1
102
RTVSPropertyOp15
 70
     1
102
RTVSPropertyOp16
 70
     1
102
RTVSPropertyOp17
 70
     1
102
RTVSPropertyOp18
 70
     1
102
RTVSPropertyOp19
 70
     1
102
RTVSPropertyOp20
 70
     1
102
RTVSPropertyOp21
 70
     1
102
RTVSPropertyOp22
 70
     1
102
RTVSPropertyOp23
 70
     1
102
RTVSPropertyOp24
 70
     1
102
RTVSPropertyOp25
 70
     1
102
RTVSPropertyOp26
 70
     1
102
RTVSPropertyOp27
 70
     1
102
RTVSPropertyOp28
 70
     1
102
RTVSPropertyOp29
 70
     1
102
RTVSPropertyOp30
 70
     1
102
RTVSPropertyOp31
 70
     1
102
RTVSPropertyOp32
 70
     1
102
RTVSPropertyOp33
 70
     1
102
RTVSPropertyOp34
 70
     1
102
RTVSPropertyOp35
 70
     1
102
RTVSPropertyOp36
 70
     1
102
RTVSPropertyOp37
 70
     1
102
RTVSPropertyOp38
 70
     1
102
RTVSPropertyOp39
 70
     1
102
RTVSPropertyOp40
 70
     1
102
RTVSPropertyOp41
 70
     1
102
RTVSPropertyOp42
 70
     1
102
RTVSPropertyOp43
 70
     1
102
RTVSPropertyOp44
 70
     1
102
RTVSPropertyOp45
 70
     1
102
RTVSPropertyOp46
 70
     1
102
RTVSPropertyOp47
 70
     1
102
RTVSPropertyOp48
 70
     1
102
RTVSPropertyOp49
 70
     1
102
RTVSPropertyOp50
 70
     1
102
RTVSPropertyOp51
 70
     0
102
RTVSPropertyOp52
 70
     0
102
RTVSPropertyOp53
 70
     1
102
RTVSPropertyOp54
 70
     1
102
RTVSPropertyOp55
 70
     1
102
RTVSPropertyOp56
 70
     1
102
RTVSPropertyOp57
 70
     1
102
RTVSPost2010Prop28
280
     0
102
RTVSPost2010PropOp28
 70
     1
102
RTVSPost2010Prop29
280
     1
102
RTVSPost2010PropOp29
 70
     1
102
RTVSPost2010Prop30
280
     1
102
RTVSPost2010PropOp30
 70
     1
102
RTVSPost2010Prop31
280
     0
102
RTVSPost2010PropOp31
 70
     1
102
RTVSPost2010Prop32
280
     0
102
RTVSPost2010PropOp32
 70
     1
102
RTVSPost2010Prop33
280
     0
102
RTVSPost2010PropOp33
 70
     1
102
RTVSPost2010Prop34
280
     0
102
RTVSPost2010PropOp34
 70
     1
102
RTVSPost2010Prop35
280
     0
102
RTVSPost2010PropOp35
 70
     1
102
RTVSPost2010Prop36
280
     0
102
RTVSPost2010PropOp36
 70
     1
102
RTVSPost2010Prop37
 90
       50
102
RTVSPost2010PropOp37
 70
     1
102
RTVSPost2010Prop38
140
0.0
102
RTVSPost2010PropOp38
 70
     1
102
RTVSPost2010Prop39
140
1.0
102
RTVSPost2010PropOp39
 70
     1
102
RTVSPost2010Prop40
 90
        0
102
RTVSPost2010PropOp40
 70
     1
102
RTVSPost2010Prop41ColorIndex
 90
      178
102
RTVSPost2010Prop41ColorRGB
 90
        0
102
RTVSPost2010PropOp41
 70
     1
102
RTVSPost2010Prop42
 90
       50
102
RTVSPost2010PropOp42
 70
     1
102
RTVSPost2010Prop43
 90
        3
102
RTVSPost2010PropOp43
 70
     1
102
RTVSPost2010Prop44ColorIndex
 90
        5
102
RTVSPost2010Prop44ColorRGB
 90
      255
102
RTVSPost2010PropOp44
 70
     1
102
RTVSPost2010Prop45
280
     0
102
RTVSPost2010PropOp45
 70
     1
102
RTVSPost2010Prop46
 90
       50
102
RTVSPost2010PropOp46
 70
     1
102
RTVSPost2010Prop47
 90
       50
102
RTVSPost2010PropOp47
 70
     1
102
RTVSPost2010Prop48
 90
       50
102
RTVSPost2010PropOp48
 70
     1
102
RTVSPost2010Prop49
280
     0
102
RTVSPost2010PropOp49
 70
     1
102
RTVSPost2010Prop50
 90
       50
102
RTVSPost2010PropOp50
 70
     1
102
RTVSPost2010Prop51ColorIndex
 90
      256
102
RTVSPost2010Prop51ColorRGB
 90
-16777216
102
RTVSPost2010PropOp51
 70
     0
102
RTVSPost2010Prop52
140
1.0
102
RTVSPost2010PropOp52
 70
     0
102
RTVSPost2010Prop53
 90
        2
102
RTVSPost2010PropOp53
 70
     1
102
RTVSPost2010Prop54
  1
strokes_ogs.tif
102
RTVSPost2010PropOp54
 70
     1
102
RTVSPost2010Prop55
280
     0
102
RTVSPost2010PropOp55
 70
     1
102
RTVSPost2010Prop56
140
1.0
102
RTVSPost2010PropOp56
 70
     1
102
RTVSPost2010Prop57
140
1.0
102
RTVSPost2010PropOp57
 70
     1
  0
XRECORD
  5
380
102
{ACAD_REACTORS
330
37F
102
}
330
37F
100
AcDbXrecord
280
     1
102
RTVSPropertyOp0
 70
     1
102
RTVSPropertyOp1
 70
     1
102
RTVSPropertyOp2
 70
     1
102
RTVSPropertyOp3
 70
     1
102
RTVSPropertyOp4
 70
     1
102
RTVSPropertyOp5
 70
     1
102
RTVSPropertyOp6
 70
     1
102
RTVSPropertyOp7
 70
     1
102
RTVSPropertyOp8
 70
     1
102
RTVSPropertyOp9
 70
     1
102
RTVSPropertyOp10
 70
     1
102
RTVSPropertyOp11
 70
     1
102
RTVSPropertyOp12
 70
     1
102
RTVSPropertyOp13
 70
     1
102
RTVSPropertyOp14
 70
     1
102
RTVSPropertyOp15
 70
     1
102
RTVSPropertyOp16
 70
     1
102
RTVSPropertyOp17
 70
     1
102
RTVSPropertyOp18
 70
     1
102
RTVSPropertyOp19
 70
     1
102
RTVSPropertyOp20
 70
     1
102
RTVSPropertyOp21
 70
     1
102
RTVSPropertyOp22
 70
     1
102
RTVSPropertyOp23
 70
     1
102
RTVSPropertyOp24
 70
     1
102
RTVSPropertyOp25
 70
     1
102
RTVSPropertyOp26
 70
     1
102
RTVSPropertyOp27
 70
     1
102
RTVSPropertyOp28
 70
     1
102
RTVSPropertyOp29
 70
     1
102
RTVSPropertyOp30
 70
     1
102
RTVSPropertyOp31
 70
     1
102
RTVSPropertyOp32
 70
     1
102
RTVSPropertyOp33
 70
     1
102
RTVSPropertyOp34
 70
     1
102
RTVSPropertyOp35
 70
     1
102
RTVSPropertyOp36
 70
     1
102
RTVSPropertyOp37
 70
     1
102
RTVSPropertyOp38
 70
     1
102
RTVSPropertyOp39
 70
     1
102
RTVSPropertyOp40
 70
     1
102
RTVSPropertyOp41
 70
     1
102
RTVSPropertyOp42
 70
     1
102
RTVSPropertyOp43
 70
     1
102
RTVSPropertyOp44
 70
     1
102
RTVSPropertyOp45
 70
     1
102
RTVSPropertyOp46
 70
     1
102
RTVSPropertyOp47
 70
     1
102
RTVSPropertyOp48
 70
     1
102
RTVSPropertyOp49
 70
     1
102
RTVSPropertyOp50
 70
     1
102
RTVSPropertyOp51
 70
     0
102
RTVSPropertyOp52
 70
     0
102
RTVSPropertyOp53
 70
     1
102
RTVSPropertyOp54
 70
     1
102
RTVSPropertyOp55
 70
     1
102
RTVSPropertyOp56
 70
     1
102
RTVSPropertyOp57
 70
     1
102
RTVSPost2010Prop28
280
     0
102
RTVSPost2010PropOp28
 70
     1
102
RTVSPost2010Prop29
280
     1
102
RTVSPost2010PropOp29
 70
     1
102
RTVSPost2010Prop30
280
     1
102
RTVSPost2010PropOp30
 70
     1
102
RTVSPost2010Prop31
280
     0
102
RTVSPost2010PropOp31
 70
     1
102
RTVSPost2010Prop32
280
     0
102
RTVSPost2010PropOp32
 70
     1
102
RTVSPost2010Prop33
280
     0
102
RTVSPost2010PropOp33
 70
     1
102
RTVSPost2010Prop34
280
     0
102
RTVSPost2010PropOp34
 70
     1
102
RTVSPost2010Prop35
280
     0
102
RTVSPost2010PropOp35
 70
     1
102
RTVSPost2010Prop36
280
     0
102
RTVSPost2010PropOp36
 70
     1
102
RTVSPost2010Prop37
 90
       50
102
RTVSPost2010PropOp37
 70
     1
102
RTVSPost2010Prop38
140
0.0
102
RTVSPost2010PropOp38
 70
     1
102
RTVSPost2010Prop39
140
1.0
102
RTVSPost2010PropOp39
 70
     1
102
RTVSPost2010Prop40
 90
        0
102
RTVSPost2010PropOp40
 70
     1
102
RTVSPost2010Prop41ColorIndex
 90
      178
102
RTVSPost2010Prop41ColorRGB
 90
        0
102
RTVSPost2010PropOp41
 70
     1
102
RTVSPost2010Prop42
 90
       50
102
RTVSPost2010PropOp42
 70
     1
102
RTVSPost2010Prop43
 90
        3
102
RTVSPost2010PropOp43
 70
     1
102
RTVSPost2010Prop44ColorIndex
 90
        5
102
RTVSPost2010Prop44ColorRGB
 90
      255
102
RTVSPost2010PropOp44
 70
     1
102
RTVSPost2010Prop45
280
     0
102
RTVSPost2010PropOp45
 70
     1
102
RTVSPost2010Prop46
 90
       50
102
RTVSPost2010PropOp46
 70
     1
102
RTVSPost2010Prop47
 90
       50
102
RTVSPost2010PropOp47
 70
     1
102
RTVSPost2010Prop48
 90
       50
102
RTVSPost2010PropOp48
 70
     1
102
RTVSPost2010Prop49
280
     0
102
RTVSPost2010PropOp49
 70
     1
102
RTVSPost2010Prop50
 90
       50
102
RTVSPost2010PropOp50
 70
     1
102
RTVSPost2010Prop51ColorIndex
 90
      256
102
RTVSPost2010Prop51ColorRGB
 90
-16777216
102
RTVSPost2010PropOp51
 70
     0
102
RTVSPost2010Prop52
140
1.0
102
RTVSPost2010PropOp52
 70
     0
102
RTVSPost2010Prop53
 90
        2
102
RTVSPost2010PropOp53
 70
     1
102
RTVSPost2010Prop54
  1
strokes_ogs.tif
102
RTVSPost2010PropOp54
 70
     1
102
RTVSPost2010Prop55
280
     0
102
RTVSPost2010PropOp55
 70
     1
102
RTVSPost2010Prop56
140
1.0
102
RTVSPost2010PropOp56
 70
     1
102
RTVSPost2010Prop57
140
1.0
102
RTVSPost2010PropOp57
 70
     1
  0
XRECORD
  5
374
102
{ACAD_REACTORS
330
373
102
}
330
373
100
AcDbXrecord
280
     1
102
RTVSPropertyOp0
 70
     1
102
RTVSPropertyOp1
 70
     1
102
RTVSPropertyOp2
 70
     1
102
RTVSPropertyOp3
 70
     1
102
RTVSPropertyOp4
 70
     1
102
RTVSPropertyOp5
 70
     1
102
RTVSPropertyOp6
 70
     1
102
RTVSPropertyOp7
 70
     1
102
RTVSPropertyOp8
 70
     1
102
RTVSPropertyOp9
 70
     1
102
RTVSPropertyOp10
 70
     1
102
RTVSPropertyOp11
 70
     1
102
RTVSPropertyOp12
 70
     1
102
RTVSPropertyOp13
 70
     1
102
RTVSPropertyOp14
 70
     1
102
RTVSPropertyOp15
 70
     1
102
RTVSPropertyOp16
 70
     1
102
RTVSPropertyOp17
 70
     1
102
RTVSPropertyOp18
 70
     1
102
RTVSPropertyOp19
 70
     1
102
RTVSPropertyOp20
 70
     1
102
RTVSPropertyOp21
 70
     1
102
RTVSPropertyOp22
 70
     1
102
RTVSPropertyOp23
 70
     1
102
RTVSPropertyOp24
 70
     1
102
RTVSPropertyOp25
 70
     1
102
RTVSPropertyOp26
 70
     1
102
RTVSPropertyOp27
 70
     1
102
RTVSPropertyOp28
 70
     1
102
RTVSPropertyOp29
 70
     1
102
RTVSPropertyOp30
 70
     1
102
RTVSPropertyOp31
 70
     1
102
RTVSPropertyOp32
 70
     1
102
RTVSPropertyOp33
 70
     1
102
RTVSPropertyOp34
 70
     1
102
RTVSPropertyOp35
 70
     1
102
RTVSPropertyOp36
 70
     1
102
RTVSPropertyOp37
 70
     1
102
RTVSPropertyOp38
 70
     1
102
RTVSPropertyOp39
 70
     1
102
RTVSPropertyOp40
 70
     1
102
RTVSPropertyOp41
 70
     1
102
RTVSPropertyOp42
 70
     1
102
RTVSPropertyOp43
 70
     1
102
RTVSPropertyOp44
 70
     1
102
RTVSPropertyOp45
 70
     1
102
RTVSPropertyOp46
 70
     1
102
RTVSPropertyOp47
 70
     1
102
RTVSPropertyOp48
 70
     1
102
RTVSPropertyOp49
 70
     1
102
RTVSPropertyOp50
 70
     1
102
RTVSPropertyOp51
 70
     0
102
RTVSPropertyOp52
 70
     0
102
RTVSPropertyOp53
 70
     1
102
RTVSPropertyOp54
 70
     1
102
RTVSPropertyOp55
 70
     1
102
RTVSPropertyOp56
 70
     1
102
RTVSPropertyOp57
 70
     1
102
RTVSPost2010Prop28
280
     0
102
RTVSPost2010PropOp28
 70
     1
102
RTVSPost2010Prop29
280
     1
102
RTVSPost2010PropOp29
 70
     1
102
RTVSPost2010Prop30
280
     1
102
RTVSPost2010PropOp30
 70
     1
102
RTVSPost2010Prop31
280
     0
102
RTVSPost2010PropOp31
 70
     1
102
RTVSPost2010Prop32
280
     0
102
RTVSPost2010PropOp32
 70
     1
102
RTVSPost2010Prop33
280
     0
102
RTVSPost2010PropOp33
 70
     1
102
RTVSPost2010Prop34
280
     0
102
RTVSPost2010PropOp34
 70
     1
102
RTVSPost2010Prop35
280
     0
102
RTVSPost2010PropOp35
 70
     1
102
RTVSPost2010Prop36
280
     0
102
RTVSPost2010PropOp36
 70
     1
102
RTVSPost2010Prop37
 90
       50
102
RTVSPost2010PropOp37
 70
     1
102
RTVSPost2010Prop38
140
0.0
102
RTVSPost2010PropOp38
 70
     1
102
RTVSPost2010Prop39
140
1.0
102
RTVSPost2010PropOp39
 70
     1
102
RTVSPost2010Prop40
 90
        0
102
RTVSPost2010PropOp40
 70
     1
102
RTVSPost2010Prop41ColorIndex
 90
      178
102
RTVSPost2010Prop41ColorRGB
 90
        0
102
RTVSPost2010PropOp41
 70
     1
102
RTVSPost2010Prop42
 90
       50
102
RTVSPost2010PropOp42
 70
     1
102
RTVSPost2010Prop43
 90
        3
102
RTVSPost2010PropOp43
 70
     1
102
RTVSPost2010Prop44ColorIndex
 90
        5
102
RTVSPost2010Prop44ColorRGB
 90
      255
102
RTVSPost2010PropOp44
 70
     1
102
RTVSPost2010Prop45
280
     0
102
RTVSPost2010PropOp45
 70
     1
102
RTVSPost2010Prop46
 90
       50
102
RTVSPost2010PropOp46
 70
     1
102
RTVSPost2010Prop47
 90
       50
102
RTVSPost2010PropOp47
 70
     1
102
RTVSPost2010Prop48
 90
       50
102
RTVSPost2010PropOp48
 70
     1
102
RTVSPost2010Prop49
280
     0
102
RTVSPost2010PropOp49
 70
     1
102
RTVSPost2010Prop50
 90
       50
102
RTVSPost2010PropOp50
 70
     1
102
RTVSPost2010Prop51ColorIndex
 90
      256
102
RTVSPost2010Prop51ColorRGB
 90
-16777216
102
RTVSPost2010PropOp51
 70
     0
102
RTVSPost2010Prop52
140
1.0
102
RTVSPost2010PropOp52
 70
     0
102
RTVSPost2010Prop53
 90
        2
102
RTVSPost2010PropOp53
 70
     1
102
RTVSPost2010Prop54
  1
strokes_ogs.tif
102
RTVSPost2010PropOp54
 70
     1
102
RTVSPost2010Prop55
280
     0
102
RTVSPost2010PropOp55
 70
     1
102
RTVSPost2010Prop56
140
1.0
102
RTVSPost2010PropOp56
 70
     1
102
RTVSPost2010Prop57
140
1.0
102
RTVSPost2010PropOp57
 70
     1
  0
XRECORD
  5
376
102
{ACAD_REACTORS
330
375
102
}
330
375
100
AcDbXrecord
280
     1
102
RTVSPropertyOp0
 70
     1
102
RTVSPropertyOp1
 70
     1
102
RTVSPropertyOp2
 70
     1
102
RTVSPropertyOp3
 70
     1
102
RTVSPropertyOp4
 70
     1
102
RTVSPropertyOp5
 70
     1
102
RTVSPropertyOp6
 70
     1
102
RTVSPropertyOp7
 70
     1
102
RTVSPropertyOp8
 70
     1
102
RTVSPropertyOp9
 70
     1
102
RTVSPropertyOp10
 70
     1
102
RTVSPropertyOp11
 70
     1
102
RTVSPropertyOp12
 70
     1
102
RTVSPropertyOp13
 70
     1
102
RTVSPropertyOp14
 70
     1
102
RTVSPropertyOp15
 70
     1
102
RTVSPropertyOp16
 70
     1
102
RTVSPropertyOp17
 70
     1
102
RTVSPropertyOp18
 70
     1
102
RTVSPropertyOp19
 70
     1
102
RTVSPropertyOp20
 70
     1
102
RTVSPropertyOp21
 70
     1
102
RTVSPropertyOp22
 70
     1
102
RTVSPropertyOp23
 70
     1
102
RTVSPropertyOp24
 70
     1
102
RTVSPropertyOp25
 70
     1
102
RTVSPropertyOp26
 70
     1
102
RTVSPropertyOp27
 70
     1
102
RTVSPropertyOp28
 70
     1
102
RTVSPropertyOp29
 70
     1
102
RTVSPropertyOp30
 70
     1
102
RTVSPropertyOp31
 70
     1
102
RTVSPropertyOp32
 70
     1
102
RTVSPropertyOp33
 70
     1
102
RTVSPropertyOp34
 70
     1
102
RTVSPropertyOp35
 70
     1
102
RTVSPropertyOp36
 70
     1
102
RTVSPropertyOp37
 70
     1
102
RTVSPropertyOp38
 70
     1
102
RTVSPropertyOp39
 70
     1
102
RTVSPropertyOp40
 70
     1
102
RTVSPropertyOp41
 70
     1
102
RTVSPropertyOp42
 70
     1
102
RTVSPropertyOp43
 70
     1
102
RTVSPropertyOp44
 70
     1
102
RTVSPropertyOp45
 70
     1
102
RTVSPropertyOp46
 70
     1
102
RTVSPropertyOp47
 70
     1
102
RTVSPropertyOp48
 70
     1
102
RTVSPropertyOp49
 70
     1
102
RTVSPropertyOp50
 70
     1
102
RTVSPropertyOp51
 70
     0
102
RTVSPropertyOp52
 70
     0
102
RTVSPropertyOp53
 70
     1
102
RTVSPropertyOp54
 70
     1
102
RTVSPropertyOp55
 70
     1
102
RTVSPropertyOp56
 70
     1
102
RTVSPropertyOp57
 70
     1
102
RTVSPost2010Prop28
280
     0
102
RTVSPost2010PropOp28
 70
     1
102
RTVSPost2010Prop29
280
     1
102
RTVSPost2010PropOp29
 70
     1
102
RTVSPost2010Prop30
280
     1
102
RTVSPost2010PropOp30
 70
     1
102
RTVSPost2010Prop31
280
     0
102
RTVSPost2010PropOp31
 70
     1
102
RTVSPost2010Prop32
280
     0
102
RTVSPost2010PropOp32
 70
     1
102
RTVSPost2010Prop33
280
     0
102
RTVSPost2010PropOp33
 70
     1
102
RTVSPost2010Prop34
280
     0
102
RTVSPost2010PropOp34
 70
     1
102
RTVSPost2010Prop35
280
     0
102
RTVSPost2010PropOp35
 70
     1
102
RTVSPost2010Prop36
280
     0
102
RTVSPost2010PropOp36
 70
     1
102
RTVSPost2010Prop37
 90
       50
102
RTVSPost2010PropOp37
 70
     1
102
RTVSPost2010Prop38
140
0.0
102
RTVSPost2010PropOp38
 70
     1
102
RTVSPost2010Prop39
140
1.0
102
RTVSPost2010PropOp39
 70
     1
102
RTVSPost2010Prop40
 90
        0
102
RTVSPost2010PropOp40
 70
     1
102
RTVSPost2010Prop41ColorIndex
 90
      178
102
RTVSPost2010Prop41ColorRGB
 90
        0
102
RTVSPost2010PropOp41
 70
     1
102
RTVSPost2010Prop42
 90
       50
102
RTVSPost2010PropOp42
 70
     1
102
RTVSPost2010Prop43
 90
        3
102
RTVSPost2010PropOp43
 70
     1
102
RTVSPost2010Prop44ColorIndex
 90
        5
102
RTVSPost2010Prop44ColorRGB
 90
      255
102
RTVSPost2010PropOp44
 70
     1
102
RTVSPost2010Prop45
280
     0
102
RTVSPost2010PropOp45
 70
     1
102
RTVSPost2010Prop46
 90
       50
102
RTVSPost2010PropOp46
 70
     1
102
RTVSPost2010Prop47
 90
       50
102
RTVSPost2010PropOp47
 70
     1
102
RTVSPost2010Prop48
 90
       50
102
RTVSPost2010PropOp48
 70
     1
102
RTVSPost2010Prop49
280
     0
102
RTVSPost2010PropOp49
 70
     1
102
RTVSPost2010Prop50
 90
       50
102
RTVSPost2010PropOp50
 70
     1
102
RTVSPost2010Prop51ColorIndex
 90
      256
102
RTVSPost2010Prop51ColorRGB
 90
-16777216
102
RTVSPost2010PropOp51
 70
     0
102
RTVSPost2010Prop52
140
1.0
102
RTVSPost2010PropOp52
 70
     0
102
RTVSPost2010Prop53
 90
        2
102
RTVSPost2010PropOp53
 70
     1
102
RTVSPost2010Prop54
  1
strokes_ogs.tif
102
RTVSPost2010PropOp54
 70
     1
102
RTVSPost2010Prop55
280
     0
102
RTVSPost2010PropOp55
 70
     1
102
RTVSPost2010Prop56
140
1.0
102
RTVSPost2010PropOp56
 70
     1
102
RTVSPost2010Prop57
140
1.0
102
RTVSPost2010PropOp57
 70
     1
  0
XRECORD
  5
386
102
{ACAD_REACTORS
330
385
102
}
330
385
100
AcDbXrecord
280
     1
102
RTVSPropertyOp0
 70
     0
102
RTVSPropertyOp1
 70
     0
102
RTVSPropertyOp2
 70
     0
102
RTVSPropertyOp3
 70
     0
102
RTVSPropertyOp4
 70
     0
102
RTVSPropertyOp5
 70
     0
102
RTVSPropertyOp6
 70
     0
102
RTVSPropertyOp7
 70
     0
102
RTVSPropertyOp8
 70
     0
102
RTVSPropertyOp9
 70
     0
102
RTVSPropertyOp10
 70
     0
102
RTVSPropertyOp11
 70
     0
102
RTVSPropertyOp12
 70
     0
102
RTVSPropertyOp13
 70
     0
102
RTVSPropertyOp14
 70
     2
102
RTVSPropertyOp15
 70
     0
102
RTVSPropertyOp16
 70
     0
102
RTVSPropertyOp17
 70
     0
102
RTVSPropertyOp18
 70
     0
102
RTVSPropertyOp19
 70
     0
102
RTVSPropertyOp20
 70
     0
102
RTVSPropertyOp21
 70
     0
102
RTVSPropertyOp22
 70
     0
102
RTVSPropertyOp23
 70
     0
102
RTVSPropertyOp24
 70
     0
102
RTVSPropertyOp25
 70
     0
102
RTVSPropertyOp26
 70
     0
102
RTVSPropertyOp27
 70
     0
102
RTVSPropertyOp28
 70
     0
102
RTVSPropertyOp29
 70
     0
102
RTVSPropertyOp30
 70
     0
102
RTVSPropertyOp31
 70
     0
102
RTVSPropertyOp32
 70
     0
102
RTVSPropertyOp33
 70
     0
102
RTVSPropertyOp34
 70
     0
102
RTVSPropertyOp35
 70
     0
102
RTVSPropertyOp36
 70
     0
102
RTVSPropertyOp37
 70
     0
102
RTVSPropertyOp38
 70
     0
102
RTVSPropertyOp39
 70
     0
102
RTVSPropertyOp40
 70
     0
102
RTVSPropertyOp41
 70
     0
102
RTVSPropertyOp42
 70
     0
102
RTVSPropertyOp43
 70
     0
102
RTVSPropertyOp44
 70
     0
102
RTVSPropertyOp45
 70
     0
102
RTVSPropertyOp46
 70
     0
102
RTVSPropertyOp47
 70
     0
102
RTVSPropertyOp48
 70
     0
102
RTVSPropertyOp49
 70
     0
102
RTVSPropertyOp50
 70
     0
102
RTVSPropertyOp51
 70
     0
102
RTVSPropertyOp52
 70
     0
102
RTVSPropertyOp53
 70
     0
102
RTVSPropertyOp54
 70
     0
102
RTVSPropertyOp55
 70
     0
102
RTVSPropertyOp56
 70
     0
102
RTVSPropertyOp57
 70
     0
102
RTVSPost2010Prop28
280
     0
102
RTVSPost2010PropOp28
 70
     0
102
RTVSPost2010Prop29
280
     1
102
RTVSPost2010PropOp29
 70
     0
102
RTVSPost2010Prop30
280
     1
102
RTVSPost2010PropOp30
 70
     0
102
RTVSPost2010Prop31
280
     0
102
RTVSPost2010PropOp31
 70
     0
102
RTVSPost2010Prop32
280
     0
102
RTVSPost2010PropOp32
 70
     0
102
RTVSPost2010Prop33
280
     0
102
RTVSPost2010PropOp33
 70
     0
102
RTVSPost2010Prop34
280
     0
102
RTVSPost2010PropOp34
 70
     0
102
RTVSPost2010Prop35
280
     0
102
RTVSPost2010PropOp35
 70
     0
102
RTVSPost2010Prop36
280
     0
102
RTVSPost2010PropOp36
 70
     0
102
RTVSPost2010Prop37
 90
       50
102
RTVSPost2010PropOp37
 70
     0
102
RTVSPost2010Prop38
140
0.0
102
RTVSPost2010PropOp38
 70
     0
102
RTVSPost2010Prop39
140
1.0
102
RTVSPost2010PropOp39
 70
     0
102
RTVSPost2010Prop40
 90
        0
102
RTVSPost2010PropOp40
 70
     0
102
RTVSPost2010Prop41ColorIndex
 90
      178
102
RTVSPost2010Prop41ColorRGB
 90
        0
102
RTVSPost2010PropOp41
 70
     0
102
RTVSPost2010Prop42
 90
       50
102
RTVSPost2010PropOp42
 70
     0
102
RTVSPost2010Prop43
 90
        3
102
RTVSPost2010PropOp43
 70
     0
102
RTVSPost2010Prop44ColorIndex
 90
        5
102
RTVSPost2010Prop44ColorRGB
 90
      255
102
RTVSPost2010PropOp44
 70
     0
102
RTVSPost2010Prop45
280
     0
102
RTVSPost2010PropOp45
 70
     0
102
RTVSPost2010Prop46
 90
       50
102
RTVSPost2010PropOp46
 70
     0
102
RTVSPost2010Prop47
 90
       50
102
RTVSPost2010PropOp47
 70
     0
102
RTVSPost2010Prop48
 90
       50
102
RTVSPost2010PropOp48
 70
     0
102
RTVSPost2010Prop49
280
     0
102
RTVSPost2010PropOp49
 70
     0
102
RTVSPost2010Prop50
 90
       50
102
RTVSPost2010PropOp50
 70
     0
102
RTVSPost2010Prop51ColorIndex
 90
      256
102
RTVSPost2010Prop51ColorRGB
 90
-16777216
102
RTVSPost2010PropOp51
 70
     0
102
RTVSPost2010Prop52
140
1.0
102
RTVSPost2010PropOp52
 70
     0
102
RTVSPost2010Prop53
 90
        2
102
RTVSPost2010PropOp53
 70
     0
102
RTVSPost2010Prop54
  1
strokes_ogs.tif
102
RTVSPost2010PropOp54
 70
     0
102
RTVSPost2010Prop55
280
     0
102
RTVSPost2010PropOp55
 70
     0
102
RTVSPost2010Prop56
140
1.0
102
RTVSPost2010PropOp56
 70
     0
102
RTVSPost2010Prop57
140
1.0
102
RTVSPost2010PropOp57
 70
     0
  0
XRECORD
  5
37E
102
{ACAD_REACTORS
330
37D
102
}
330
37D
100
AcDbXrecord
280
     1
102
RTVSPropertyOp0
 70
     1
102
RTVSPropertyOp1
 70
     1
102
RTVSPropertyOp2
 70
     1
102
RTVSPropertyOp3
 70
     1
102
RTVSPropertyOp4
 70
     1
102
RTVSPropertyOp5
 70
     1
102
RTVSPropertyOp6
 70
     1
102
RTVSPropertyOp7
 70
     1
102
RTVSPropertyOp8
 70
     1
102
RTVSPropertyOp9
 70
     1
102
RTVSPropertyOp10
 70
     1
102
RTVSPropertyOp11
 70
     1
102
RTVSPropertyOp12
 70
     1
102
RTVSPropertyOp13
 70
     1
102
RTVSPropertyOp14
 70
     1
102
RTVSPropertyOp15
 70
     1
102
RTVSPropertyOp16
 70
     1
102
RTVSPropertyOp17
 70
     1
102
RTVSPropertyOp18
 70
     1
102
RTVSPropertyOp19
 70
     1
102
RTVSPropertyOp20
 70
     1
102
RTVSPropertyOp21
 70
     1
102
RTVSPropertyOp22
 70
     1
102
RTVSPropertyOp23
 70
     1
102
RTVSPropertyOp24
 70
     1
102
RTVSPropertyOp25
 70
     1
102
RTVSPropertyOp26
 70
     1
102
RTVSPropertyOp27
 70
     1
102
RTVSPropertyOp28
 70
     1
102
RTVSPropertyOp29
 70
     1
102
RTVSPropertyOp30
 70
     1
102
RTVSPropertyOp31
 70
     1
102
RTVSPropertyOp32
 70
     1
102
RTVSPropertyOp33
 70
     1
102
RTVSPropertyOp34
 70
     1
102
RTVSPropertyOp35
 70
     1
102
RTVSPropertyOp36
 70
     1
102
RTVSPropertyOp37
 70
     1
102
RTVSPropertyOp38
 70
     1
102
RTVSPropertyOp39
 70
     1
102
RTVSPropertyOp40
 70
     1
102
RTVSPropertyOp41
 70
     1
102
RTVSPropertyOp42
 70
     1
102
RTVSPropertyOp43
 70
     1
102
RTVSPropertyOp44
 70
     1
102
RTVSPropertyOp45
 70
     1
102
RTVSPropertyOp46
 70
     1
102
RTVSPropertyOp47
 70
     1
102
RTVSPropertyOp48
 70
     1
102
RTVSPropertyOp49
 70
     1
102
RTVSPropertyOp50
 70
     1
102
RTVSPropertyOp51
 70
     0
102
RTVSPropertyOp52
 70
     0
102
RTVSPropertyOp53
 70
     1
102
RTVSPropertyOp54
 70
     1
102
RTVSPropertyOp55
 70
     1
102
RTVSPropertyOp56
 70
     1
102
RTVSPropertyOp57
 70
     1
102
RTVSPost2010Prop28
280
     0
102
RTVSPost2010PropOp28
 70
     1
102
RTVSPost2010Prop29
280
     1
102
RTVSPost2010PropOp29
 70
     1
102
RTVSPost2010Prop30
280
     1
102
RTVSPost2010PropOp30
 70
     1
102
RTVSPost2010Prop31
280
     0
102
RTVSPost2010PropOp31
 70
     1
102
RTVSPost2010Prop32
280
     0
102
RTVSPost2010PropOp32
 70
     1
102
RTVSPost2010Prop33
280
     0
102
RTVSPost2010PropOp33
 70
     1
102
RTVSPost2010Prop34
280
     0
102
RTVSPost2010PropOp34
 70
     1
102
RTVSPost2010Prop35
280
     0
102
RTVSPost2010PropOp35
 70
     1
102
RTVSPost2010Prop36
280
     0
102
RTVSPost2010PropOp36
 70
     1
102
RTVSPost2010Prop37
 90
       50
102
RTVSPost2010PropOp37
 70
     1
102
RTVSPost2010Prop38
140
0.0
102
RTVSPost2010PropOp38
 70
     1
102
RTVSPost2010Prop39
140
1.0
102
RTVSPost2010PropOp39
 70
     1
102
RTVSPost2010Prop40
 90
        0
102
RTVSPost2010PropOp40
 70
     1
102
RTVSPost2010Prop41ColorIndex
 90
      178
102
RTVSPost2010Prop41ColorRGB
 90
        0
102
RTVSPost2010PropOp41
 70
     1
102
RTVSPost2010Prop42
 90
       50
102
RTVSPost2010PropOp42
 70
     1
102
RTVSPost2010Prop43
 90
        3
102
RTVSPost2010PropOp43
 70
     1
102
RTVSPost2010Prop44ColorIndex
 90
        5
102
RTVSPost2010Prop44ColorRGB
 90
      255
102
RTVSPost2010PropOp44
 70
     1
102
RTVSPost2010Prop45
280
     0
102
RTVSPost2010PropOp45
 70
     1
102
RTVSPost2010Prop46
 90
       50
102
RTVSPost2010PropOp46
 70
     1
102
RTVSPost2010Prop47
 90
       50
102
RTVSPost2010PropOp47
 70
     1
102
RTVSPost2010Prop48
 90
       50
102
RTVSPost2010PropOp48
 70
     1
102
RTVSPost2010Prop49
280
     0
102
RTVSPost2010PropOp49
 70
     1
102
RTVSPost2010Prop50
 90
       50
102
RTVSPost2010PropOp50
 70
     1
102
RTVSPost2010Prop51ColorIndex
 90
      256
102
RTVSPost2010Prop51ColorRGB
 90
-16777216
102
RTVSPost2010PropOp51
 70
     0
102
RTVSPost2010Prop52
140
1.0
102
RTVSPost2010PropOp52
 70
     0
102
RTVSPost2010Prop53
 90
        2
102
RTVSPost2010PropOp53
 70
     1
102
RTVSPost2010Prop54
  1
strokes_ogs.tif
102
RTVSPost2010PropOp54
 70
     1
102
RTVSPost2010Prop55
280
     0
102
RTVSPost2010PropOp55
 70
     1
102
RTVSPost2010Prop56
140
1.0
102
RTVSPost2010PropOp56
 70
     1
102
RTVSPost2010Prop57
140
1.0
102
RTVSPost2010PropOp57
 70
     1
  0
XRECORD
  5
362
102
{ACAD_REACTORS
330
361
102
}
330
361
100
AcDbXrecord
280
     1
102
RTVSPropertyOp0
 70
     1
102
RTVSPropertyOp1
 70
     1
102
RTVSPropertyOp2
 70
     1
102
RTVSPropertyOp3
 70
     1
102
RTVSPropertyOp4
 70
     1
102
RTVSPropertyOp5
 70
     1
102
RTVSPropertyOp6
 70
     1
102
RTVSPropertyOp7
 70
     1
102
RTVSPropertyOp8
 70
     1
102
RTVSPropertyOp9
 70
     1
102
RTVSPropertyOp10
 70
     1
102
RTVSPropertyOp11
 70
     1
102
RTVSPropertyOp12
 70
     1
102
RTVSPropertyOp13
 70
     1
102
RTVSPropertyOp14
 70
     1
102
RTVSPropertyOp15
 70
     1
102
RTVSPropertyOp16
 70
     1
102
RTVSPropertyOp17
 70
     1
102
RTVSPropertyOp18
 70
     1
102
RTVSPropertyOp19
 70
     1
102
RTVSPropertyOp20
 70
     1
102
RTVSPropertyOp21
 70
     1
102
RTVSPropertyOp22
 70
     1
102
RTVSPropertyOp23
 70
     1
102
RTVSPropertyOp24
 70
     1
102
RTVSPropertyOp25
 70
     1
102
RTVSPropertyOp26
 70
     1
102
RTVSPropertyOp27
 70
     1
102
RTVSPropertyOp28
 70
     1
102
RTVSPropertyOp29
 70
     1
102
RTVSPropertyOp30
 70
     1
102
RTVSPropertyOp31
 70
     1
102
RTVSPropertyOp32
 70
     1
102
RTVSPropertyOp33
 70
     1
102
RTVSPropertyOp34
 70
     1
102
RTVSPropertyOp35
 70
     1
102
RTVSPropertyOp36
 70
     1
102
RTVSPropertyOp37
 70
     1
102
RTVSPropertyOp38
 70
     1
102
RTVSPropertyOp39
 70
     1
102
RTVSPropertyOp40
 70
     1
102
RTVSPropertyOp41
 70
     1
102
RTVSPropertyOp42
 70
     1
102
RTVSPropertyOp43
 70
     1
102
RTVSPropertyOp44
 70
     1
102
RTVSPropertyOp45
 70
     1
102
RTVSPropertyOp46
 70
     1
102
RTVSPropertyOp47
 70
     1
102
RTVSPropertyOp48
 70
     1
102
RTVSPropertyOp49
 70
     1
102
RTVSPropertyOp50
 70
     1
102
RTVSPropertyOp51
 70
     0
102
RTVSPropertyOp52
 70
     0
102
RTVSPropertyOp53
 70
     1
102
RTVSPropertyOp54
 70
     1
102
RTVSPropertyOp55
 70
     1
102
RTVSPropertyOp56
 70
     1
102
RTVSPropertyOp57
 70
     1
102
RTVSPost2010Prop28
280
     0
102
RTVSPost2010PropOp28
 70
     1
102
RTVSPost2010Prop29
280
     1
102
RTVSPost2010PropOp29
 70
     1
102
RTVSPost2010Prop30
280
     1
102
RTVSPost2010PropOp30
 70
     1
102
RTVSPost2010Prop31
280
     0
102
RTVSPost2010PropOp31
 70
     1
102
RTVSPost2010Prop32
280
     0
102
RTVSPost2010PropOp32
 70
     1
102
RTVSPost2010Prop33
280
     0
102
RTVSPost2010PropOp33
 70
     1
102
RTVSPost2010Prop34
280
     0
102
RTVSPost2010PropOp34
 70
     1
102
RTVSPost2010Prop35
280
     0
102
RTVSPost2010PropOp35
 70
     1
102
RTVSPost2010Prop36
280
     0
102
RTVSPost2010PropOp36
 70
     1
102
RTVSPost2010Prop37
 90
       50
102
RTVSPost2010PropOp37
 70
     1
102
RTVSPost2010Prop38
140
0.0
102
RTVSPost2010PropOp38
 70
     1
102
RTVSPost2010Prop39
140
1.0
102
RTVSPost2010PropOp39
 70
     1
102
RTVSPost2010Prop40
 90
        0
102
RTVSPost2010PropOp40
 70
     1
102
RTVSPost2010Prop41ColorIndex
 90
      178
102
RTVSPost2010Prop41ColorRGB
 90
        0
102
RTVSPost2010PropOp41
 70
     1
102
RTVSPost2010Prop42
 90
       50
102
RTVSPost2010PropOp42
 70
     1
102
RTVSPost2010Prop43
 90
        3
102
RTVSPost2010PropOp43
 70
     1
102
RTVSPost2010Prop44ColorIndex
 90
        5
102
RTVSPost2010Prop44ColorRGB
 90
      255
102
RTVSPost2010PropOp44
 70
     1
102
RTVSPost2010Prop45
280
     0
102
RTVSPost2010PropOp45
 70
     1
102
RTVSPost2010Prop46
 90
       50
102
RTVSPost2010PropOp46
 70
     1
102
RTVSPost2010Prop47
 90
       50
102
RTVSPost2010PropOp47
 70
     1
102
RTVSPost2010Prop48
 90
       50
102
RTVSPost2010PropOp48
 70
     1
102
RTVSPost2010Prop49
280
     0
102
RTVSPost2010PropOp49
 70
     1
102
RTVSPost2010Prop50
 90
       50
102
RTVSPost2010PropOp50
 70
     1
102
RTVSPost2010Prop51ColorIndex
 90
      256
102
RTVSPost2010Prop51ColorRGB
 90
-16777216
102
RTVSPost2010PropOp51
 70
     0
102
RTVSPost2010Prop52
140
1.0
102
RTVSPost2010PropOp52
 70
     0
102
RTVSPost2010Prop53
 90
        2
102
RTVSPost2010PropOp53
 70
     1
102
RTVSPost2010Prop54
  1
strokes_ogs.tif
102
RTVSPost2010PropOp54
 70
     1
102
RTVSPost2010Prop55
280
     0
102
RTVSPost2010PropOp55
 70
     1
102
RTVSPost2010Prop56
140
1.0
102
RTVSPost2010PropOp56
 70
     1
102
RTVSPost2010Prop57
140
1.0
102
RTVSPost2010PropOp57
 70
     1
  0
XRECORD
  5
364
102
{ACAD_REACTORS
330
363
102
}
330
363
100
AcDbXrecord
280
     1
102
RTVSPropertyOp0
 70
     1
102
RTVSPropertyOp1
 70
     1
102
RTVSPropertyOp2
 70
     1
102
RTVSPropertyOp3
 70
     1
102
RTVSPropertyOp4
 70
     1
102
RTVSPropertyOp5
 70
     1
102
RTVSPropertyOp6
 70
     1
102
RTVSPropertyOp7
 70
     1
102
RTVSPropertyOp8
 70
     1
102
RTVSPropertyOp9
 70
     1
102
RTVSPropertyOp10
 70
     1
102
RTVSPropertyOp11
 70
     1
102
RTVSPropertyOp12
 70
     1
102
RTVSPropertyOp13
 70
     1
102
RTVSPropertyOp14
 70
     1
102
RTVSPropertyOp15
 70
     1
102
RTVSPropertyOp16
 70
     1
102
RTVSPropertyOp17
 70
     1
102
RTVSPropertyOp18
 70
     1
102
RTVSPropertyOp19
 70
     1
102
RTVSPropertyOp20
 70
     1
102
RTVSPropertyOp21
 70
     1
102
RTVSPropertyOp22
 70
     1
102
RTVSPropertyOp23
 70
     1
102
RTVSPropertyOp24
 70
     1
102
RTVSPropertyOp25
 70
     1
102
RTVSPropertyOp26
 70
     1
102
RTVSPropertyOp27
 70
     1
102
RTVSPropertyOp28
 70
     1
102
RTVSPropertyOp29
 70
     1
102
RTVSPropertyOp30
 70
     1
102
RTVSPropertyOp31
 70
     1
102
RTVSPropertyOp32
 70
     1
102
RTVSPropertyOp33
 70
     1
102
RTVSPropertyOp34
 70
     1
102
RTVSPropertyOp35
 70
     1
102
RTVSPropertyOp36
 70
     1
102
RTVSPropertyOp37
 70
     1
102
RTVSPropertyOp38
 70
     1
102
RTVSPropertyOp39
 70
     1
102
RTVSPropertyOp40
 70
     1
102
RTVSPropertyOp41
 70
     1
102
RTVSPropertyOp42
 70
     1
102
RTVSPropertyOp43
 70
     1
102
RTVSPropertyOp44
 70
     1
102
RTVSPropertyOp45
 70
     1
102
RTVSPropertyOp46
 70
     1
102
RTVSPropertyOp47
 70
     1
102
RTVSPropertyOp48
 70
     1
102
RTVSPropertyOp49
 70
     1
102
RTVSPropertyOp50
 70
     1
102
RTVSPropertyOp51
 70
     0
102
RTVSPropertyOp52
 70
     0
102
RTVSPropertyOp53
 70
     1
102
RTVSPropertyOp54
 70
     1
102
RTVSPropertyOp55
 70
     1
102
RTVSPropertyOp56
 70
     1
102
RTVSPropertyOp57
 70
     1
102
RTVSPost2010Prop28
280
     0
102
RTVSPost2010PropOp28
 70
     1
102
RTVSPost2010Prop29
280
     1
102
RTVSPost2010PropOp29
 70
     1
102
RTVSPost2010Prop30
280
     1
102
RTVSPost2010PropOp30
 70
     1
102
RTVSPost2010Prop31
280
     0
102
RTVSPost2010PropOp31
 70
     1
102
RTVSPost2010Prop32
280
     0
102
RTVSPost2010PropOp32
 70
     1
102
RTVSPost2010Prop33
280
     0
102
RTVSPost2010PropOp33
 70
     1
102
RTVSPost2010Prop34
280
     0
102
RTVSPost2010PropOp34
 70
     1
102
RTVSPost2010Prop35
280
     0
102
RTVSPost2010PropOp35
 70
     1
102
RTVSPost2010Prop36
280
     0
102
RTVSPost2010PropOp36
 70
     1
102
RTVSPost2010Prop37
 90
       50
102
RTVSPost2010PropOp37
 70
     1
102
RTVSPost2010Prop38
140
0.0
102
RTVSPost2010PropOp38
 70
     1
102
RTVSPost2010Prop39
140
1.0
102
RTVSPost2010PropOp39
 70
     1
102
RTVSPost2010Prop40
 90
        0
102
RTVSPost2010PropOp40
 70
     1
102
RTVSPost2010Prop41ColorIndex
 90
      178
102
RTVSPost2010Prop41ColorRGB
 90
        0
102
RTVSPost2010PropOp41
 70
     1
102
RTVSPost2010Prop42
 90
       50
102
RTVSPost2010PropOp42
 70
     1
102
RTVSPost2010Prop43
 90
        3
102
RTVSPost2010PropOp43
 70
     1
102
RTVSPost2010Prop44ColorIndex
 90
        5
102
RTVSPost2010Prop44ColorRGB
 90
      255
102
RTVSPost2010PropOp44
 70
     1
102
RTVSPost2010Prop45
280
     0
102
RTVSPost2010PropOp45
 70
     1
102
RTVSPost2010Prop46
 90
       50
102
RTVSPost2010PropOp46
 70
     1
102
RTVSPost2010Prop47
 90
       50
102
RTVSPost2010PropOp47
 70
     1
102
RTVSPost2010Prop48
 90
       50
102
RTVSPost2010PropOp48
 70
     1
102
RTVSPost2010Prop49
280
     0
102
RTVSPost2010PropOp49
 70
     1
102
RTVSPost2010Prop50
 90
       50
102
RTVSPost2010PropOp50
 70
     1
102
RTVSPost2010Prop51ColorIndex
 90
      256
102
RTVSPost2010Prop51ColorRGB
 90
-16777216
102
RTVSPost2010PropOp51
 70
     0
102
RTVSPost2010Prop52
140
1.0
102
RTVSPost2010PropOp52
 70
     0
102
RTVSPost2010Prop53
 90
        2
102
RTVSPost2010PropOp53
 70
     1
102
RTVSPost2010Prop54
  1
strokes_ogs.tif
102
RTVSPost2010PropOp54
 70
     1
102
RTVSPost2010Prop55
280
     0
102
RTVSPost2010PropOp55
 70
     1
102
RTVSPost2010Prop56
140
1.0
102
RTVSPost2010PropOp56
 70
     1
102
RTVSPost2010Prop57
140
1.0
102
RTVSPost2010PropOp57
 70
     1
  0
XRECORD
  5
366
102
{ACAD_REACTORS
330
365
102
}
330
365
100
AcDbXrecord
280
     1
102
RTVSPropertyOp0
 70
     1
102
RTVSPropertyOp1
 70
     1
102
RTVSPropertyOp2
 70
     1
102
RTVSPropertyOp3
 70
     1
102
RTVSPropertyOp4
 70
     1
102
RTVSPropertyOp5
 70
     1
102
RTVSPropertyOp6
 70
     1
102
RTVSPropertyOp7
 70
     1
102
RTVSPropertyOp8
 70
     1
102
RTVSPropertyOp9
 70
     1
102
RTVSPropertyOp10
 70
     1
102
RTVSPropertyOp11
 70
     1
102
RTVSPropertyOp12
 70
     1
102
RTVSPropertyOp13
 70
     1
102
RTVSPropertyOp14
 70
     1
102
RTVSPropertyOp15
 70
     1
102
RTVSPropertyOp16
 70
     1
102
RTVSPropertyOp17
 70
     1
102
RTVSPropertyOp18
 70
     1
102
RTVSPropertyOp19
 70
     1
102
RTVSPropertyOp20
 70
     1
102
RTVSPropertyOp21
 70
     1
102
RTVSPropertyOp22
 70
     1
102
RTVSPropertyOp23
 70
     1
102
RTVSPropertyOp24
 70
     1
102
RTVSPropertyOp25
 70
     1
102
RTVSPropertyOp26
 70
     1
102
RTVSPropertyOp27
 70
     1
102
RTVSPropertyOp28
 70
     1
102
RTVSPropertyOp29
 70
     1
102
RTVSPropertyOp30
 70
     1
102
RTVSPropertyOp31
 70
     1
102
RTVSPropertyOp32
 70
     1
102
RTVSPropertyOp33
 70
     1
102
RTVSPropertyOp34
 70
     1
102
RTVSPropertyOp35
 70
     1
102
RTVSPropertyOp36
 70
     1
102
RTVSPropertyOp37
 70
     1
102
RTVSPropertyOp38
 70
     1
102
RTVSPropertyOp39
 70
     1
102
RTVSPropertyOp40
 70
     1
102
RTVSPropertyOp41
 70
     1
102
RTVSPropertyOp42
 70
     1
102
RTVSPropertyOp43
 70
     1
102
RTVSPropertyOp44
 70
     1
102
RTVSPropertyOp45
 70
     1
102
RTVSPropertyOp46
 70
     1
102
RTVSPropertyOp47
 70
     1
102
RTVSPropertyOp48
 70
     1
102
RTVSPropertyOp49
 70
     1
102
RTVSPropertyOp50
 70
     1
102
RTVSPropertyOp51
 70
     0
102
RTVSPropertyOp52
 70
     0
102
RTVSPropertyOp53
 70
     1
102
RTVSPropertyOp54
 70
     1
102
RTVSPropertyOp55
 70
     1
102
RTVSPropertyOp56
 70
     1
102
RTVSPropertyOp57
 70
     1
102
RTVSPost2010Prop28
280
     0
102
RTVSPost2010PropOp28
 70
     1
102
RTVSPost2010Prop29
280
     1
102
RTVSPost2010PropOp29
 70
     1
102
RTVSPost2010Prop30
280
     1
102
RTVSPost2010PropOp30
 70
     1
102
RTVSPost2010Prop31
280
     0
102
RTVSPost2010PropOp31
 70
     1
102
RTVSPost2010Prop32
280
     0
102
RTVSPost2010PropOp32
 70
     1
102
RTVSPost2010Prop33
280
     0
102
RTVSPost2010PropOp33
 70
     1
102
RTVSPost2010Prop34
280
     0
102
RTVSPost2010PropOp34
 70
     1
102
RTVSPost2010Prop35
280
     0
102
RTVSPost2010PropOp35
 70
     1
102
RTVSPost2010Prop36
280
     0
102
RTVSPost2010PropOp36
 70
     1
102
RTVSPost2010Prop37
 90
       50
102
RTVSPost2010PropOp37
 70
     1
102
RTVSPost2010Prop38
140
0.0
102
RTVSPost2010PropOp38
 70
     1
102
RTVSPost2010Prop39
140
1.0
102
RTVSPost2010PropOp39
 70
     1
102
RTVSPost2010Prop40
 90
        0
102
RTVSPost2010PropOp40
 70
     1
102
RTVSPost2010Prop41ColorIndex
 90
      178
102
RTVSPost2010Prop41ColorRGB
 90
        0
102
RTVSPost2010PropOp41
 70
     1
102
RTVSPost2010Prop42
 90
       50
102
RTVSPost2010PropOp42
 70
     1
102
RTVSPost2010Prop43
 90
        3
102
RTVSPost2010PropOp43
 70
     1
102
RTVSPost2010Prop44ColorIndex
 90
        5
102
RTVSPost2010Prop44ColorRGB
 90
      255
102
RTVSPost2010PropOp44
 70
     1
102
RTVSPost2010Prop45
280
     0
102
RTVSPost2010PropOp45
 70
     1
102
RTVSPost2010Prop46
 90
       50
102
RTVSPost2010PropOp46
 70
     1
102
RTVSPost2010Prop47
 90
       50
102
RTVSPost2010PropOp47
 70
     1
102
RTVSPost2010Prop48
 90
       50
102
RTVSPost2010PropOp48
 70
     1
102
RTVSPost2010Prop49
280
     0
102
RTVSPost2010PropOp49
 70
     1
102
RTVSPost2010Prop50
 90
       50
102
RTVSPost2010PropOp50
 70
     1
102
RTVSPost2010Prop51ColorIndex
 90
      256
102
RTVSPost2010Prop51ColorRGB
 90
-16777216
102
RTVSPost2010PropOp51
 70
     0
102
RTVSPost2010Prop52
140
1.0
102
RTVSPost2010PropOp52
 70
     0
102
RTVSPost2010Prop53
 90
        2
102
RTVSPost2010PropOp53
 70
     1
102
RTVSPost2010Prop54
  1
strokes_ogs.tif
102
RTVSPost2010PropOp54
 70
     1
102
RTVSPost2010Prop55
280
     0
102
RTVSPost2010PropOp55
 70
     1
102
RTVSPost2010Prop56
140
1.0
102
RTVSPost2010PropOp56
 70
     1
102
RTVSPost2010Prop57
140
1.0
102
RTVSPost2010PropOp57
 70
     1
  0
XRECORD
  5
368
102
{ACAD_REACTORS
330
367
102
}
330
367
100
AcDbXrecord
280
     1
102
RTVSPropertyOp0
 70
     1
102
RTVSPropertyOp1
 70
     1
102
RTVSPropertyOp2
 70
     1
102
RTVSPropertyOp3
 70
     1
102
RTVSPropertyOp4
 70
     1
102
RTVSPropertyOp5
 70
     1
102
RTVSPropertyOp6
 70
     1
102
RTVSPropertyOp7
 70
     1
102
RTVSPropertyOp8
 70
     1
102
RTVSPropertyOp9
 70
     1
102
RTVSPropertyOp10
 70
     1
102
RTVSPropertyOp11
 70
     1
102
RTVSPropertyOp12
 70
     1
102
RTVSPropertyOp13
 70
     1
102
RTVSPropertyOp14
 70
     1
102
RTVSPropertyOp15
 70
     1
102
RTVSPropertyOp16
 70
     1
102
RTVSPropertyOp17
 70
     1
102
RTVSPropertyOp18
 70
     1
102
RTVSPropertyOp19
 70
     1
102
RTVSPropertyOp20
 70
     1
102
RTVSPropertyOp21
 70
     1
102
RTVSPropertyOp22
 70
     1
102
RTVSPropertyOp23
 70
     1
102
RTVSPropertyOp24
 70
     1
102
RTVSPropertyOp25
 70
     1
102
RTVSPropertyOp26
 70
     1
102
RTVSPropertyOp27
 70
     1
102
RTVSPropertyOp28
 70
     1
102
RTVSPropertyOp29
 70
     1
102
RTVSPropertyOp30
 70
     1
102
RTVSPropertyOp31
 70
     1
102
RTVSPropertyOp32
 70
     1
102
RTVSPropertyOp33
 70
     1
102
RTVSPropertyOp34
 70
     1
102
RTVSPropertyOp35
 70
     1
102
RTVSPropertyOp36
 70
     1
102
RTVSPropertyOp37
 70
     1
102
RTVSPropertyOp38
 70
     1
102
RTVSPropertyOp39
 70
     1
102
RTVSPropertyOp40
 70
     1
102
RTVSPropertyOp41
 70
     1
102
RTVSPropertyOp42
 70
     1
102
RTVSPropertyOp43
 70
     1
102
RTVSPropertyOp44
 70
     1
102
RTVSPropertyOp45
 70
     1
102
RTVSPropertyOp46
 70
     1
102
RTVSPropertyOp47
 70
     1
102
RTVSPropertyOp48
 70
     1
102
RTVSPropertyOp49
 70
     1
102
RTVSPropertyOp50
 70
     1
102
RTVSPropertyOp51
 70
     0
102
RTVSPropertyOp52
 70
     0
102
RTVSPropertyOp53
 70
     1
102
RTVSPropertyOp54
 70
     1
102
RTVSPropertyOp55
 70
     1
102
RTVSPropertyOp56
 70
     1
102
RTVSPropertyOp57
 70
     1
102
RTVSPost2010Prop28
280
     0
102
RTVSPost2010PropOp28
 70
     1
102
RTVSPost2010Prop29
280
     1
102
RTVSPost2010PropOp29
 70
     1
102
RTVSPost2010Prop30
280
     1
102
RTVSPost2010PropOp30
 70
     1
102
RTVSPost2010Prop31
280
     0
102
RTVSPost2010PropOp31
 70
     1
102
RTVSPost2010Prop32
280
     0
102
RTVSPost2010PropOp32
 70
     1
102
RTVSPost2010Prop33
280
     0
102
RTVSPost2010PropOp33
 70
     1
102
RTVSPost2010Prop34
280
     0
102
RTVSPost2010PropOp34
 70
     1
102
RTVSPost2010Prop35
280
     0
102
RTVSPost2010PropOp35
 70
     1
102
RTVSPost2010Prop36
280
     0
102
RTVSPost2010PropOp36
 70
     1
102
RTVSPost2010Prop37
 90
       50
102
RTVSPost2010PropOp37
 70
     1
102
RTVSPost2010Prop38
140
0.0
102
RTVSPost2010PropOp38
 70
     1
102
RTVSPost2010Prop39
140
1.0
102
RTVSPost2010PropOp39
 70
     1
102
RTVSPost2010Prop40
 90
        0
102
RTVSPost2010PropOp40
 70
     1
102
RTVSPost2010Prop41ColorIndex
 90
      178
102
RTVSPost2010Prop41ColorRGB
 90
        0
102
RTVSPost2010PropOp41
 70
     1
102
RTVSPost2010Prop42
 90
       50
102
RTVSPost2010PropOp42
 70
     1
102
RTVSPost2010Prop43
 90
        3
102
RTVSPost2010PropOp43
 70
     1
102
RTVSPost2010Prop44ColorIndex
 90
        5
102
RTVSPost2010Prop44ColorRGB
 90
      255
102
RTVSPost2010PropOp44
 70
     1
102
RTVSPost2010Prop45
280
     0
102
RTVSPost2010PropOp45
 70
     1
102
RTVSPost2010Prop46
 90
       50
102
RTVSPost2010PropOp46
 70
     1
102
RTVSPost2010Prop47
 90
       50
102
RTVSPost2010PropOp47
 70
     1
102
RTVSPost2010Prop48
 90
       50
102
RTVSPost2010PropOp48
 70
     1
102
RTVSPost2010Prop49
280
     0
102
RTVSPost2010PropOp49
 70
     1
102
RTVSPost2010Prop50
 90
       50
102
RTVSPost2010PropOp50
 70
     1
102
RTVSPost2010Prop51ColorIndex
 90
      256
102
RTVSPost2010Prop51ColorRGB
 90
-16777216
102
RTVSPost2010PropOp51
 70
     0
102
RTVSPost2010Prop52
140
1.0
102
RTVSPost2010PropOp52
 70
     0
102
RTVSPost2010Prop53
 90
        2
102
RTVSPost2010PropOp53
 70
     1
102
RTVSPost2010Prop54
  1
strokes_ogs.tif
102
RTVSPost2010PropOp54
 70
     1
102
RTVSPost2010Prop55
280
     0
102
RTVSPost2010PropOp55
 70
     1
102
RTVSPost2010Prop56
140
1.0
102
RTVSPost2010PropOp56
 70
     1
102
RTVSPost2010Prop57
140
1.0
102
RTVSPost2010PropOp57
 70
     1
  0
XRECORD
  5
36E
102
{ACAD_REACTORS
330
36D
102
}
330
36D
100
AcDbXrecord
280
     1
102
RTVSPropertyOp0
 70
     1
102
RTVSPropertyOp1
 70
     1
102
RTVSPropertyOp2
 70
     1
102
RTVSPropertyOp3
 70
     1
102
RTVSPropertyOp4
 70
     1
102
RTVSPropertyOp5
 70
     1
102
RTVSPropertyOp6
 70
     1
102
RTVSPropertyOp7
 70
     1
102
RTVSPropertyOp8
 70
     1
102
RTVSPropertyOp9
 70
     1
102
RTVSPropertyOp10
 70
     1
102
RTVSPropertyOp11
 70
     1
102
RTVSPropertyOp12
 70
     1
102
RTVSPropertyOp13
 70
     1
102
RTVSPropertyOp14
 70
     1
102
RTVSPropertyOp15
 70
     1
102
RTVSPropertyOp16
 70
     1
102
RTVSPropertyOp17
 70
     1
102
RTVSPropertyOp18
 70
     1
102
RTVSPropertyOp19
 70
     1
102
RTVSPropertyOp20
 70
     1
102
RTVSPropertyOp21
 70
     1
102
RTVSPropertyOp22
 70
     1
102
RTVSPropertyOp23
 70
     1
102
RTVSPropertyOp24
 70
     1
102
RTVSPropertyOp25
 70
     1
102
RTVSPropertyOp26
 70
     1
102
RTVSPropertyOp27
 70
     1
102
RTVSPropertyOp28
 70
     1
102
RTVSPropertyOp29
 70
     1
102
RTVSPropertyOp30
 70
     1
102
RTVSPropertyOp31
 70
     1
102
RTVSPropertyOp32
 70
     1
102
RTVSPropertyOp33
 70
     1
102
RTVSPropertyOp34
 70
     1
102
RTVSPropertyOp35
 70
     1
102
RTVSPropertyOp36
 70
     1
102
RTVSPropertyOp37
 70
     1
102
RTVSPropertyOp38
 70
     1
102
RTVSPropertyOp39
 70
     1
102
RTVSPropertyOp40
 70
     1
102
RTVSPropertyOp41
 70
     1
102
RTVSPropertyOp42
 70
     1
102
RTVSPropertyOp43
 70
     1
102
RTVSPropertyOp44
 70
     1
102
RTVSPropertyOp45
 70
     1
102
RTVSPropertyOp46
 70
     1
102
RTVSPropertyOp47
 70
     1
102
RTVSPropertyOp48
 70
     1
102
RTVSPropertyOp49
 70
     1
102
RTVSPropertyOp50
 70
     1
102
RTVSPropertyOp51
 70
     0
102
RTVSPropertyOp52
 70
     0
102
RTVSPropertyOp53
 70
     1
102
RTVSPropertyOp54
 70
     1
102
RTVSPropertyOp55
 70
     1
102
RTVSPropertyOp56
 70
     1
102
RTVSPropertyOp57
 70
     1
102
RTVSPost2010Prop28
280
     0
102
RTVSPost2010PropOp28
 70
     1
102
RTVSPost2010Prop29
280
     1
102
RTVSPost2010PropOp29
 70
     1
102
RTVSPost2010Prop30
280
     1
102
RTVSPost2010PropOp30
 70
     1
102
RTVSPost2010Prop31
280
     0
102
RTVSPost2010PropOp31
 70
     1
102
RTVSPost2010Prop32
280
     0
102
RTVSPost2010PropOp32
 70
     1
102
RTVSPost2010Prop33
280
     0
102
RTVSPost2010PropOp33
 70
     1
102
RTVSPost2010Prop34
280
     0
102
RTVSPost2010PropOp34
 70
     1
102
RTVSPost2010Prop35
280
     0
102
RTVSPost2010PropOp35
 70
     1
102
RTVSPost2010Prop36
280
     0
102
RTVSPost2010PropOp36
 70
     1
102
RTVSPost2010Prop37
 90
       50
102
RTVSPost2010PropOp37
 70
     1
102
RTVSPost2010Prop38
140
0.0
102
RTVSPost2010PropOp38
 70
     1
102
RTVSPost2010Prop39
140
1.0
102
RTVSPost2010PropOp39
 70
     1
102
RTVSPost2010Prop40
 90
        0
102
RTVSPost2010PropOp40
 70
     1
102
RTVSPost2010Prop41ColorIndex
 90
      178
102
RTVSPost2010Prop41ColorRGB
 90
        0
102
RTVSPost2010PropOp41
 70
     1
102
RTVSPost2010Prop42
 90
       50
102
RTVSPost2010PropOp42
 70
     1
102
RTVSPost2010Prop43
 90
        3
102
RTVSPost2010PropOp43
 70
     1
102
RTVSPost2010Prop44ColorIndex
 90
        5
102
RTVSPost2010Prop44ColorRGB
 90
      255
102
RTVSPost2010PropOp44
 70
     1
102
RTVSPost2010Prop45
280
     0
102
RTVSPost2010PropOp45
 70
     1
102
RTVSPost2010Prop46
 90
       50
102
RTVSPost2010PropOp46
 70
     1
102
RTVSPost2010Prop47
 90
       50
102
RTVSPost2010PropOp47
 70
     1
102
RTVSPost2010Prop48
 90
       50
102
RTVSPost2010PropOp48
 70
     1
102
RTVSPost2010Prop49
280
     0
102
RTVSPost2010PropOp49
 70
     1
102
RTVSPost2010Prop50
 90
       50
102
RTVSPost2010PropOp50
 70
     1
102
RTVSPost2010Prop51ColorIndex
 90
      256
102
RTVSPost2010Prop51ColorRGB
 90
-16777216
102
RTVSPost2010PropOp51
 70
     0
102
RTVSPost2010Prop52
140
1.0
102
RTVSPost2010PropOp52
 70
     0
102
RTVSPost2010Prop53
 90
        2
102
RTVSPost2010PropOp53
 70
     1
102
RTVSPost2010Prop54
  1
strokes_ogs.tif
102
RTVSPost2010PropOp54
 70
     1
102
RTVSPost2010Prop55
280
     0
102
RTVSPost2010PropOp55
 70
     1
102
RTVSPost2010Prop56
140
1.0
102
RTVSPost2010PropOp56
 70
     1
102
RTVSPost2010Prop57
140
1.0
102
RTVSPost2010PropOp57
 70
     1
  0
XRECORD
  5
382
102
{ACAD_REACTORS
330
381
102
}
330
381
100
AcDbXrecord
280
     1
102
RTVSPropertyOp0
 70
     0
102
RTVSPropertyOp1
 70
     0
102
RTVSPropertyOp2
 70
     0
102
RTVSPropertyOp3
 70
     0
102
RTVSPropertyOp4
 70
     0
102
RTVSPropertyOp5
 70
     0
102
RTVSPropertyOp6
 70
     0
102
RTVSPropertyOp7
 70
     0
102
RTVSPropertyOp8
 70
     0
102
RTVSPropertyOp9
 70
     0
102
RTVSPropertyOp10
 70
     0
102
RTVSPropertyOp11
 70
     0
102
RTVSPropertyOp12
 70
     0
102
RTVSPropertyOp13
 70
     0
102
RTVSPropertyOp14
 70
     2
102
RTVSPropertyOp15
 70
     0
102
RTVSPropertyOp16
 70
     0
102
RTVSPropertyOp17
 70
     0
102
RTVSPropertyOp18
 70
     0
102
RTVSPropertyOp19
 70
     0
102
RTVSPropertyOp20
 70
     0
102
RTVSPropertyOp21
 70
     0
102
RTVSPropertyOp22
 70
     0
102
RTVSPropertyOp23
 70
     0
102
RTVSPropertyOp24
 70
     0
102
RTVSPropertyOp25
 70
     0
102
RTVSPropertyOp26
 70
     0
102
RTVSPropertyOp27
 70
     0
102
RTVSPropertyOp28
 70
     0
102
RTVSPropertyOp29
 70
     0
102
RTVSPropertyOp30
 70
     0
102
RTVSPropertyOp31
 70
     0
102
RTVSPropertyOp32
 70
     0
102
RTVSPropertyOp33
 70
     0
102
RTVSPropertyOp34
 70
     0
102
RTVSPropertyOp35
 70
     0
102
RTVSPropertyOp36
 70
     0
102
RTVSPropertyOp37
 70
     0
102
RTVSPropertyOp38
 70
     0
102
RTVSPropertyOp39
 70
     0
102
RTVSPropertyOp40
 70
     0
102
RTVSPropertyOp41
 70
     0
102
RTVSPropertyOp42
 70
     0
102
RTVSPropertyOp43
 70
     0
102
RTVSPropertyOp44
 70
     0
102
RTVSPropertyOp45
 70
     0
102
RTVSPropertyOp46
 70
     0
102
RTVSPropertyOp47
 70
     0
102
RTVSPropertyOp48
 70
     0
102
RTVSPropertyOp49
 70
     0
102
RTVSPropertyOp50
 70
     0
102
RTVSPropertyOp51
 70
     0
102
RTVSPropertyOp52
 70
     0
102
RTVSPropertyOp53
 70
     0
102
RTVSPropertyOp54
 70
     0
102
RTVSPropertyOp55
 70
     0
102
RTVSPropertyOp56
 70
     0
102
RTVSPropertyOp57
 70
     0
102
RTVSPost2010Prop28
280
     0
102
RTVSPost2010PropOp28
 70
     0
102
RTVSPost2010Prop29
280
     1
102
RTVSPost2010PropOp29
 70
     0
102
RTVSPost2010Prop30
280
     1
102
RTVSPost2010PropOp30
 70
     0
102
RTVSPost2010Prop31
280
     0
102
RTVSPost2010PropOp31
 70
     0
102
RTVSPost2010Prop32
280
     0
102
RTVSPost2010PropOp32
 70
     0
102
RTVSPost2010Prop33
280
     0
102
RTVSPost2010PropOp33
 70
     0
102
RTVSPost2010Prop34
280
     0
102
RTVSPost2010PropOp34
 70
     0
102
RTVSPost2010Prop35
280
     0
102
RTVSPost2010PropOp35
 70
     0
102
RTVSPost2010Prop36
280
     0
102
RTVSPost2010PropOp36
 70
     0
102
RTVSPost2010Prop37
 90
       50
102
RTVSPost2010PropOp37
 70
     0
102
RTVSPost2010Prop38
140
0.0
102
RTVSPost2010PropOp38
 70
     0
102
RTVSPost2010Prop39
140
1.0
102
RTVSPost2010PropOp39
 70
     0
102
RTVSPost2010Prop40
 90
        0
102
RTVSPost2010PropOp40
 70
     0
102
RTVSPost2010Prop41ColorIndex
 90
      178
102
RTVSPost2010Prop41ColorRGB
 90
        0
102
RTVSPost2010PropOp41
 70
     0
102
RTVSPost2010Prop42
 90
       50
102
RTVSPost2010PropOp42
 70
     0
102
RTVSPost2010Prop43
 90
        3
102
RTVSPost2010PropOp43
 70
     0
102
RTVSPost2010Prop44ColorIndex
 90
        5
102
RTVSPost2010Prop44ColorRGB
 90
      255
102
RTVSPost2010PropOp44
 70
     0
102
RTVSPost2010Prop45
280
     0
102
RTVSPost2010PropOp45
 70
     0
102
RTVSPost2010Prop46
 90
       50
102
RTVSPost2010PropOp46
 70
     0
102
RTVSPost2010Prop47
 90
       50
102
RTVSPost2010PropOp47
 70
     0
102
RTVSPost2010Prop48
 90
       50
102
RTVSPost2010PropOp48
 70
     0
102
RTVSPost2010Prop49
280
     0
102
RTVSPost2010PropOp49
 70
     0
102
RTVSPost2010Prop50
 90
       50
102
RTVSPost2010PropOp50
 70
     0
102
RTVSPost2010Prop51ColorIndex
 90
      256
102
RTVSPost2010Prop51ColorRGB
 90
-16777216
102
RTVSPost2010PropOp51
 70
     0
102
RTVSPost2010Prop52
140
1.0
102
RTVSPost2010PropOp52
 70
     0
102
RTVSPost2010Prop53
 90
        2
102
RTVSPost2010PropOp53
 70
     0
102
RTVSPost2010Prop54
  1
strokes_ogs.tif
102
RTVSPost2010PropOp54
 70
     0
102
RTVSPost2010Prop55
280
     0
102
RTVSPost2010PropOp55
 70
     0
102
RTVSPost2010Prop56
140
1.0
102
RTVSPost2010PropOp56
 70
     0
102
RTVSPost2010Prop57
140
1.0
102
RTVSPost2010PropOp57
 70
     0
  0
XRECORD
  5
37C
102
{ACAD_REACTORS
330
37B
102
}
330
37B
100
AcDbXrecord
280
     1
102
RTVSPropertyOp0
 70
     1
102
RTVSPropertyOp1
 70
     1
102
RTVSPropertyOp2
 70
     1
102
RTVSPropertyOp3
 70
     1
102
RTVSPropertyOp4
 70
     1
102
RTVSPropertyOp5
 70
     1
102
RTVSPropertyOp6
 70
     1
102
RTVSPropertyOp7
 70
     1
102
RTVSPropertyOp8
 70
     1
102
RTVSPropertyOp9
 70
     1
102
RTVSPropertyOp10
 70
     1
102
RTVSPropertyOp11
 70
     1
102
RTVSPropertyOp12
 70
     1
102
RTVSPropertyOp13
 70
     1
102
RTVSPropertyOp14
 70
     1
102
RTVSPropertyOp15
 70
     1
102
RTVSPropertyOp16
 70
     1
102
RTVSPropertyOp17
 70
     1
102
RTVSPropertyOp18
 70
     1
102
RTVSPropertyOp19
 70
     1
102
RTVSPropertyOp20
 70
     1
102
RTVSPropertyOp21
 70
     1
102
RTVSPropertyOp22
 70
     1
102
RTVSPropertyOp23
 70
     1
102
RTVSPropertyOp24
 70
     1
102
RTVSPropertyOp25
 70
     1
102
RTVSPropertyOp26
 70
     1
102
RTVSPropertyOp27
 70
     1
102
RTVSPropertyOp28
 70
     1
102
RTVSPropertyOp29
 70
     1
102
RTVSPropertyOp30
 70
     1
102
RTVSPropertyOp31
 70
     1
102
RTVSPropertyOp32
 70
     1
102
RTVSPropertyOp33
 70
     1
102
RTVSPropertyOp34
 70
     1
102
RTVSPropertyOp35
 70
     1
102
RTVSPropertyOp36
 70
     1
102
RTVSPropertyOp37
 70
     1
102
RTVSPropertyOp38
 70
     1
102
RTVSPropertyOp39
 70
     1
102
RTVSPropertyOp40
 70
     1
102
RTVSPropertyOp41
 70
     1
102
RTVSPropertyOp42
 70
     1
102
RTVSPropertyOp43
 70
     1
102
RTVSPropertyOp44
 70
     1
102
RTVSPropertyOp45
 70
     1
102
RTVSPropertyOp46
 70
     1
102
RTVSPropertyOp47
 70
     1
102
RTVSPropertyOp48
 70
     1
102
RTVSPropertyOp49
 70
     1
102
RTVSPropertyOp50
 70
     1
102
RTVSPropertyOp51
 70
     0
102
RTVSPropertyOp52
 70
     0
102
RTVSPropertyOp53
 70
     1
102
RTVSPropertyOp54
 70
     1
102
RTVSPropertyOp55
 70
     1
102
RTVSPropertyOp56
 70
     1
102
RTVSPropertyOp57
 70
     1
102
RTVSPost2010Prop28
280
     0
102
RTVSPost2010PropOp28
 70
     1
102
RTVSPost2010Prop29
280
     1
102
RTVSPost2010PropOp29
 70
     1
102
RTVSPost2010Prop30
280
     1
102
RTVSPost2010PropOp30
 70
     1
102
RTVSPost2010Prop31
280
     0
102
RTVSPost2010PropOp31
 70
     1
102
RTVSPost2010Prop32
280
     0
102
RTVSPost2010PropOp32
 70
     1
102
RTVSPost2010Prop33
280
     0
102
RTVSPost2010PropOp33
 70
     1
102
RTVSPost2010Prop34
280
     0
102
RTVSPost2010PropOp34
 70
     1
102
RTVSPost2010Prop35
280
     0
102
RTVSPost2010PropOp35
 70
     1
102
RTVSPost2010Prop36
280
     0
102
RTVSPost2010PropOp36
 70
     1
102
RTVSPost2010Prop37
 90
       50
102
RTVSPost2010PropOp37
 70
     1
102
RTVSPost2010Prop38
140
0.0
102
RTVSPost2010PropOp38
 70
     1
102
RTVSPost2010Prop39
140
1.0
102
RTVSPost2010PropOp39
 70
     1
102
RTVSPost2010Prop40
 90
        0
102
RTVSPost2010PropOp40
 70
     1
102
RTVSPost2010Prop41ColorIndex
 90
      178
102
RTVSPost2010Prop41ColorRGB
 90
        0
102
RTVSPost2010PropOp41
 70
     1
102
RTVSPost2010Prop42
 90
       50
102
RTVSPost2010PropOp42
 70
     1
102
RTVSPost2010Prop43
 90
        3
102
RTVSPost2010PropOp43
 70
     1
102
RTVSPost2010Prop44ColorIndex
 90
        5
102
RTVSPost2010Prop44ColorRGB
 90
      255
102
RTVSPost2010PropOp44
 70
     1
102
RTVSPost2010Prop45
280
     0
102
RTVSPost2010PropOp45
 70
     1
102
RTVSPost2010Prop46
 90
       50
102
RTVSPost2010PropOp46
 70
     1
102
RTVSPost2010Prop47
 90
       50
102
RTVSPost2010PropOp47
 70
     1
102
RTVSPost2010Prop48
 90
       50
102
RTVSPost2010PropOp48
 70
     1
102
RTVSPost2010Prop49
280
     0
102
RTVSPost2010PropOp49
 70
     1
102
RTVSPost2010Prop50
 90
       50
102
RTVSPost2010PropOp50
 70
     1
102
RTVSPost2010Prop51ColorIndex
 90
      256
102
RTVSPost2010Prop51ColorRGB
 90
-16777216
102
RTVSPost2010PropOp51
 70
     0
102
RTVSPost2010Prop52
140
1.0
102
RTVSPost2010PropOp52
 70
     0
102
RTVSPost2010Prop53
 90
        2
102
RTVSPost2010PropOp53
 70
     1
102
RTVSPost2010Prop54
  1
strokes_ogs.tif
102
RTVSPost2010PropOp54
 70
     1
102
RTVSPost2010Prop55
280
     0
102
RTVSPost2010PropOp55
 70
     1
102
RTVSPost2010Prop56
140
1.0
102
RTVSPost2010PropOp56
 70
     1
102
RTVSPost2010Prop57
140
1.0
102
RTVSPost2010PropOp57
 70
     1
  0
XRECORD
  5
384
102
{ACAD_REACTORS
330
383
102
}
330
383
100
AcDbXrecord
280
     1
102
RTVSPropertyOp0
 70
     0
102
RTVSPropertyOp1
 70
     0
102
RTVSPropertyOp2
 70
     0
102
RTVSPropertyOp3
 70
     0
102
RTVSPropertyOp4
 70
     0
102
RTVSPropertyOp5
 70
     0
102
RTVSPropertyOp6
 70
     0
102
RTVSPropertyOp7
 70
     0
102
RTVSPropertyOp8
 70
     0
102
RTVSPropertyOp9
 70
     0
102
RTVSPropertyOp10
 70
     0
102
RTVSPropertyOp11
 70
     0
102
RTVSPropertyOp12
 70
     0
102
RTVSPropertyOp13
 70
     0
102
RTVSPropertyOp14
 70
     2
102
RTVSPropertyOp15
 70
     0
102
RTVSPropertyOp16
 70
     0
102
RTVSPropertyOp17
 70
     0
102
RTVSPropertyOp18
 70
     0
102
RTVSPropertyOp19
 70
     0
102
RTVSPropertyOp20
 70
     0
102
RTVSPropertyOp21
 70
     0
102
RTVSPropertyOp22
 70
     0
102
RTVSPropertyOp23
 70
     0
102
RTVSPropertyOp24
 70
     0
102
RTVSPropertyOp25
 70
     0
102
RTVSPropertyOp26
 70
     0
102
RTVSPropertyOp27
 70
     0
102
RTVSPropertyOp28
 70
     0
102
RTVSPropertyOp29
 70
     0
102
RTVSPropertyOp30
 70
     0
102
RTVSPropertyOp31
 70
     0
102
RTVSPropertyOp32
 70
     0
102
RTVSPropertyOp33
 70
     0
102
RTVSPropertyOp34
 70
     0
102
RTVSPropertyOp35
 70
     0
102
RTVSPropertyOp36
 70
     0
102
RTVSPropertyOp37
 70
     0
102
RTVSPropertyOp38
 70
     0
102
RTVSPropertyOp39
 70
     0
102
RTVSPropertyOp40
 70
     0
102
RTVSPropertyOp41
 70
     0
102
RTVSPropertyOp42
 70
     0
102
RTVSPropertyOp43
 70
     0
102
RTVSPropertyOp44
 70
     0
102
RTVSPropertyOp45
 70
     0
102
RTVSPropertyOp46
 70
     0
102
RTVSPropertyOp47
 70
     0
102
RTVSPropertyOp48
 70
     0
102
RTVSPropertyOp49
 70
     0
102
RTVSPropertyOp50
 70
     0
102
RTVSPropertyOp51
 70
     0
102
RTVSPropertyOp52
 70
     0
102
RTVSPropertyOp53
 70
     0
102
RTVSPropertyOp54
 70
     0
102
RTVSPropertyOp55
 70
     0
102
RTVSPropertyOp56
 70
     0
102
RTVSPropertyOp57
 70
     0
102
RTVSPost2010Prop28
280
     0
102
RTVSPost2010PropOp28
 70
     0
102
RTVSPost2010Prop29
280
     1
102
RTVSPost2010PropOp29
 70
     0
102
RTVSPost2010Prop30
280
     1
102
RTVSPost2010PropOp30
 70
     0
102
RTVSPost2010Prop31
280
     0
102
RTVSPost2010PropOp31
 70
     0
102
RTVSPost2010Prop32
280
     0
102
RTVSPost2010PropOp32
 70
     0
102
RTVSPost2010Prop33
280
     0
102
RTVSPost2010PropOp33
 70
     0
102
RTVSPost2010Prop34
280
     0
102
RTVSPost2010PropOp34
 70
     0
102
RTVSPost2010Prop35
280
     0
102
RTVSPost2010PropOp35
 70
     0
102
RTVSPost2010Prop36
280
     0
102
RTVSPost2010PropOp36
 70
     0
102
RTVSPost2010Prop37
 90
       50
102
RTVSPost2010PropOp37
 70
     0
102
RTVSPost2010Prop38
140
0.0
102
RTVSPost2010PropOp38
 70
     0
102
RTVSPost2010Prop39
140
1.0
102
RTVSPost2010PropOp39
 70
     0
102
RTVSPost2010Prop40
 90
        0
102
RTVSPost2010PropOp40
 70
     0
102
RTVSPost2010Prop41ColorIndex
 90
      178
102
RTVSPost2010Prop41ColorRGB
 90
        0
102
RTVSPost2010PropOp41
 70
     0
102
RTVSPost2010Prop42
 90
       50
102
RTVSPost2010PropOp42
 70
     0
102
RTVSPost2010Prop43
 90
        3
102
RTVSPost2010PropOp43
 70
     0
102
RTVSPost2010Prop44ColorIndex
 90
        5
102
RTVSPost2010Prop44ColorRGB
 90
      255
102
RTVSPost2010PropOp44
 70
     0
102
RTVSPost2010Prop45
280
     0
102
RTVSPost2010PropOp45
 70
     0
102
RTVSPost2010Prop46
 90
       50
102
RTVSPost2010PropOp46
 70
     0
102
RTVSPost2010Prop47
 90
       50
102
RTVSPost2010PropOp47
 70
     0
102
RTVSPost2010Prop48
 90
       50
102
RTVSPost2010PropOp48
 70
     0
102
RTVSPost2010Prop49
280
     0
102
RTVSPost2010PropOp49
 70
     0
102
RTVSPost2010Prop50
 90
       50
102
RTVSPost2010PropOp50
 70
     0
102
RTVSPost2010Prop51ColorIndex
 90
      256
102
RTVSPost2010Prop51ColorRGB
 90
-16777216
102
RTVSPost2010PropOp51
 70
     0
102
RTVSPost2010Prop52
140
1.0
102
RTVSPost2010PropOp52
 70
     0
102
RTVSPost2010Prop53
 90
        2
102
RTVSPost2010PropOp53
 70
     0
102
RTVSPost2010Prop54
  1
strokes_ogs.tif
102
RTVSPost2010PropOp54
 70
     0
102
RTVSPost2010Prop55
280
     0
102
RTVSPost2010PropOp55
 70
     0
102
RTVSPost2010Prop56
140
1.0
102
RTVSPost2010PropOp56
 70
     0
102
RTVSPost2010Prop57
140
1.0
102
RTVSPost2010PropOp57
 70
     0
  0
XRECORD
  5
372
102
{ACAD_REACTORS
330
371
102
}
330
371
100
AcDbXrecord
280
     1
102
RTVSPropertyOp0
 70
     1
102
RTVSPropertyOp1
 70
     1
102
RTVSPropertyOp2
 70
     1
102
RTVSPropertyOp3
 70
     1
102
RTVSPropertyOp4
 70
     1
102
RTVSPropertyOp5
 70
     1
102
RTVSPropertyOp6
 70
     1
102
RTVSPropertyOp7
 70
     1
102
RTVSPropertyOp8
 70
     1
102
RTVSPropertyOp9
 70
     1
102
RTVSPropertyOp10
 70
     1
102
RTVSPropertyOp11
 70
     1
102
RTVSPropertyOp12
 70
     1
102
RTVSPropertyOp13
 70
     1
102
RTVSPropertyOp14
 70
     1
102
RTVSPropertyOp15
 70
     1
102
RTVSPropertyOp16
 70
     1
102
RTVSPropertyOp17
 70
     1
102
RTVSPropertyOp18
 70
     1
102
RTVSPropertyOp19
 70
     1
102
RTVSPropertyOp20
 70
     1
102
RTVSPropertyOp21
 70
     1
102
RTVSPropertyOp22
 70
     1
102
RTVSPropertyOp23
 70
     1
102
RTVSPropertyOp24
 70
     1
102
RTVSPropertyOp25
 70
     1
102
RTVSPropertyOp26
 70
     1
102
RTVSPropertyOp27
 70
     1
102
RTVSPropertyOp28
 70
     1
102
RTVSPropertyOp29
 70
     1
102
RTVSPropertyOp30
 70
     1
102
RTVSPropertyOp31
 70
     1
102
RTVSPropertyOp32
 70
     1
102
RTVSPropertyOp33
 70
     1
102
RTVSPropertyOp34
 70
     1
102
RTVSPropertyOp35
 70
     1
102
RTVSPropertyOp36
 70
     1
102
RTVSPropertyOp37
 70
     1
102
RTVSPropertyOp38
 70
     1
102
RTVSPropertyOp39
 70
     1
102
RTVSPropertyOp40
 70
     1
102
RTVSPropertyOp41
 70
     1
102
RTVSPropertyOp42
 70
     1
102
RTVSPropertyOp43
 70
     1
102
RTVSPropertyOp44
 70
     1
102
RTVSPropertyOp45
 70
     1
102
RTVSPropertyOp46
 70
     1
102
RTVSPropertyOp47
 70
     1
102
RTVSPropertyOp48
 70
     1
102
RTVSPropertyOp49
 70
     1
102
RTVSPropertyOp50
 70
     1
102
RTVSPropertyOp51
 70
     0
102
RTVSPropertyOp52
 70
     0
102
RTVSPropertyOp53
 70
     1
102
RTVSPropertyOp54
 70
     1
102
RTVSPropertyOp55
 70
     1
102
RTVSPropertyOp56
 70
     1
102
RTVSPropertyOp57
 70
     1
102
RTVSPost2010Prop28
280
     0
102
RTVSPost2010PropOp28
 70
     1
102
RTVSPost2010Prop29
280
     1
102
RTVSPost2010PropOp29
 70
     1
102
RTVSPost2010Prop30
280
     1
102
RTVSPost2010PropOp30
 70
     1
102
RTVSPost2010Prop31
280
     0
102
RTVSPost2010PropOp31
 70
     1
102
RTVSPost2010Prop32
280
     0
102
RTVSPost2010PropOp32
 70
     1
102
RTVSPost2010Prop33
280
     0
102
RTVSPost2010PropOp33
 70
     1
102
RTVSPost2010Prop34
280
     0
102
RTVSPost2010PropOp34
 70
     1
102
RTVSPost2010Prop35
280
     0
102
RTVSPost2010PropOp35
 70
     1
102
RTVSPost2010Prop36
280
     0
102
RTVSPost2010PropOp36
 70
     1
102
RTVSPost2010Prop37
 90
       50
102
RTVSPost2010PropOp37
 70
     1
102
RTVSPost2010Prop38
140
0.0
102
RTVSPost2010PropOp38
 70
     1
102
RTVSPost2010Prop39
140
1.0
102
RTVSPost2010PropOp39
 70
     1
102
RTVSPost2010Prop40
 90
        0
102
RTVSPost2010PropOp40
 70
     1
102
RTVSPost2010Prop41ColorIndex
 90
      178
102
RTVSPost2010Prop41ColorRGB
 90
        0
102
RTVSPost2010PropOp41
 70
     1
102
RTVSPost2010Prop42
 90
       50
102
RTVSPost2010PropOp42
 70
     1
102
RTVSPost2010Prop43
 90
        3
102
RTVSPost2010PropOp43
 70
     1
102
RTVSPost2010Prop44ColorIndex
 90
        5
102
RTVSPost2010Prop44ColorRGB
 90
      255
102
RTVSPost2010PropOp44
 70
     1
102
RTVSPost2010Prop45
280
     0
102
RTVSPost2010PropOp45
 70
     1
102
RTVSPost2010Prop46
 90
       50
102
RTVSPost2010PropOp46
 70
     1
102
RTVSPost2010Prop47
 90
       50
102
RTVSPost2010PropOp47
 70
     1
102
RTVSPost2010Prop48
 90
       50
102
RTVSPost2010PropOp48
 70
     1
102
RTVSPost2010Prop49
280
     0
102
RTVSPost2010PropOp49
 70
     1
102
RTVSPost2010Prop50
 90
       50
102
RTVSPost2010PropOp50
 70
     1
102
RTVSPost2010Prop51ColorIndex
 90
      256
102
RTVSPost2010Prop51ColorRGB
 90
-16777216
102
RTVSPost2010PropOp51
 70
     0
102
RTVSPost2010Prop52
140
1.0
102
RTVSPost2010PropOp52
 70
     0
102
RTVSPost2010Prop53
 90
        2
102
RTVSPost2010PropOp53
 70
     1
102
RTVSPost2010Prop54
  1
strokes_ogs.tif
102
RTVSPost2010PropOp54
 70
     1
102
RTVSPost2010Prop55
280
     0
102
RTVSPost2010PropOp55
 70
     1
102
RTVSPost2010Prop56
140
1.0
102
RTVSPost2010PropOp56
 70
     1
102
RTVSPost2010Prop57
140
1.0
102
RTVSPost2010PropOp57
 70
     1
  0
XRECORD
  5
390
102
{ACAD_REACTORS
330
38F
102
}
330
38F
100
AcDbXrecord
280
     1
102
RTVSPropertyOp0
 70
     1
102
RTVSPropertyOp1
 70
     1
102
RTVSPropertyOp2
 70
     1
102
RTVSPropertyOp3
 70
     1
102
RTVSPropertyOp4
 70
     1
102
RTVSPropertyOp5
 70
     1
102
RTVSPropertyOp6
 70
     1
102
RTVSPropertyOp7
 70
     1
102
RTVSPropertyOp8
 70
     1
102
RTVSPropertyOp9
 70
     1
102
RTVSPropertyOp10
 70
     1
102
RTVSPropertyOp11
 70
     1
102
RTVSPropertyOp12
 70
     1
102
RTVSPropertyOp13
 70
     1
102
RTVSPropertyOp14
 70
     1
102
RTVSPropertyOp15
 70
     1
102
RTVSPropertyOp16
 70
     1
102
RTVSPropertyOp17
 70
     1
102
RTVSPropertyOp18
 70
     1
102
RTVSPropertyOp19
 70
     1
102
RTVSPropertyOp20
 70
     1
102
RTVSPropertyOp21
 70
     1
102
RTVSPropertyOp22
 70
     1
102
RTVSPropertyOp23
 70
     1
102
RTVSPropertyOp24
 70
     1
102
RTVSPropertyOp25
 70
     1
102
RTVSPropertyOp26
 70
     1
102
RTVSPropertyOp27
 70
     1
102
RTVSPropertyOp28
 70
     1
102
RTVSPropertyOp29
 70
     1
102
RTVSPropertyOp30
 70
     1
102
RTVSPropertyOp31
 70
     1
102
RTVSPropertyOp32
 70
     1
102
RTVSPropertyOp33
 70
     1
102
RTVSPropertyOp34
 70
     1
102
RTVSPropertyOp35
 70
     1
102
RTVSPropertyOp36
 70
     1
102
RTVSPropertyOp37
 70
     1
102
RTVSPropertyOp38
 70
     1
102
RTVSPropertyOp39
 70
     1
102
RTVSPropertyOp40
 70
     1
102
RTVSPropertyOp41
 70
     1
102
RTVSPropertyOp42
 70
     1
102
RTVSPropertyOp43
 70
     1
102
RTVSPropertyOp44
 70
     1
102
RTVSPropertyOp45
 70
     1
102
RTVSPropertyOp46
 70
     1
102
RTVSPropertyOp47
 70
     1
102
RTVSPropertyOp48
 70
     1
102
RTVSPropertyOp49
 70
     1
102
RTVSPropertyOp50
 70
     1
102
RTVSPropertyOp51
 70
     0
102
RTVSPropertyOp52
 70
     0
102
RTVSPropertyOp53
 70
     1
102
RTVSPropertyOp54
 70
     1
102
RTVSPropertyOp55
 70
     1
102
RTVSPropertyOp56
 70
     1
102
RTVSPropertyOp57
 70
     1
102
RTVSPost2010Prop28
280
     0
102
RTVSPost2010PropOp28
 70
     1
102
RTVSPost2010Prop29
280
     1
102
RTVSPost2010PropOp29
 70
     1
102
RTVSPost2010Prop30
280
     1
102
RTVSPost2010PropOp30
 70
     1
102
RTVSPost2010Prop31
280
     0
102
RTVSPost2010PropOp31
 70
     1
102
RTVSPost2010Prop32
280
     0
102
RTVSPost2010PropOp32
 70
     1
102
RTVSPost2010Prop33
280
     0
102
RTVSPost2010PropOp33
 70
     1
102
RTVSPost2010Prop34
280
     0
102
RTVSPost2010PropOp34
 70
     1
102
RTVSPost2010Prop35
280
     0
102
RTVSPost2010PropOp35
 70
     1
102
RTVSPost2010Prop36
280
     0
102
RTVSPost2010PropOp36
 70
     1
102
RTVSPost2010Prop37
 90
       50
102
RTVSPost2010PropOp37
 70
     1
102
RTVSPost2010Prop38
140
0.0
102
RTVSPost2010PropOp38
 70
     1
102
RTVSPost2010Prop39
140
1.0
102
RTVSPost2010PropOp39
 70
     1
102
RTVSPost2010Prop40
 90
        0
102
RTVSPost2010PropOp40
 70
     1
102
RTVSPost2010Prop41ColorIndex
 90
      178
102
RTVSPost2010Prop41ColorRGB
 90
        0
102
RTVSPost2010PropOp41
 70
     1
102
RTVSPost2010Prop42
 90
       50
102
RTVSPost2010PropOp42
 70
     1
102
RTVSPost2010Prop43
 90
        3
102
RTVSPost2010PropOp43
 70
     1
102
RTVSPost2010Prop44ColorIndex
 90
        5
102
RTVSPost2010Prop44ColorRGB
 90
      255
102
RTVSPost2010PropOp44
 70
     1
102
RTVSPost2010Prop45
280
     0
102
RTVSPost2010PropOp45
 70
     1
102
RTVSPost2010Prop46
 90
       50
102
RTVSPost2010PropOp46
 70
     1
102
RTVSPost2010Prop47
 90
       50
102
RTVSPost2010PropOp47
 70
     1
102
RTVSPost2010Prop48
 90
       50
102
RTVSPost2010PropOp48
 70
     1
102
RTVSPost2010Prop49
280
     0
102
RTVSPost2010PropOp49
 70
     1
102
RTVSPost2010Prop50
 90
       50
102
RTVSPost2010PropOp50
 70
     1
102
RTVSPost2010Prop51ColorIndex
 90
      256
102
RTVSPost2010Prop51ColorRGB
 90
-16777216
102
RTVSPost2010PropOp51
 70
     0
102
RTVSPost2010Prop52
140
1.0
102
RTVSPost2010PropOp52
 70
     0
102
RTVSPost2010Prop53
 90
        2
102
RTVSPost2010PropOp53
 70
     1
102
RTVSPost2010Prop54
  1
strokes_ogs.tif
102
RTVSPost2010PropOp54
 70
     1
102
RTVSPost2010Prop55
280
     0
102
RTVSPost2010PropOp55
 70
     1
102
RTVSPost2010Prop56
140
1.0
102
RTVSPost2010PropOp56
 70
     1
102
RTVSPost2010Prop57
140
1.0
102
RTVSPost2010PropOp57
 70
     1
  0
XRECORD
  5
38E
102
{ACAD_REACTORS
330
38D
102
}
330
38D
100
AcDbXrecord
280
     1
102
RTVSPropertyOp0
 70
     1
102
RTVSPropertyOp1
 70
     1
102
RTVSPropertyOp2
 70
     1
102
RTVSPropertyOp3
 70
     1
102
RTVSPropertyOp4
 70
     1
102
RTVSPropertyOp5
 70
     1
102
RTVSPropertyOp6
 70
     1
102
RTVSPropertyOp7
 70
     1
102
RTVSPropertyOp8
 70
     1
102
RTVSPropertyOp9
 70
     1
102
RTVSPropertyOp10
 70
     1
102
RTVSPropertyOp11
 70
     1
102
RTVSPropertyOp12
 70
     1
102
RTVSPropertyOp13
 70
     1
102
RTVSPropertyOp14
 70
     1
102
RTVSPropertyOp15
 70
     1
102
RTVSPropertyOp16
 70
     1
102
RTVSPropertyOp17
 70
     1
102
RTVSPropertyOp18
 70
     1
102
RTVSPropertyOp19
 70
     1
102
RTVSPropertyOp20
 70
     1
102
RTVSPropertyOp21
 70
     1
102
RTVSPropertyOp22
 70
     1
102
RTVSPropertyOp23
 70
     1
102
RTVSPropertyOp24
 70
     1
102
RTVSPropertyOp25
 70
     1
102
RTVSPropertyOp26
 70
     1
102
RTVSPropertyOp27
 70
     1
102
RTVSPropertyOp28
 70
     1
102
RTVSPropertyOp29
 70
     1
102
RTVSPropertyOp30
 70
     1
102
RTVSPropertyOp31
 70
     1
102
RTVSPropertyOp32
 70
     1
102
RTVSPropertyOp33
 70
     1
102
RTVSPropertyOp34
 70
     1
102
RTVSPropertyOp35
 70
     1
102
RTVSPropertyOp36
 70
     1
102
RTVSPropertyOp37
 70
     1
102
RTVSPropertyOp38
 70
     1
102
RTVSPropertyOp39
 70
     1
102
RTVSPropertyOp40
 70
     1
102
RTVSPropertyOp41
 70
     1
102
RTVSPropertyOp42
 70
     1
102
RTVSPropertyOp43
 70
     1
102
RTVSPropertyOp44
 70
     1
102
RTVSPropertyOp45
 70
     1
102
RTVSPropertyOp46
 70
     1
102
RTVSPropertyOp47
 70
     1
102
RTVSPropertyOp48
 70
     1
102
RTVSPropertyOp49
 70
     1
102
RTVSPropertyOp50
 70
     1
102
RTVSPropertyOp51
 70
     0
102
RTVSPropertyOp52
 70
     0
102
RTVSPropertyOp53
 70
     1
102
RTVSPropertyOp54
 70
     1
102
RTVSPropertyOp55
 70
     1
102
RTVSPropertyOp56
 70
     1
102
RTVSPropertyOp57
 70
     1
102
RTVSPost2010Prop28
280
     0
102
RTVSPost2010PropOp28
 70
     1
102
RTVSPost2010Prop29
280
     1
102
RTVSPost2010PropOp29
 70
     1
102
RTVSPost2010Prop30
280
     1
102
RTVSPost2010PropOp30
 70
     1
102
RTVSPost2010Prop31
280
     0
102
RTVSPost2010PropOp31
 70
     1
102
RTVSPost2010Prop32
280
     0
102
RTVSPost2010PropOp32
 70
     1
102
RTVSPost2010Prop33
280
     0
102
RTVSPost2010PropOp33
 70
     1
102
RTVSPost2010Prop34
280
     0
102
RTVSPost2010PropOp34
 70
     1
102
RTVSPost2010Prop35
280
     0
102
RTVSPost2010PropOp35
 70
     1
102
RTVSPost2010Prop36
280
     0
102
RTVSPost2010PropOp36
 70
     1
102
RTVSPost2010Prop37
 90
       50
102
RTVSPost2010PropOp37
 70
     1
102
RTVSPost2010Prop38
140
0.0
102
RTVSPost2010PropOp38
 70
     1
102
RTVSPost2010Prop39
140
1.0
102
RTVSPost2010PropOp39
 70
     1
102
RTVSPost2010Prop40
 90
        0
102
RTVSPost2010PropOp40
 70
     1
102
RTVSPost2010Prop41ColorIndex
 90
      178
102
RTVSPost2010Prop41ColorRGB
 90
        0
102
RTVSPost2010PropOp41
 70
     1
102
RTVSPost2010Prop42
 90
       50
102
RTVSPost2010PropOp42
 70
     1
102
RTVSPost2010Prop43
 90
        3
102
RTVSPost2010PropOp43
 70
     1
102
RTVSPost2010Prop44ColorIndex
 90
        5
102
RTVSPost2010Prop44ColorRGB
 90
      255
102
RTVSPost2010PropOp44
 70
     1
102
RTVSPost2010Prop45
280
     0
102
RTVSPost2010PropOp45
 70
     1
102
RTVSPost2010Prop46
 90
       50
102
RTVSPost2010PropOp46
 70
     1
102
RTVSPost2010Prop47
 90
       50
102
RTVSPost2010PropOp47
 70
     1
102
RTVSPost2010Prop48
 90
       50
102
RTVSPost2010PropOp48
 70
     1
102
RTVSPost2010Prop49
280
     0
102
RTVSPost2010PropOp49
 70
     1
102
RTVSPost2010Prop50
 90
       50
102
RTVSPost2010PropOp50
 70
     1
102
RTVSPost2010Prop51ColorIndex
 90
      256
102
RTVSPost2010Prop51ColorRGB
 90
-16777216
102
RTVSPost2010PropOp51
 70
     0
102
RTVSPost2010Prop52
140
1.0
102
RTVSPost2010PropOp52
 70
     0
102
RTVSPost2010Prop53
 90
        2
102
RTVSPost2010PropOp53
 70
     1
102
RTVSPost2010Prop54
  1
strokes_ogs.tif
102
RTVSPost2010PropOp54
 70
     1
102
RTVSPost2010Prop55
280
     0
102
RTVSPost2010PropOp55
 70
     1
102
RTVSPost2010Prop56
140
1.0
102
RTVSPost2010PropOp56
 70
     1
102
RTVSPost2010Prop57
140
1.0
102
RTVSPost2010PropOp57
 70
     1
  0
XRECORD
  5
388
102
{ACAD_REACTORS
330
387
102
}
330
387
100
AcDbXrecord
280
     1
102
RTVSPropertyOp0
 70
     1
102
RTVSPropertyOp1
 70
     1
102
RTVSPropertyOp2
 70
     1
102
RTVSPropertyOp3
 70
     1
102
RTVSPropertyOp4
 70
     1
102
RTVSPropertyOp5
 70
     1
102
RTVSPropertyOp6
 70
     1
102
RTVSPropertyOp7
 70
     1
102
RTVSPropertyOp8
 70
     1
102
RTVSPropertyOp9
 70
     1
102
RTVSPropertyOp10
 70
     1
102
RTVSPropertyOp11
 70
     1
102
RTVSPropertyOp12
 70
     1
102
RTVSPropertyOp13
 70
     1
102
RTVSPropertyOp14
 70
     1
102
RTVSPropertyOp15
 70
     1
102
RTVSPropertyOp16
 70
     1
102
RTVSPropertyOp17
 70
     1
102
RTVSPropertyOp18
 70
     1
102
RTVSPropertyOp19
 70
     1
102
RTVSPropertyOp20
 70
     1
102
RTVSPropertyOp21
 70
     1
102
RTVSPropertyOp22
 70
     1
102
RTVSPropertyOp23
 70
     1
102
RTVSPropertyOp24
 70
     1
102
RTVSPropertyOp25
 70
     1
102
RTVSPropertyOp26
 70
     1
102
RTVSPropertyOp27
 70
     1
102
RTVSPropertyOp28
 70
     1
102
RTVSPropertyOp29
 70
     1
102
RTVSPropertyOp30
 70
     1
102
RTVSPropertyOp31
 70
     1
102
RTVSPropertyOp32
 70
     1
102
RTVSPropertyOp33
 70
     1
102
RTVSPropertyOp34
 70
     1
102
RTVSPropertyOp35
 70
     1
102
RTVSPropertyOp36
 70
     1
102
RTVSPropertyOp37
 70
     1
102
RTVSPropertyOp38
 70
     1
102
RTVSPropertyOp39
 70
     1
102
RTVSPropertyOp40
 70
     1
102
RTVSPropertyOp41
 70
     1
102
RTVSPropertyOp42
 70
     1
102
RTVSPropertyOp43
 70
     1
102
RTVSPropertyOp44
 70
     1
102
RTVSPropertyOp45
 70
     1
102
RTVSPropertyOp46
 70
     1
102
RTVSPropertyOp47
 70
     1
102
RTVSPropertyOp48
 70
     1
102
RTVSPropertyOp49
 70
     1
102
RTVSPropertyOp50
 70
     1
102
RTVSPropertyOp51
 70
     0
102
RTVSPropertyOp52
 70
     0
102
RTVSPropertyOp53
 70
     1
102
RTVSPropertyOp54
 70
     1
102
RTVSPropertyOp55
 70
     1
102
RTVSPropertyOp56
 70
     1
102
RTVSPropertyOp57
 70
     1
102
RTVSPost2010Prop28
280
     0
102
RTVSPost2010PropOp28
 70
     1
102
RTVSPost2010Prop29
280
     1
102
RTVSPost2010PropOp29
 70
     1
102
RTVSPost2010Prop30
280
     1
102
RTVSPost2010PropOp30
 70
     1
102
RTVSPost2010Prop31
280
     0
102
RTVSPost2010PropOp31
 70
     1
102
RTVSPost2010Prop32
280
     0
102
RTVSPost2010PropOp32
 70
     1
102
RTVSPost2010Prop33
280
     0
102
RTVSPost2010PropOp33
 70
     1
102
RTVSPost2010Prop34
280
     0
102
RTVSPost2010PropOp34
 70
     1
102
RTVSPost2010Prop35
280
     0
102
RTVSPost2010PropOp35
 70
     1
102
RTVSPost2010Prop36
280
     0
102
RTVSPost2010PropOp36
 70
     1
102
RTVSPost2010Prop37
 90
       50
102
RTVSPost2010PropOp37
 70
     1
102
RTVSPost2010Prop38
140
0.0
102
RTVSPost2010PropOp38
 70
     1
102
RTVSPost2010Prop39
140
1.0
102
RTVSPost2010PropOp39
 70
     1
102
RTVSPost2010Prop40
 90
        0
102
RTVSPost2010PropOp40
 70
     1
102
RTVSPost2010Prop41ColorIndex
 90
      178
102
RTVSPost2010Prop41ColorRGB
 90
        0
102
RTVSPost2010PropOp41
 70
     1
102
RTVSPost2010Prop42
 90
       50
102
RTVSPost2010PropOp42
 70
     1
102
RTVSPost2010Prop43
 90
        3
102
RTVSPost2010PropOp43
 70
     1
102
RTVSPost2010Prop44ColorIndex
 90
        5
102
RTVSPost2010Prop44ColorRGB
 90
      255
102
RTVSPost2010PropOp44
 70
     1
102
RTVSPost2010Prop45
280
     0
102
RTVSPost2010PropOp45
 70
     1
102
RTVSPost2010Prop46
 90
       50
102
RTVSPost2010PropOp46
 70
     1
102
RTVSPost2010Prop47
 90
       50
102
RTVSPost2010PropOp47
 70
     1
102
RTVSPost2010Prop48
 90
       50
102
RTVSPost2010PropOp48
 70
     1
102
RTVSPost2010Prop49
280
     0
102
RTVSPost2010PropOp49
 70
     1
102
RTVSPost2010Prop50
 90
       50
102
RTVSPost2010PropOp50
 70
     1
102
RTVSPost2010Prop51ColorIndex
 90
      256
102
RTVSPost2010Prop51ColorRGB
 90
-16777216
102
RTVSPost2010PropOp51
 70
     0
102
RTVSPost2010Prop52
140
1.0
102
RTVSPost2010PropOp52
 70
     0
102
RTVSPost2010Prop53
 90
        2
102
RTVSPost2010PropOp53
 70
     1
102
RTVSPost2010Prop54
  1
strokes_ogs.tif
102
RTVSPost2010PropOp54
 70
     1
102
RTVSPost2010Prop55
280
     0
102
RTVSPost2010PropOp55
 70
     1
102
RTVSPost2010Prop56
140
1.0
102
RTVSPost2010PropOp56
 70
     1
102
RTVSPost2010Prop57
140
1.0
102
RTVSPost2010PropOp57
 70
     1
  0
XRECORD
  5
38A
102
{ACAD_REACTORS
330
389
102
}
330
389
100
AcDbXrecord
280
     1
102
RTVSPropertyOp0
 70
     1
102
RTVSPropertyOp1
 70
     1
102
RTVSPropertyOp2
 70
     1
102
RTVSPropertyOp3
 70
     1
102
RTVSPropertyOp4
 70
     1
102
RTVSPropertyOp5
 70
     1
102
RTVSPropertyOp6
 70
     1
102
RTVSPropertyOp7
 70
     1
102
RTVSPropertyOp8
 70
     1
102
RTVSPropertyOp9
 70
     1
102
RTVSPropertyOp10
 70
     1
102
RTVSPropertyOp11
 70
     1
102
RTVSPropertyOp12
 70
     1
102
RTVSPropertyOp13
 70
     1
102
RTVSPropertyOp14
 70
     1
102
RTVSPropertyOp15
 70
     1
102
RTVSPropertyOp16
 70
     1
102
RTVSPropertyOp17
 70
     1
102
RTVSPropertyOp18
 70
     1
102
RTVSPropertyOp19
 70
     1
102
RTVSPropertyOp20
 70
     1
102
RTVSPropertyOp21
 70
     1
102
RTVSPropertyOp22
 70
     1
102
RTVSPropertyOp23
 70
     1
102
RTVSPropertyOp24
 70
     1
102
RTVSPropertyOp25
 70
     1
102
RTVSPropertyOp26
 70
     1
102
RTVSPropertyOp27
 70
     1
102
RTVSPropertyOp28
 70
     1
102
RTVSPropertyOp29
 70
     1
102
RTVSPropertyOp30
 70
     1
102
RTVSPropertyOp31
 70
     1
102
RTVSPropertyOp32
 70
     1
102
RTVSPropertyOp33
 70
     1
102
RTVSPropertyOp34
 70
     1
102
RTVSPropertyOp35
 70
     1
102
RTVSPropertyOp36
 70
     1
102
RTVSPropertyOp37
 70
     1
102
RTVSPropertyOp38
 70
     1
102
RTVSPropertyOp39
 70
     1
102
RTVSPropertyOp40
 70
     1
102
RTVSPropertyOp41
 70
     1
102
RTVSPropertyOp42
 70
     1
102
RTVSPropertyOp43
 70
     1
102
RTVSPropertyOp44
 70
     1
102
RTVSPropertyOp45
 70
     1
102
RTVSPropertyOp46
 70
     1
102
RTVSPropertyOp47
 70
     1
102
RTVSPropertyOp48
 70
     1
102
RTVSPropertyOp49
 70
     1
102
RTVSPropertyOp50
 70
     1
102
RTVSPropertyOp51
 70
     0
102
RTVSPropertyOp52
 70
     0
102
RTVSPropertyOp53
 70
     1
102
RTVSPropertyOp54
 70
     1
102
RTVSPropertyOp55
 70
     1
102
RTVSPropertyOp56
 70
     1
102
RTVSPropertyOp57
 70
     1
102
RTVSPost2010Prop28
280
     0
102
RTVSPost2010PropOp28
 70
     1
102
RTVSPost2010Prop29
280
     1
102
RTVSPost2010PropOp29
 70
     1
102
RTVSPost2010Prop30
280
     1
102
RTVSPost2010PropOp30
 70
     1
102
RTVSPost2010Prop31
280
     0
102
RTVSPost2010PropOp31
 70
     1
102
RTVSPost2010Prop32
280
     0
102
RTVSPost2010PropOp32
 70
     1
102
RTVSPost2010Prop33
280
     0
102
RTVSPost2010PropOp33
 70
     1
102
RTVSPost2010Prop34
280
     0
102
RTVSPost2010PropOp34
 70
     1
102
RTVSPost2010Prop35
280
     0
102
RTVSPost2010PropOp35
 70
     1
102
RTVSPost2010Prop36
280
     0
102
RTVSPost2010PropOp36
 70
     1
102
RTVSPost2010Prop37
 90
       50
102
RTVSPost2010PropOp37
 70
     1
102
RTVSPost2010Prop38
140
0.0
102
RTVSPost2010PropOp38
 70
     1
102
RTVSPost2010Prop39
140
1.0
102
RTVSPost2010PropOp39
 70
     1
102
RTVSPost2010Prop40
 90
        0
102
RTVSPost2010PropOp40
 70
     1
102
RTVSPost2010Prop41ColorIndex
 90
      178
102
RTVSPost2010Prop41ColorRGB
 90
        0
102
RTVSPost2010PropOp41
 70
     1
102
RTVSPost2010Prop42
 90
       50
102
RTVSPost2010PropOp42
 70
     1
102
RTVSPost2010Prop43
 90
        3
102
RTVSPost2010PropOp43
 70
     1
102
RTVSPost2010Prop44ColorIndex
 90
        5
102
RTVSPost2010Prop44ColorRGB
 90
      255
102
RTVSPost2010PropOp44
 70
     1
102
RTVSPost2010Prop45
280
     0
102
RTVSPost2010PropOp45
 70
     1
102
RTVSPost2010Prop46
 90
       50
102
RTVSPost2010PropOp46
 70
     1
102
RTVSPost2010Prop47
 90
       50
102
RTVSPost2010PropOp47
 70
     1
102
RTVSPost2010Prop48
 90
       50
102
RTVSPost2010PropOp48
 70
     1
102
RTVSPost2010Prop49
280
     0
102
RTVSPost2010PropOp49
 70
     1
102
RTVSPost2010Prop50
 90
       50
102
RTVSPost2010PropOp50
 70
     1
102
RTVSPost2010Prop51ColorIndex
 90
      256
102
RTVSPost2010Prop51ColorRGB
 90
-16777216
102
RTVSPost2010PropOp51
 70
     0
102
RTVSPost2010Prop52
140
1.0
102
RTVSPost2010PropOp52
 70
     0
102
RTVSPost2010Prop53
 90
        2
102
RTVSPost2010PropOp53
 70
     1
102
RTVSPost2010Prop54
  1
strokes_ogs.tif
102
RTVSPost2010PropOp54
 70
     1
102
RTVSPost2010Prop55
280
     0
102
RTVSPost2010PropOp55
 70
     1
102
RTVSPost2010Prop56
140
1.0
102
RTVSPost2010PropOp56
 70
     1
102
RTVSPost2010Prop57
140
1.0
102
RTVSPost2010PropOp57
 70
     1
  0
XRECORD
  5
37A
102
{ACAD_REACTORS
330
379
102
}
330
379
100
AcDbXrecord
280
     1
102
RTVSPropertyOp0
 70
     1
102
RTVSPropertyOp1
 70
     1
102
RTVSPropertyOp2
 70
     1
102
RTVSPropertyOp3
 70
     1
102
RTVSPropertyOp4
 70
     1
102
RTVSPropertyOp5
 70
     1
102
RTVSPropertyOp6
 70
     1
102
RTVSPropertyOp7
 70
     1
102
RTVSPropertyOp8
 70
     1
102
RTVSPropertyOp9
 70
     1
102
RTVSPropertyOp10
 70
     1
102
RTVSPropertyOp11
 70
     1
102
RTVSPropertyOp12
 70
     1
102
RTVSPropertyOp13
 70
     1
102
RTVSPropertyOp14
 70
     1
102
RTVSPropertyOp15
 70
     1
102
RTVSPropertyOp16
 70
     1
102
RTVSPropertyOp17
 70
     1
102
RTVSPropertyOp18
 70
     1
102
RTVSPropertyOp19
 70
     1
102
RTVSPropertyOp20
 70
     1
102
RTVSPropertyOp21
 70
     1
102
RTVSPropertyOp22
 70
     1
102
RTVSPropertyOp23
 70
     1
102
RTVSPropertyOp24
 70
     1
102
RTVSPropertyOp25
 70
     1
102
RTVSPropertyOp26
 70
     1
102
RTVSPropertyOp27
 70
     1
102
RTVSPropertyOp28
 70
     1
102
RTVSPropertyOp29
 70
     1
102
RTVSPropertyOp30
 70
     1
102
RTVSPropertyOp31
 70
     1
102
RTVSPropertyOp32
 70
     1
102
RTVSPropertyOp33
 70
     1
102
RTVSPropertyOp34
 70
     1
102
RTVSPropertyOp35
 70
     1
102
RTVSPropertyOp36
 70
     1
102
RTVSPropertyOp37
 70
     1
102
RTVSPropertyOp38
 70
     1
102
RTVSPropertyOp39
 70
     1
102
RTVSPropertyOp40
 70
     1
102
RTVSPropertyOp41
 70
     1
102
RTVSPropertyOp42
 70
     1
102
RTVSPropertyOp43
 70
     1
102
RTVSPropertyOp44
 70
     1
102
RTVSPropertyOp45
 70
     1
102
RTVSPropertyOp46
 70
     1
102
RTVSPropertyOp47
 70
     1
102
RTVSPropertyOp48
 70
     1
102
RTVSPropertyOp49
 70
     1
102
RTVSPropertyOp50
 70
     1
102
RTVSPropertyOp51
 70
     0
102
RTVSPropertyOp52
 70
     0
102
RTVSPropertyOp53
 70
     1
102
RTVSPropertyOp54
 70
     1
102
RTVSPropertyOp55
 70
     1
102
RTVSPropertyOp56
 70
     1
102
RTVSPropertyOp57
 70
     1
102
RTVSPost2010Prop28
280
     0
102
RTVSPost2010PropOp28
 70
     1
102
RTVSPost2010Prop29
280
     1
102
RTVSPost2010PropOp29
 70
     1
102
RTVSPost2010Prop30
280
     1
102
RTVSPost2010PropOp30
 70
     1
102
RTVSPost2010Prop31
280
     0
102
RTVSPost2010PropOp31
 70
     1
102
RTVSPost2010Prop32
280
     0
102
RTVSPost2010PropOp32
 70
     1
102
RTVSPost2010Prop33
280
     0
102
RTVSPost2010PropOp33
 70
     1
102
RTVSPost2010Prop34
280
     0
102
RTVSPost2010PropOp34
 70
     1
102
RTVSPost2010Prop35
280
     0
102
RTVSPost2010PropOp35
 70
     1
102
RTVSPost2010Prop36
280
     0
102
RTVSPost2010PropOp36
 70
     1
102
RTVSPost2010Prop37
 90
       50
102
RTVSPost2010PropOp37
 70
     1
102
RTVSPost2010Prop38
140
0.0
102
RTVSPost2010PropOp38
 70
     1
102
RTVSPost2010Prop39
140
1.0
102
RTVSPost2010PropOp39
 70
     1
102
RTVSPost2010Prop40
 90
        0
102
RTVSPost2010PropOp40
 70
     1
102
RTVSPost2010Prop41ColorIndex
 90
      178
102
RTVSPost2010Prop41ColorRGB
 90
        0
102
RTVSPost2010PropOp41
 70
     1
102
RTVSPost2010Prop42
 90
       50
102
RTVSPost2010PropOp42
 70
     1
102
RTVSPost2010Prop43
 90
        3
102
RTVSPost2010PropOp43
 70
     1
102
RTVSPost2010Prop44ColorIndex
 90
        5
102
RTVSPost2010Prop44ColorRGB
 90
      255
102
RTVSPost2010PropOp44
 70
     1
102
RTVSPost2010Prop45
280
     0
102
RTVSPost2010PropOp45
 70
     1
102
RTVSPost2010Prop46
 90
       50
102
RTVSPost2010PropOp46
 70
     1
102
RTVSPost2010Prop47
 90
       50
102
RTVSPost2010PropOp47
 70
     1
102
RTVSPost2010Prop48
 90
       50
102
RTVSPost2010PropOp48
 70
     1
102
RTVSPost2010Prop49
280
     0
102
RTVSPost2010PropOp49
 70
     1
102
RTVSPost2010Prop50
 90
       50
102
RTVSPost2010PropOp50
 70
     1
102
RTVSPost2010Prop51ColorIndex
 90
      256
102
RTVSPost2010Prop51ColorRGB
 90
-16777216
102
RTVSPost2010PropOp51
 70
     0
102
RTVSPost2010Prop52
140
1.0
102
RTVSPost2010PropOp52
 70
     0
102
RTVSPost2010Prop53
 90
        2
102
RTVSPost2010PropOp53
 70
     1
102
RTVSPost2010Prop54
  1
strokes_ogs.tif
102
RTVSPost2010PropOp54
 70
     1
102
RTVSPost2010Prop55
280
     0
102
RTVSPost2010PropOp55
 70
     1
102
RTVSPost2010Prop56
140
1.0
102
RTVSPost2010PropOp56
 70
     1
102
RTVSPost2010Prop57
140
1.0
102
RTVSPost2010PropOp57
 70
     1
  0
XRECORD
  5
36C
102
{ACAD_REACTORS
330
36B
102
}
330
36B
100
AcDbXrecord
280
     1
102
RTVSPropertyOp0
 70
     1
102
RTVSPropertyOp1
 70
     1
102
RTVSPropertyOp2
 70
     1
102
RTVSPropertyOp3
 70
     1
102
RTVSPropertyOp4
 70
     1
102
RTVSPropertyOp5
 70
     1
102
RTVSPropertyOp6
 70
     1
102
RTVSPropertyOp7
 70
     1
102
RTVSPropertyOp8
 70
     1
102
RTVSPropertyOp9
 70
     1
102
RTVSPropertyOp10
 70
     1
102
RTVSPropertyOp11
 70
     1
102
RTVSPropertyOp12
 70
     1
102
RTVSPropertyOp13
 70
     1
102
RTVSPropertyOp14
 70
     1
102
RTVSPropertyOp15
 70
     1
102
RTVSPropertyOp16
 70
     1
102
RTVSPropertyOp17
 70
     1
102
RTVSPropertyOp18
 70
     1
102
RTVSPropertyOp19
 70
     1
102
RTVSPropertyOp20
 70
     1
102
RTVSPropertyOp21
 70
     1
102
RTVSPropertyOp22
 70
     1
102
RTVSPropertyOp23
 70
     1
102
RTVSPropertyOp24
 70
     1
102
RTVSPropertyOp25
 70
     1
102
RTVSPropertyOp26
 70
     1
102
RTVSPropertyOp27
 70
     1
102
RTVSPropertyOp28
 70
     1
102
RTVSPropertyOp29
 70
     1
102
RTVSPropertyOp30
 70
     1
102
RTVSPropertyOp31
 70
     1
102
RTVSPropertyOp32
 70
     1
102
RTVSPropertyOp33
 70
     1
102
RTVSPropertyOp34
 70
     1
102
RTVSPropertyOp35
 70
     1
102
RTVSPropertyOp36
 70
     1
102
RTVSPropertyOp37
 70
     1
102
RTVSPropertyOp38
 70
     1
102
RTVSPropertyOp39
 70
     1
102
RTVSPropertyOp40
 70
     1
102
RTVSPropertyOp41
 70
     1
102
RTVSPropertyOp42
 70
     1
102
RTVSPropertyOp43
 70
     1
102
RTVSPropertyOp44
 70
     1
102
RTVSPropertyOp45
 70
     1
102
RTVSPropertyOp46
 70
     1
102
RTVSPropertyOp47
 70
     1
102
RTVSPropertyOp48
 70
     1
102
RTVSPropertyOp49
 70
     1
102
RTVSPropertyOp50
 70
     1
102
RTVSPropertyOp51
 70
     0
102
RTVSPropertyOp52
 70
     0
102
RTVSPropertyOp53
 70
     1
102
RTVSPropertyOp54
 70
     1
102
RTVSPropertyOp55
 70
     1
102
RTVSPropertyOp56
 70
     1
102
RTVSPropertyOp57
 70
     1
102
RTVSPost2010Prop28
280
     0
102
RTVSPost2010PropOp28
 70
     1
102
RTVSPost2010Prop29
280
     1
102
RTVSPost2010PropOp29
 70
     1
102
RTVSPost2010Prop30
280
     1
102
RTVSPost2010PropOp30
 70
     1
102
RTVSPost2010Prop31
280
     0
102
RTVSPost2010PropOp31
 70
     1
102
RTVSPost2010Prop32
280
     0
102
RTVSPost2010PropOp32
 70
     1
102
RTVSPost2010Prop33
280
     0
102
RTVSPost2010PropOp33
 70
     1
102
RTVSPost2010Prop34
280
     0
102
RTVSPost2010PropOp34
 70
     1
102
RTVSPost2010Prop35
280
     0
102
RTVSPost2010PropOp35
 70
     1
102
RTVSPost2010Prop36
280
     0
102
RTVSPost2010PropOp36
 70
     1
102
RTVSPost2010Prop37
 90
       50
102
RTVSPost2010PropOp37
 70
     1
102
RTVSPost2010Prop38
140
0.0
102
RTVSPost2010PropOp38
 70
     1
102
RTVSPost2010Prop39
140
1.0
102
RTVSPost2010PropOp39
 70
     1
102
RTVSPost2010Prop40
 90
        0
102
RTVSPost2010PropOp40
 70
     1
102
RTVSPost2010Prop41ColorIndex
 90
      178
102
RTVSPost2010Prop41ColorRGB
 90
        0
102
RTVSPost2010PropOp41
 70
     1
102
RTVSPost2010Prop42
 90
       50
102
RTVSPost2010PropOp42
 70
     1
102
RTVSPost2010Prop43
 90
        3
102
RTVSPost2010PropOp43
 70
     1
102
RTVSPost2010Prop44ColorIndex
 90
        5
102
RTVSPost2010Prop44ColorRGB
 90
      255
102
RTVSPost2010PropOp44
 70
     1
102
RTVSPost2010Prop45
280
     0
102
RTVSPost2010PropOp45
 70
     1
102
RTVSPost2010Prop46
 90
       50
102
RTVSPost2010PropOp46
 70
     1
102
RTVSPost2010Prop47
 90
       50
102
RTVSPost2010PropOp47
 70
     1
102
RTVSPost2010Prop48
 90
       50
102
RTVSPost2010PropOp48
 70
     1
102
RTVSPost2010Prop49
280
     0
102
RTVSPost2010PropOp49
 70
     1
102
RTVSPost2010Prop50
 90
       50
102
RTVSPost2010PropOp50
 70
     1
102
RTVSPost2010Prop51ColorIndex
 90
      256
102
RTVSPost2010Prop51ColorRGB
 90
-16777216
102
RTVSPost2010PropOp51
 70
     0
102
RTVSPost2010Prop52
140
1.0
102
RTVSPost2010PropOp52
 70
     0
102
RTVSPost2010Prop53
 90
        2
102
RTVSPost2010PropOp53
 70
     1
102
RTVSPost2010Prop54
  1
strokes_ogs.tif
102
RTVSPost2010PropOp54
 70
     1
102
RTVSPost2010Prop55
280
     0
102
RTVSPost2010PropOp55
 70
     1
102
RTVSPost2010Prop56
140
1.0
102
RTVSPost2010PropOp56
 70
     1
102
RTVSPost2010Prop57
140
1.0
102
RTVSPost2010PropOp57
 70
     1
  0
XRECORD
  5
38C
102
{ACAD_REACTORS
330
38B
102
}
330
38B
100
AcDbXrecord
280
     1
102
RTVSPropertyOp0
 70
     1
102
RTVSPropertyOp1
 70
     1
102
RTVSPropertyOp2
 70
     1
102
RTVSPropertyOp3
 70
     1
102
RTVSPropertyOp4
 70
     1
102
RTVSPropertyOp5
 70
     1
102
RTVSPropertyOp6
 70
     1
102
RTVSPropertyOp7
 70
     1
102
RTVSPropertyOp8
 70
     1
102
RTVSPropertyOp9
 70
     1
102
RTVSPropertyOp10
 70
     1
102
RTVSPropertyOp11
 70
     1
102
RTVSPropertyOp12
 70
     1
102
RTVSPropertyOp13
 70
     1
102
RTVSPropertyOp14
 70
     1
102
RTVSPropertyOp15
 70
     1
102
RTVSPropertyOp16
 70
     1
102
RTVSPropertyOp17
 70
     1
102
RTVSPropertyOp18
 70
     1
102
RTVSPropertyOp19
 70
     1
102
RTVSPropertyOp20
 70
     1
102
RTVSPropertyOp21
 70
     1
102
RTVSPropertyOp22
 70
     1
102
RTVSPropertyOp23
 70
     1
102
RTVSPropertyOp24
 70
     1
102
RTVSPropertyOp25
 70
     1
102
RTVSPropertyOp26
 70
     1
102
RTVSPropertyOp27
 70
     1
102
RTVSPropertyOp28
 70
     1
102
RTVSPropertyOp29
 70
     1
102
RTVSPropertyOp30
 70
     1
102
RTVSPropertyOp31
 70
     1
102
RTVSPropertyOp32
 70
     1
102
RTVSPropertyOp33
 70
     1
102
RTVSPropertyOp34
 70
     1
102
RTVSPropertyOp35
 70
     1
102
RTVSPropertyOp36
 70
     1
102
RTVSPropertyOp37
 70
     1
102
RTVSPropertyOp38
 70
     1
102
RTVSPropertyOp39
 70
     1
102
RTVSPropertyOp40
 70
     1
102
RTVSPropertyOp41
 70
     1
102
RTVSPropertyOp42
 70
     1
102
RTVSPropertyOp43
 70
     1
102
RTVSPropertyOp44
 70
     1
102
RTVSPropertyOp45
 70
     1
102
RTVSPropertyOp46
 70
     1
102
RTVSPropertyOp47
 70
     1
102
RTVSPropertyOp48
 70
     1
102
RTVSPropertyOp49
 70
     1
102
RTVSPropertyOp50
 70
     1
102
RTVSPropertyOp51
 70
     0
102
RTVSPropertyOp52
 70
     0
102
RTVSPropertyOp53
 70
     1
102
RTVSPropertyOp54
 70
     1
102
RTVSPropertyOp55
 70
     1
102
RTVSPropertyOp56
 70
     1
102
RTVSPropertyOp57
 70
     1
102
RTVSPost2010Prop28
280
     0
102
RTVSPost2010PropOp28
 70
     1
102
RTVSPost2010Prop29
280
     1
102
RTVSPost2010PropOp29
 70
     1
102
RTVSPost2010Prop30
280
     1
102
RTVSPost2010PropOp30
 70
     1
102
RTVSPost2010Prop31
280
     0
102
RTVSPost2010PropOp31
 70
     1
102
RTVSPost2010Prop32
280
     0
102
RTVSPost2010PropOp32
 70
     1
102
RTVSPost2010Prop33
280
     0
102
RTVSPost2010PropOp33
 70
     1
102
RTVSPost2010Prop34
280
     0
102
RTVSPost2010PropOp34
 70
     1
102
RTVSPost2010Prop35
280
     0
102
RTVSPost2010PropOp35
 70
     1
102
RTVSPost2010Prop36
280
     0
102
RTVSPost2010PropOp36
 70
     1
102
RTVSPost2010Prop37
 90
       50
102
RTVSPost2010PropOp37
 70
     1
102
RTVSPost2010Prop38
140
0.0
102
RTVSPost2010PropOp38
 70
     1
102
RTVSPost2010Prop39
140
1.0
102
RTVSPost2010PropOp39
 70
     1
102
RTVSPost2010Prop40
 90
        0
102
RTVSPost2010PropOp40
 70
     1
102
RTVSPost2010Prop41ColorIndex
 90
      178
102
RTVSPost2010Prop41ColorRGB
 90
        0
102
RTVSPost2010PropOp41
 70
     1
102
RTVSPost2010Prop42
 90
       50
102
RTVSPost2010PropOp42
 70
     1
102
RTVSPost2010Prop43
 90
        3
102
RTVSPost2010PropOp43
 70
     1
102
RTVSPost2010Prop44ColorIndex
 90
        5
102
RTVSPost2010Prop44ColorRGB
 90
      255
102
RTVSPost2010PropOp44
 70
     1
102
RTVSPost2010Prop45
280
     0
102
RTVSPost2010PropOp45
 70
     1
102
RTVSPost2010Prop46
 90
       50
102
RTVSPost2010PropOp46
 70
     1
102
RTVSPost2010Prop47
 90
       50
102
RTVSPost2010PropOp47
 70
     1
102
RTVSPost2010Prop48
 90
       50
102
RTVSPost2010PropOp48
 70
     1
102
RTVSPost2010Prop49
280
     0
102
RTVSPost2010PropOp49
 70
     1
102
RTVSPost2010Prop50
 90
       50
102
RTVSPost2010PropOp50
 70
     1
102
RTVSPost2010Prop51ColorIndex
 90
      256
102
RTVSPost2010Prop51ColorRGB
 90
-16777216
102
RTVSPost2010PropOp51
 70
     0
102
RTVSPost2010Prop52
140
1.0
102
RTVSPost2010PropOp52
 70
     0
102
RTVSPost2010Prop53
 90
        2
102
RTVSPost2010PropOp53
 70
     1
102
RTVSPost2010Prop54
  1
strokes_ogs.tif
102
RTVSPost2010PropOp54
 70
     1
102
RTVSPost2010Prop55
280
     0
102
RTVSPost2010PropOp55
 70
     1
102
RTVSPost2010Prop56
140
1.0
102
RTVSPost2010PropOp56
 70
     1
102
RTVSPost2010Prop57
140
1.0
102
RTVSPost2010PropOp57
 70
     1
  0
ENDSEC
  0
EOF
