  0
SECTION
  2
HEADER
  9
$ACADVER
  1
AC1021
  9
$ACADMAINTVER
 70
    25
  9
$DWGCODEPAGE
  3
ANSI_1252
  9
$INSBASE
 10
3804.693056528511
 20
1444.863951419895
 30
0.0
  9
$EXTMIN
 10
1.000000000000000E+20
 20
1.000000000000000E+20
 30
1.000000000000000E+20
  9
$EXTMAX
 10
-1.000000000000000E+20
 20
-1.000000000000000E+20
 30
-1.000000000000000E+20
  9
$LIMMIN
 10
0.0
 20
0.0
  9
$LIMMAX
 10
12.0
 20
9.0
  9
$ORTHOMODE
 70
     0
  9
$REGENMODE
 70
     1
  9
$FILLMODE
 70
     1
  9
$QTEXTMODE
 70
     0
  9
$MIRRTEXT
 70
     1
  9
$LTSCALE
 40
1.0
  9
$ATTMODE
 70
     1
  9
$TEXTSIZE
 40
0.2
  9
$TRACEWID
 40
0.05
  9
$TEXTSTYLE
  7
Standard
  9
$CLAYER
  8
Graypants_Drum36
  9
$CELTYPE
  6
ByLayer
  9
$CECOLOR
 62
   256
  9
$CELTSCALE
 40
1.0
  9
$DISPSILH
 70
     0
  9
$DIMSCALE
 40
1.0
  9
$DIMASZ
 40
0.18
  9
$DIMEXO
 40
0.0625
  9
$DIMDLI
 40
0.38
  9
$DIMRND
 40
0.0
  9
$DIMDLE
 40
0.0
  9
$DIMEXE
 40
0.18
  9
$DIMTP
 40
0.0
  9
$DIMTM
 40
0.0
  9
$DIMTXT
 40
0.18
  9
$DIMCEN
 40
0.09
  9
$DIMTSZ
 40
0.0
  9
$DIMTOL
 70
     0
  9
$DIMLIM
 70
     0
  9
$DIMTIH
 70
     1
  9
$DIMTOH
 70
     1
  9
$DIMSE1
 70
     0
  9
$DIMSE2
 70
     0
  9
$DIMTAD
 70
     0
  9
$DIMZIN
 70
     0
  9
$DIMBLK
  1

  9
$DIMASO
 70
     1
  9
$DIMSHO
 70
     1
  9
$DIMPOST
  1

  9
$DIMAPOST
  1

  9
$DIMALT
 70
     0
  9
$DIMALTD
 70
     2
  9
$DIMALTF
 40
25.4
  9
$DIMLFAC
 40
1.0
  9
$DIMTOFL
 70
     0
  9
$DIMTVP
 40
0.0
  9
$DIMTIX
 70
     0
  9
$DIMSOXD
 70
     0
  9
$DIMSAH
 70
     0
  9
$DIMBLK1
  1

  9
$DIMBLK2
  1

  9
$DIMSTYLE
  2
STANDARD_ACAD
  9
$DIMCLRD
 70
     0
  9
$DIMCLRE
 70
     0
  9
$DIMCLRT
 70
     0
  9
$DIMTFAC
 40
1.0
  9
$DIMGAP
 40
0.09
  9
$DIMJUST
 70
     0
  9
$DIMSD1
 70
     0
  9
$DIMSD2
 70
     0
  9
$DIMTOLJ
 70
     1
  9
$DIMTZIN
 70
     0
  9
$DIMALTZ
 70
     0
  9
$DIMALTTZ
 70
     0
  9
$DIMUPT
 70
     0
  9
$DIMDEC
 70
     4
  9
$DIMTDEC
 70
     4
  9
$DIMALTU
 70
     2
  9
$DIMALTTD
 70
     2
  9
$DIMTXSTY
  7
Standard
  9
$DIMAUNIT
 70
     0
  9
$DIMADEC
 70
     0
  9
$DIMALTRND
 40
0.0
  9
$DIMAZIN
 70
     0
  9
$DIMDSEP
 70
    46
  9
$DIMATFIT
 70
     3
  9
$DIMFRAC
 70
     0
  9
$DIMLDRBLK
  1

  9
$DIMLUNIT
 70
     2
  9
$DIMLWD
 70
    -2
  9
$DIMLWE
 70
    -2
  9
$DIMTMOVE
 70
     2
  9
$DIMFXL
 40
1.0
  9
$DIMFXLON
 70
     0
  9
$DIMJOGANG
 40
0.7853981633974483
  9
$DIMTFILL
 70
     0
  9
$DIMTFILLCLR
 70
     0
  9
$DIMARCSYM
 70
     0
  9
$DIMLTYPE
  6

  9
$DIMLTEX1
  6

  9
$DIMLTEX2
  6

  9
$LUNITS
 70
     2
  9
$LUPREC
 70
     3
  9
$SKETCHINC
 40
0.1
  9
$FILLETRAD
 40
0.5
  9
$AUNITS
 70
     0
  9
$AUPREC
 70
     0
  9
$MENU
  1
.
  9
$ELEVATION
 40
0.0
  9
$PELEVATION
 40
0.0
  9
$THICKNESS
 40
0.0
  9
$LIMCHECK
 70
     0
  9
$CHAMFERA
 40
0.0
  9
$CHAMFERB
 40
0.0
  9
$CHAMFERC
 40
0.0
  9
$CHAMFERD
 40
0.0
  9
$SKPOLY
 70
     0
  9
$TDCREATE
 40
2460864.522843958
  9
$TDUCREATE
 40
2460864.856177292
  9
$TDUPDATE
 40
2460864.522859155
  9
$TDUUPDATE
 40
2460864.856192488
  9
$TDINDWG
 40
0.0000000116
  9
$TDUSRTIMER
 40
0.0000000116
  9
$USRTIMER
 70
     1
  9
$ANGBASE
 50
0.0
  9
$ANGDIR
 70
     0
  9
$PDMODE
 70
     0
  9
$PDSIZE
 40
0.0
  9
$PLINEWID
 40
0.0
  9
$SPLFRAME
 70
     0
  9
$SPLINETYPE
 70
     6
  9
$SPLINESEGS
 70
     8
  9
$HANDSEED
  5
3EF
  9
$SURFTAB1
 70
     6
  9
$SURFTAB2
 70
     6
  9
$SURFTYPE
 70
     6
  9
$SURFU
 70
     6
  9
$SURFV
 70
     6
  9
$UCSBASE
  2

  9
$UCSNAME
  2

  9
$UCSORG
 10
0.0
 20
0.0
 30
0.0
  9
$UCSXDIR
 10
1.0
 20
0.0
 30
0.0
  9
$UCSYDIR
 10
0.0
 20
1.0
 30
0.0
  9
$UCSORTHOREF
  2

  9
$UCSORTHOVIEW
 70
     0
  9
$UCSORGTOP
 10
0.0
 20
0.0
 30
0.0
  9
$UCSORGBOTTOM
 10
0.0
 20
0.0
 30
0.0
  9
$UCSORGLEFT
 10
0.0
 20
0.0
 30
0.0
  9
$UCSORGRIGHT
 10
0.0
 20
0.0
 30
0.0
  9
$UCSORGFRONT
 10
0.0
 20
0.0
 30
0.0
  9
$UCSORGBACK
 10
0.0
 20
0.0
 30
0.0
  9
$PUCSBASE
  2

  9
$PUCSNAME
  2

  9
$PUCSORG
 10
0.0
 20
0.0
 30
0.0
  9
$PUCSXDIR
 10
1.0
 20
0.0
 30
0.0
  9
$PUCSYDIR
 10
0.0
 20
1.0
 30
0.0
  9
$PUCSORTHOREF
  2

  9
$PUCSORTHOVIEW
 70
     0
  9
$PUCSORGTOP
 10
0.0
 20
0.0
 30
0.0
  9
$PUCSORGBOTTOM
 10
0.0
 20
0.0
 30
0.0
  9
$PUCSORGLEFT
 10
0.0
 20
0.0
 30
0.0
  9
$PUCSORGRIGHT
 10
0.0
 20
0.0
 30
0.0
  9
$PUCSORGFRONT
 10
0.0
 20
0.0
 30
0.0
  9
$PUCSORGBACK
 10
0.0
 20
0.0
 30
0.0
  9
$USERI1
 70
     0
  9
$USERI2
 70
     0
  9
$USERI3
 70
     0
  9
$USERI4
 70
     0
  9
$USERI5
 70
     0
  9
$USERR1
 40
0.0
  9
$USERR2
 40
0.0
  9
$USERR3
 40
0.0
  9
$USERR4
 40
0.0
  9
$USERR5
 40
0.0
  9
$WORLDVIEW
 70
     1
  9
$SHADEDGE
 70
     3
  9
$SHADEDIF
 70
    70
  9
$TILEMODE
 70
     1
  9
$MAXACTVP
 70
    64
  9
$PINSBASE
 10
0.0
 20
0.0
 30
0.0
  9
$PLIMCHECK
 70
     0
  9
$PEXTMIN
 10
1.000000000000000E+20
 20
1.000000000000000E+20
 30
1.000000000000000E+20
  9
$PEXTMAX
 10
-1.000000000000000E+20
 20
-1.000000000000000E+20
 30
-1.000000000000000E+20
  9
$PLIMMIN
 10
0.0
 20
0.0
  9
$PLIMMAX
 10
12.0
 20
9.0
  9
$UNITMODE
 70
     0
  9
$VISRETAIN
 70
     1
  9
$PLINEGEN
 70
     0
  9
$PSLTSCALE
 70
     1
  9
$TREEDEPTH
 70
  3020
  9
$CMLSTYLE
  2
Standard
  9
$CMLJUST
 70
     0
  9
$CMLSCALE
 40
1.0
  9
$PROXYGRAPHICS
 70
     1
  9
$MEASUREMENT
 70
     1
  9
$CELWEIGHT
370
    -1
  9
$ENDCAPS
280
     0
  9
$JOINSTYLE
280
     0
  9
$LWDISPLAY
290
     0
  9
$INSUNITS
 70
     4
  9
$HYPERLINKBASE
  1

  9
$STYLESHEET
  1

  9
$XEDIT
290
     1
  9
$CEPSNTYPE
380
     0
  9
$PSTYLEMODE
290
     1
  9
$FINGERPRINTGUID
  2
{06940238-c9a8-3540-be8c-b7921bbe4782}
  9
$VERSIONGUID
  2
{FAEB1C32-E019-11D5-929B-00C0DF256EC4}
  9
$EXTNAMES
290
     1
  9
$PSVPSCALE
 40
0.0
  9
$OLESTARTUP
290
     0
  9
$SORTENTS
280
   127
  9
$INDEXCTL
280
     0
  9
$HIDETEXT
280
     1
  9
$XCLIPFRAME
290
     0
  9
$HALOGAP
280
     0
  9
$OBSCOLOR
 70
   257
  9
$OBSLTYPE
280
     0
  9
$INTERSECTIONDISPLAY
280
     0
  9
$INTERSECTIONCOLOR
 70
   257
  9
$DIMASSOC
280
     2
  9
$PROJECTNAME
  1

  9
$CAMERADISPLAY
290
     0
  9
$LENSLENGTH
 40
50.0
  9
$CAMERAHEIGHT
 40
0.0
  9
$STEPSPERSEC
 40
2.0
  9
$STEPSIZE
 40
6.0
  9
$3DDWFPREC
 40
2.0
  9
$PSOLWIDTH
 40
0.25
  9
$PSOLHEIGHT
 40
4.0
  9
$LOFTANG1
 40
1.570796326794897
  9
$LOFTANG2
 40
1.570796326794897
  9
$LOFTMAG1
 40
0.0
  9
$LOFTMAG2
 40
0.0
  9
$LOFTPARAM
 70
     7
  9
$LOFTNORMALS
280
     1
  9
$LATITUDE
 40
37.795
  9
$LONGITUDE
 40
-122.394
  9
$NORTHDIRECTION
 40
0.0
  9
$TIMEZONE
 70
 -8000
  9
$LIGHTGLYPHDISPLAY
280
     1
  9
$TILEMODELIGHTSYNCH
280
     1
  9
$CMATERIAL
347
44
  9
$SOLIDHIST
280
     0
  9
$SHOWHIST
280
     1
  9
$DWFFRAME
280
     2
  9
$DGNFRAME
280
     2
  9
$REALWORLDSCALE
290
     1
  9
$INTERFERECOLOR
 62
   256
  9
$CSHADOW
280
     0
  9
$SHADOWPLANELOCATION
 40
0.0
  0
ENDSEC
  0
SECTION
  2
CLASSES
  0
CLASS
  1
ACDBDICTIONARYWDFLT
  2
AcDbDictionaryWithDefault
  3
ObjectDBX Classes
 90
        0
 91
        3
280
     0
281
     0
  0
CLASS
  1
VISUALSTYLE
  2
AcDbVisualStyle
  3
ObjectDBX Classes
 90
     4095
 91
        3
280
     0
281
     0
  0
CLASS
  1
MATERIAL
  2
AcDbMaterial
  3
ObjectDBX Classes
 90
     1153
 91
        3
280
     0
281
     0
  0
CLASS
  1
SCALE
  2
AcDbScale
  3
ObjectDBX Classes
 90
     1153
 91
        3
280
     0
281
     0
  0
CLASS
  1
TABLESTYLE
  2
AcDbTableStyle
  3
ObjectDBX Classes
 90
     4095
 91
        3
280
     0
281
     0
  0
CLASS
  1
MLEADERSTYLE
  2
AcDbMLeaderStyle
  3
ACDB_MLEADERSTYLE_CLASS
 90
     4095
 91
        3
280
     0
281
     0
  0
CLASS
  1
SUN
  2
AcDbSun
  3
SCENEOE
 90
     1153
 91
        3
280
     0
281
     0
  0
CLASS
  1
DICTIONARYVAR
  2
AcDbDictionaryVar
  3
ObjectDBX Classes
 90
        0
 91
        3
280
     0
281
     0
  0
CLASS
  1
CELLSTYLEMAP
  2
AcDbCellStyleMap
  3
ObjectDBX Classes
 90
     1152
 91
        3
280
     0
281
     0
  0
ENDSEC
  0
SECTION
  2
TABLES
  0
TABLE
  2
VPORT
  5
8
330
0
100
AcDbSymbolTable
 70
     1
  0
VPORT
  5
29
330
8
100
AcDbSymbolTableRecord
100
AcDbViewportTableRecord
  2
*Active
 70
     0
 10
0.0
 20
0.0
 11
1.0
 21
1.0
 12
10.42990654205607
 22
4.5
 13
0.0
 23
0.0
 14
0.5
 24
0.5
 15
0.5
 25
0.5
 16
0.0
 26
0.0
 36
1.0
 17
0.0
 27
0.0
 37
0.0
 40
9.0
 41
1.972972972850329
 42
50.0
 43
0.0
 44
0.0
 50
0.0
 51
0.0
 71
     0
 72
   100
 73
     1
 74
     3
 75
     0
 76
     0
 77
     0
 78
     0
281
     0
 65
     1
110
0.0
120
0.0
130
0.0
111
1.0
121
0.0
131
0.0
112
0.0
122
1.0
132
0.0
 79
     0
146
0.0
348
2F
 60
     3
 61
     5
292
     1
282
     1
141
0.0
142
0.0
 63
   250
361
6D
  0
ENDTAB
  0
TABLE
  2
LTYPE
  5
5
330
0
100
AcDbSymbolTable
 70
     2
  0
LTYPE
  5
14
330
5
100
AcDbSymbolTableRecord
100
AcDbLinetypeTableRecord
  2
ByBlock
 70
     0
  3

 72
    65
 73
     0
 40
0.0
  0
LTYPE
  5
15
330
5
100
AcDbSymbolTableRecord
100
AcDbLinetypeTableRecord
  2
ByLayer
 70
     0
  3

 72
    65
 73
     0
 40
0.0
  0
LTYPE
  5
16
330
5
100
AcDbSymbolTableRecord
100
AcDbLinetypeTableRecord
  2
Continuous
 70
     0
  3
Solid line
 72
    65
 73
     0
 40
0.0
  0
LTYPE
  5
C5
330
5
100
AcDbSymbolTableRecord
100
AcDbLinetypeTableRecord
  2
Hidden
 70
     0
  3

 72
    65
 73
     2
 40
4.0
 49
2.0
 74
     0
 49
-2.0
 74
     0
  0
ENDTAB
  0
TABLE
  2
LAYER
  5
2
330
0
100
AcDbSymbolTable
 70
     2
  0
LAYER
  5
10
330
2
100
AcDbSymbolTableRecord
100
AcDbLayerTableRecord
  2
0
 70
     0
 62
     7
  6
Continuous
370
    -3
390
F
347
46
  0
LAYER
  5
6E
330
2
100
AcDbSymbolTableRecord
100
AcDbLayerTableRecord
  2
Graypants_Drum36
 70
     0
 62
    36
420
  8866048
  6
Continuous
370
    -3
390
F
347
46
  0
ENDTAB
  0
TABLE
  2
STYLE
  5
3
330
0
100
AcDbSymbolTable
 70
     1
  0
STYLE
  5
11
330
3
100
AcDbSymbolTableRecord
100
AcDbTextStyleTableRecord
  2
Standard
 70
     0
 40
0.0
 41
1.0
 50
0.0
 71
     0
 42
0.2
  3
txt
  4

  0
ENDTAB
  0
TABLE
  2
VIEW
  5
6
330
0
100
AcDbSymbolTable
 70
     0
  0
ENDTAB
  0
TABLE
  2
UCS
  5
7
330
0
100
AcDbSymbolTable
 70
     0
  0
ENDTAB
  0
TABLE
  2
APPID
  5
9
330
0
100
AcDbSymbolTable
 70
     2
  0
APPID
  5
12
330
9
100
AcDbSymbolTableRecord
100
AcDbRegAppTableRecord
  2
ACAD
 70
     0
  0
APPID
  5
3E7
330
9
100
AcDbSymbolTableRecord
100
AcDbRegAppTableRecord
  2
ACAD_MLEADERVER
 70
     0
  0
ENDTAB
  0
TABLE
  2
DIMSTYLE
  5
A
330
0
100
AcDbSymbolTable
 70
     1
100
AcDbDimStyleTable
  0
DIMSTYLE
105
27
330
A
100
AcDbSymbolTableRecord
100
AcDbDimStyleTableRecord
  2
STANDARD_ACAD
 70
     0
178
     0
340
11
  0
ENDTAB
  0
TABLE
  2
BLOCK_RECORD
  5
1
330
0
100
AcDbSymbolTable
 70
     1
  0
BLOCK_RECORD
  5
1F
330
1
100
AcDbSymbolTableRecord
100
AcDbBlockTableRecord
  2
*Model_Space
340
22
 70
     0
280
     1
281
     0
  0
BLOCK_RECORD
  5
1B
330
1
100
AcDbSymbolTableRecord
100
AcDbBlockTableRecord
  2
*Paper_Space
340
1E
 70
     0
280
     1
281
     0
  0
BLOCK_RECORD
  5
23
330
1
100
AcDbSymbolTableRecord
100
AcDbBlockTableRecord
  2
*Paper_Space0
340
26
 70
     0
280
     1
281
     0
  0
ENDTAB
  0
ENDSEC
  0
SECTION
  2
BLOCKS
  0
BLOCK
  5
20
330
1F
100
AcDbEntity
  8
0
100
AcDbBlockBegin
  2
*Model_Space
 70
     0
 10
0.0
 20
0.0
 30
0.0
  3
*Model_Space
  1

  0
ENDBLK
  5
21
330
1F
100
AcDbEntity
  8
0
100
AcDbBlockEnd
  0
BLOCK
  5
1C
330
1B
100
AcDbEntity
 67
     1
  8
0
100
AcDbBlockBegin
  2
*Paper_Space
 70
     0
 10
0.0
 20
0.0
 30
0.0
  3
*Paper_Space
  1

  0
ENDBLK
  5
1D
330
1B
100
AcDbEntity
 67
     1
  8
0
100
AcDbBlockEnd
  0
BLOCK
  5
24
330
23
100
AcDbEntity
  8
0
100
AcDbBlockBegin
  2
*Paper_Space0
 70
     0
 10
0.0
 20
0.0
 30
0.0
  3
*Paper_Space0
  1

  0
ENDBLK
  5
25
330
23
100
AcDbEntity
  8
0
100
AcDbBlockEnd
  0
ENDSEC
  0
SECTION
  2
ENTITIES
  0
LINE
  5
6F
330
1F
100
AcDbEntity
  8
Graypants_Drum36
100
AcDbLine
 10
-461.3734783155585
 20
-1857.471024442972
 30
0.0
 11
461.3734783155589
 21
-1857.471024442972
 31
0.0
  0
LINE
  5
70
330
1F
100
AcDbEntity
  8
Graypants_Drum36
100
AcDbLine
 10
-461.3734783155585
 20
-1850.271024442972
 30
0.0
 11
461.3734783155589
 21
-1850.271024442972
 31
0.0
  0
LINE
  5
71
330
1F
100
AcDbEntity
  8
Graypants_Drum36
100
AcDbLine
 10
-461.3734783155585
 20
-1843.071024442972
 30
0.0
 11
461.3734783155589
 21
-1843.071024442972
 31
0.0
  0
LINE
  5
72
330
1F
100
AcDbEntity
  8
Graypants_Drum36
100
AcDbLine
 10
-461.3734783155585
 20
-1835.871024442972
 30
0.0
 11
461.3734783155589
 21
-1835.871024442972
 31
0.0
  0
LINE
  5
73
330
1F
100
AcDbEntity
  8
Graypants_Drum36
100
AcDbLine
 10
-461.3734783155585
 20
-1828.671024442972
 30
0.0
 11
461.3734783155589
 21
-1828.671024442972
 31
0.0
  0
LINE
  5
74
330
1F
100
AcDbEntity
  8
Graypants_Drum36
100
AcDbLine
 10
-461.3734783155585
 20
-1821.471024442972
 30
0.0
 11
461.3734783155589
 21
-1821.471024442972
 31
0.0
  0
LINE
  5
75
330
1F
100
AcDbEntity
  8
Graypants_Drum36
100
AcDbLine
 10
-461.3734783155585
 20
-1814.271024442972
 30
0.0
 11
461.3734783155589
 21
-1814.271024442972
 31
0.0
  0
LINE
  5
76
330
1F
100
AcDbEntity
  8
Graypants_Drum36
100
AcDbLine
 10
-461.3734783155585
 20
-1814.271024442972
 30
0.0
 11
461.3734783155589
 21
-1814.271024442972
 31
0.0
  0
LINE
  5
77
330
1F
100
AcDbEntity
  8
Graypants_Drum36
100
AcDbLine
 10
-461.3734783155585
 20
-1807.071024442972
 30
0.0
 11
461.3734783155589
 21
-1807.071024442972
 31
0.0
  0
LINE
  5
78
330
1F
100
AcDbEntity
  8
Graypants_Drum36
100
AcDbLine
 10
-461.3734783155585
 20
-1799.871024442971
 30
0.0
 11
461.3734783155589
 21
-1799.871024442971
 31
0.0
  0
LINE
  5
79
330
1F
100
AcDbEntity
  8
Graypants_Drum36
100
AcDbLine
 10
-461.3734783155585
 20
-1792.671024442971
 30
0.0
 11
461.3734783155589
 21
-1792.671024442971
 31
0.0
  0
LINE
  5
7A
330
1F
100
AcDbEntity
  8
Graypants_Drum36
100
AcDbLine
 10
-461.3734783155585
 20
-1785.471024442971
 30
0.0
 11
461.3734783155589
 21
-1785.471024442971
 31
0.0
  0
LINE
  5
7B
330
1F
100
AcDbEntity
  8
Graypants_Drum36
100
AcDbLine
 10
-461.3734783155585
 20
-1778.271024442971
 30
0.0
 11
461.3734783155589
 21
-1778.271024442971
 31
0.0
  0
LINE
  5
7C
330
1F
100
AcDbEntity
  8
Graypants_Drum36
100
AcDbLine
 10
-461.3734783155585
 20
-1771.071024442971
 30
0.0
 11
461.3734783155589
 21
-1771.071024442971
 31
0.0
  0
LINE
  5
7D
330
1F
100
AcDbEntity
  8
Graypants_Drum36
100
AcDbLine
 10
-461.3734783155585
 20
-1763.871024442971
 30
0.0
 11
461.3734783155589
 21
-1763.871024442971
 31
0.0
  0
LINE
  5
7E
330
1F
100
AcDbEntity
  8
Graypants_Drum36
100
AcDbLine
 10
-461.3734783155585
 20
-1756.671024442971
 30
0.0
 11
461.3734783155589
 21
-1756.671024442971
 31
0.0
  0
LINE
  5
7F
330
1F
100
AcDbEntity
  8
Graypants_Drum36
100
AcDbLine
 10
-461.3734783155585
 20
-1749.471024442971
 30
0.0
 11
461.3734783155589
 21
-1749.471024442971
 31
0.0
  0
LINE
  5
80
330
1F
100
AcDbEntity
  8
Graypants_Drum36
100
AcDbLine
 10
-461.3734783155585
 20
-1742.271024442971
 30
0.0
 11
461.3734783155589
 21
-1742.271024442971
 31
0.0
  0
LINE
  5
81
330
1F
100
AcDbEntity
  8
Graypants_Drum36
100
AcDbLine
 10
-461.3734783155585
 20
-1735.071024442971
 30
0.0
 11
461.3734783155589
 21
-1735.071024442971
 31
0.0
  0
LINE
  5
82
330
1F
100
AcDbEntity
  8
Graypants_Drum36
100
AcDbLine
 10
-461.3734783155585
 20
-1727.871024442971
 30
0.0
 11
461.3734783155589
 21
-1727.871024442971
 31
0.0
  0
LINE
  5
83
330
1F
100
AcDbEntity
  8
Graypants_Drum36
100
AcDbLine
 10
-461.3734783155585
 20
-1720.671024442971
 30
0.0
 11
461.3734783155589
 21
-1720.671024442971
 31
0.0
  0
LINE
  5
84
330
1F
100
AcDbEntity
  8
Graypants_Drum36
100
AcDbLine
 10
-461.3734783155585
 20
-1713.471024442971
 30
0.0
 11
461.3734783155589
 21
-1713.471024442971
 31
0.0
  0
LINE
  5
85
330
1F
100
AcDbEntity
  8
Graypants_Drum36
100
AcDbLine
 10
-461.3734783155585
 20
-1706.271024442971
 30
0.0
 11
461.3734783155589
 21
-1706.271024442971
 31
0.0
  0
LINE
  5
86
330
1F
100
AcDbEntity
  8
Graypants_Drum36
100
AcDbLine
 10
-461.3734783155585
 20
-1699.071024442971
 30
0.0
 11
461.3734783155589
 21
-1699.071024442971
 31
0.0
  0
LINE
  5
87
330
1F
100
AcDbEntity
  8
Graypants_Drum36
100
AcDbLine
 10
-461.3734783155585
 20
-1691.871024442971
 30
0.0
 11
461.3734783155589
 21
-1691.871024442971
 31
0.0
  0
LINE
  5
88
330
1F
100
AcDbEntity
  8
Graypants_Drum36
100
AcDbLine
 10
-461.3734783155585
 20
-1684.671024442971
 30
0.0
 11
461.3734783155589
 21
-1684.671024442971
 31
0.0
  0
LINE
  5
89
330
1F
100
AcDbEntity
  8
Graypants_Drum36
100
AcDbLine
 10
-461.3734783155585
 20
-1677.471024442971
 30
0.0
 11
461.3734783155589
 21
-1677.471024442971
 31
0.0
  0
LINE
  5
8A
330
1F
100
AcDbEntity
  8
Graypants_Drum36
100
AcDbLine
 10
-461.3734783155585
 20
-1670.271024442971
 30
0.0
 11
461.3734783155589
 21
-1670.271024442971
 31
0.0
  0
LINE
  5
8B
330
1F
100
AcDbEntity
  8
Graypants_Drum36
100
AcDbLine
 10
-461.3734783155585
 20
-1663.071024442971
 30
0.0
 11
461.3734783155589
 21
-1663.071024442971
 31
0.0
  0
LINE
  5
8C
330
1F
100
AcDbEntity
  8
Graypants_Drum36
100
AcDbLine
 10
-461.3734783155585
 20
-1655.871024442971
 30
0.0
 11
461.3734783155589
 21
-1655.871024442971
 31
0.0
  0
LINE
  5
8D
330
1F
100
AcDbEntity
  8
Graypants_Drum36
100
AcDbLine
 10
-461.3734783155585
 20
-1648.671024442971
 30
0.0
 11
461.3734783155589
 21
-1648.671024442971
 31
0.0
  0
LINE
  5
8E
330
1F
100
AcDbEntity
  8
Graypants_Drum36
100
AcDbLine
 10
-461.3734783155585
 20
-1641.47102444297
 30
0.0
 11
461.3734783155589
 21
-1641.47102444297
 31
0.0
  0
LINE
  5
8F
330
1F
100
AcDbEntity
  8
Graypants_Drum36
100
AcDbLine
 10
-461.3734783155585
 20
-1634.27102444297
 30
0.0
 11
461.3734783155589
 21
-1634.27102444297
 31
0.0
  0
LINE
  5
90
330
1F
100
AcDbEntity
  8
Graypants_Drum36
100
AcDbLine
 10
-461.3734783155585
 20
-1627.07102444297
 30
0.0
 11
461.3734783155589
 21
-1627.07102444297
 31
0.0
  0
LINE
  5
91
330
1F
100
AcDbEntity
  8
Graypants_Drum36
100
AcDbLine
 10
-461.3734783155585
 20
-1619.87102444297
 30
0.0
 11
461.3734783155589
 21
-1619.87102444297
 31
0.0
  0
LINE
  5
92
330
1F
100
AcDbEntity
  8
Graypants_Drum36
100
AcDbLine
 10
-461.3734783155585
 20
-1612.67102444297
 30
0.0
 11
461.3734783155589
 21
-1612.67102444297
 31
0.0
  0
LINE
  5
93
330
1F
100
AcDbEntity
  8
Graypants_Drum36
100
AcDbLine
 10
-461.3734783155585
 20
-1605.47102444297
 30
0.0
 11
461.3734783155589
 21
-1605.47102444297
 31
0.0
  0
LINE
  5
94
330
1F
100
AcDbEntity
  8
Graypants_Drum36
100
AcDbLine
 10
-461.3734783155585
 20
-1598.27102444297
 30
0.0
 11
461.3734783155589
 21
-1598.27102444297
 31
0.0
  0
LINE
  5
95
330
1F
100
AcDbEntity
  8
Graypants_Drum36
100
AcDbLine
 10
-461.3734783155585
 20
-1591.07102444297
 30
0.0
 11
461.3734783155589
 21
-1591.07102444297
 31
0.0
  0
LINE
  5
96
330
1F
100
AcDbEntity
  8
Graypants_Drum36
100
AcDbLine
 10
-461.3734783155585
 20
-1583.87102444297
 30
0.0
 11
461.3734783155589
 21
-1583.87102444297
 31
0.0
  0
LINE
  5
97
330
1F
100
AcDbEntity
  8
Graypants_Drum36
100
AcDbLine
 10
-461.3734783155585
 20
-1576.67102444297
 30
0.0
 11
461.3734783155589
 21
-1576.67102444297
 31
0.0
  0
LINE
  5
98
330
1F
100
AcDbEntity
  8
Graypants_Drum36
100
AcDbLine
 10
-461.3734783155585
 20
-1569.47102444297
 30
0.0
 11
461.3734783155589
 21
-1569.47102444297
 31
0.0
  0
LINE
  5
99
330
1F
100
AcDbEntity
  8
Graypants_Drum36
100
AcDbLine
 10
-461.3734783155585
 20
-1562.27102444297
 30
0.0
 11
461.3734783155589
 21
-1562.27102444297
 31
0.0
  0
LINE
  5
9A
330
1F
100
AcDbEntity
  8
Graypants_Drum36
100
AcDbLine
 10
-461.3734783155585
 20
-1555.07102444297
 30
0.0
 11
461.3734783155589
 21
-1555.07102444297
 31
0.0
  0
LINE
  5
9B
330
1F
100
AcDbEntity
  8
Graypants_Drum36
100
AcDbLine
 10
-461.3734783155585
 20
-1547.87102444297
 30
0.0
 11
461.3734783155589
 21
-1547.87102444297
 31
0.0
  0
LINE
  5
9C
330
1F
100
AcDbEntity
  8
Graypants_Drum36
100
AcDbLine
 10
-461.3734783155585
 20
-1540.67102444297
 30
0.0
 11
461.3734783155589
 21
-1540.67102444297
 31
0.0
  0
LINE
  5
9D
330
1F
100
AcDbEntity
  8
Graypants_Drum36
100
AcDbLine
 10
-461.3734783155585
 20
-1533.47102444297
 30
0.0
 11
461.3734783155589
 21
-1533.47102444297
 31
0.0
  0
LINE
  5
9E
330
1F
100
AcDbEntity
  8
Graypants_Drum36
100
AcDbLine
 10
-461.3734783155585
 20
-1525.071024442971
 30
0.0
 11
461.3734783155589
 21
-1525.071024442971
 31
0.0
  0
ARC
  5
9F
330
1F
100
AcDbEntity
  8
Graypants_Drum36
 62
    36
420
  8866048
370
    -3
100
AcDbCircle
 10
0.0039068119785952
 20
-1507.856341675619
 30
0.0
 40
3.968304961139276
210
0.0
220
0.0
230
-1.0
100
AcDbArc
 50
233.012489108439
 51
233.0547360331215
  0
ARC
  5
A0
330
1F
100
AcDbEntity
  8
Graypants_Drum36
 62
    36
420
  8866048
370
    -3
100
AcDbCircle
 10
-4.754725223003788
 20
-1520.995437894377
 30
0.0
 40
7.6623071908855
210
0.0
220
0.0
230
-1.0
100
AcDbArc
 50
71.95524070040979
 51
71.96824146432824
  0
ARC
  5
A1
330
1F
100
AcDbEntity
  8
Graypants_Drum36
 62
    36
420
  8866048
370
    -3
100
AcDbCircle
 10
-0.0000000000019341
 20
0.0000000000011122
 30
0.0
 40
2.921000000001682
210
0.0
220
0.0
230
-1.0
100
AcDbArc
 50
15.77020168067034
 51
35.39113727948958
  0
ARC
  5
A2
330
1F
100
AcDbEntity
  8
Graypants_Drum36
 62
    36
420
  8866048
370
    -3
100
AcDbCircle
 10
-0.0000000000068911
 20
0.0000000000043444
 30
0.0
 40
2.921000000007419
210
0.0
220
0.0
230
-1.0
100
AcDbArc
 50
324.6088627204957
 51
344.2297983192938
  0
LINE
  5
A3
330
1F
100
AcDbEntity
  8
Graypants_Drum36
 62
    36
420
  8866048
370
    -3
100
AcDbLine
 10
-2.381249999999909
 20
-0.793868744758055
 30
0.0
 11
-2.381249999999909
 21
-11.1124999999988
 31
0.0
  0
LINE
  5
A4
330
1F
100
AcDbEntity
  8
Graypants_Drum36
 62
    36
420
  8866048
370
    -3
100
AcDbLine
 10
-2.381249999999909
 20
11.11250206415095
 30
0.0
 11
-2.381249999999909
 21
0.7938687447601942
 31
0.0
  0
LINE
  5
A5
330
1F
100
AcDbEntity
  8
Graypants_Drum36
 62
    36
420
  8866048
370
    -3
100
AcDbLine
 10
2.381249999999909
 20
11.11250206415095
 30
0.0
 11
2.381249999999909
 21
0.7938684731492796
 31
0.0
  0
LINE
  5
A6
330
1F
100
AcDbEntity
  8
Graypants_Drum36
 62
    36
420
  8866048
370
    -3
100
AcDbLine
 10
2.381249999999909
 20
-0.7938684731471329
 30
0.0
 11
2.381249999999909
 21
-11.1124999999988
 31
0.0
  0
LINE
  5
A7
330
1F
100
AcDbEntity
  8
Graypants_Drum36
 62
    36
420
  8866048
370
    -3
100
AcDbLine
 10
2.703433815582684
 20
0.7938684565672416
 30
0.0
 11
2.166414514038706
 21
0.7938684831964049
 31
0.0
  0
LINE
  5
A8
330
1F
100
AcDbEntity
  8
Graypants_Drum36
 62
    36
420
  8866048
370
    -3
100
AcDbLine
 10
2.702354969777389
 20
-0.7938684566251881
 30
0.0
 11
2.17056677922028
 21
-0.7938684830053562
 31
0.0
  0
LINE
  5
A9
330
1F
100
AcDbEntity
  8
Graypants_Drum36
 62
    36
420
  8866048
370
    -3
100
AcDbLine
 10
2.698749999999563
 20
-0.7938683991478515
 30
0.0
 11
2.170566833144676
 21
-0.7938683890584569
 31
0.0
  0
LINE
  5
AA
330
1F
100
AcDbEntity
  8
Graypants_Drum36
 62
    36
420
  8866048
370
    -3
100
AcDbLine
 10
-2.170566624868798
 20
-0.7938687519203654
 30
0.0
 11
-2.698750000000473
 21
-0.7938687408059026
 31
0.0
  0
LINE
  5
AB
330
1F
100
AcDbEntity
  8
Graypants_Drum36
 62
    36
420
  8866048
370
    -3
100
AcDbLine
 10
-2.698750000000928
 20
0.7938687408082101
 30
0.0
 11
-2.166414357816166
 21
0.7938687521016604
 31
0.0
  0
LINE
  5
AC
330
1F
100
AcDbEntity
  8
Graypants_Drum36
 62
    36
420
  8866048
370
    -3
100
AcDbLine
 10
4.762499999999818
 20
-2.920999999998895
 30
0.0
 11
2.381249999999454
 21
-2.920999999998719
 31
0.0
  0
LINE
  5
AD
330
1F
100
AcDbEntity
  8
Graypants_Drum36
 62
    36
420
  8866048
370
    -3
100
AcDbLine
 10
2.381249999999909
 20
2.921000000001212
 30
0.0
 11
4.762500000000273
 21
2.921000000001203
 31
0.0
  0
ARC
  5
AE
330
1F
100
AcDbEntity
  8
Graypants_Drum36
 62
    36
420
  8866048
370
    -3
100
AcDbCircle
 10
0.0000000000001651
 20
0.0000000000011193
 30
0.0
 40
7.937499999999936
210
0.0
220
0.0
230
-1.0
100
AcDbArc
 50
201.5923248715705
 51
252.5423968762802
  0
ARC
  5
AF
330
1F
100
AcDbEntity
  8
Graypants_Drum36
 62
    36
420
  8866048
370
    -3
100
AcDbCircle
 10
-0.0000000000004833
 20
0.0000000000020085
 30
0.0
 40
7.937499999999037
210
0.0
220
0.0
230
-1.0
100
AcDbArc
 50
107.457603123723
 51
158.4076751284333
  0
LINE
  5
B0
330
1F
100
AcDbEntity
  8
Graypants_Drum36
 62
    36
420
  8866048
370
    -3
100
AcDbLine
 10
-50.22426660474548
 20
-27.26494270784745
 30
0.0
 11
-11.49709265457182
 21
-4.905798659973164
 31
0.0
  0
LINE
  5
B1
330
1F
100
AcDbEntity
  8
Graypants_Drum36
 62
    36
420
  8866048
370
    -3
100
AcDbLine
 10
-48.72296920231474
 20
-29.86226986356654
 30
0.0
 11
-9.997092667529841
 21
-7.503874878807814
 31
0.0
  0
LINE
  5
B2
330
1F
100
AcDbEntity
  8
Graypants_Drum36
 62
    36
420
  8866048
370
    -3
100
AcDbLine
 10
48.7263008308496
 20
-29.86419440302187
 30
0.0
 11
9.99709255108678
 21
-7.503875033940982
 31
0.0
  0
LINE
  5
B3
330
1F
100
AcDbEntity
  8
Graypants_Drum36
 62
    36
420
  8866048
370
    -3
100
AcDbLine
 10
50.22691218412911
 20
-27.26647115665694
 30
0.0
 11
11.49709257844461
 21
-4.905798838382349
 31
0.0
  0
ARC
  5
B4
330
1F
100
AcDbEntity
  8
Graypants_Drum36
 62
    36
420
  8866048
370
    -3
100
AcDbCircle
 10
-0.0000000000000753
 20
0.000000000001254
 30
0.0
 40
12.5000000000001
100
AcDbArc
 50
279.4186376744745
 51
80.58135528815873
  0
ARC
  5
B5
330
1F
100
AcDbEntity
  8
Graypants_Drum36
 62
    36
420
  8866048
370
    -3
100
AcDbCircle
 10
0.0000000000002022
 20
0.0000000000012286
 30
0.0
 40
12.50000000000011
100
AcDbArc
 50
99.41864332408903
 51
260.5813623255191
  0
LINE
  5
B6
330
1F
100
AcDbEntity
  8
Graypants_Drum36
 62
    36
420
  8866048
370
    -3
100
AcDbLine
 10
1.500000000009095
 20
57.13031156925491
 30
0.0
 11
1.500000000022737
 21
12.96192165772438
 31
0.0
  0
LINE
  5
B7
330
1F
100
AcDbEntity
  8
Graypants_Drum36
 62
    36
420
  8866048
370
    -3
100
AcDbLine
 10
-1.499999999990905
 20
57.13478647108924
 30
0.0
 11
-1.499999999977263
 21
12.96192165776167
 31
0.0
  0
ARC
  5
B8
330
1F
100
AcDbEntity
  8
Graypants_Drum36
 62
    36
420
  8866048
370
    -3
100
AcDbCircle
 10
-0.0000000000001126
 20
0.0000000000012311
 30
0.0
 40
7.937500000000111
210
0.0
220
0.0
230
-1.0
100
AcDbArc
 50
287.457603123723
 51
72.54239687628301
  0
ARC
  5
B9
330
1F
100
AcDbEntity
  8
Graypants_Drum36
 62
    36
420
  8866048
370
    -3
100
AcDbCircle
 10
0.0000003960373682
 20
37.64409051225138
 30
0.0
 40
3.174999999999298
100
AcDbArc
 50
118.1928686703241
 51
149.9999993972236
  0
ARC
  5
BA
330
1F
100
AcDbEntity
  8
Graypants_Drum36
 62
    36
420
  8866048
370
    -3
100
AcDbCircle
 10
0.0000003960368886
 20
37.64409051224948
 30
0.0
 40
3.175000000001395
100
AcDbArc
 50
29.99999939722847
 51
61.8071475468584
  0
ARC
  5
BB
330
1F
100
AcDbEntity
  8
Graypants_Drum36
 62
    36
420
  8866048
370
    -3
100
AcDbCircle
 10
32.600738487948
 20
-18.82204559910319
 30
0.0
 40
3.175000000001288
100
AcDbArc
 50
358.1928599567241
 51
29.99999939721635
  0
ARC
  5
BC
330
1F
100
AcDbEntity
  8
Graypants_Drum36
 62
    36
420
  8866048
370
    -3
100
AcDbCircle
 10
32.60073848794908
 20
-18.82204559910288
 30
0.0
 40
3.174999999999756
100
AcDbArc
 50
269.9999993972107
 51
301.807138833241
  0
ARC
  5
BD
330
1F
100
AcDbEntity
  8
Graypants_Drum36
 62
    36
420
  8866048
370
    -3
100
AcDbCircle
 10
-32.60073888398885
 20
-18.82204491314551
 30
0.0
 40
3.174999999998702
100
AcDbArc
 50
238.1928645442136
 51
269.999999397219
  0
ARC
  5
BE
330
1F
100
AcDbEntity
  8
Graypants_Drum36
 62
    36
420
  8866048
370
    -3
100
AcDbCircle
 10
-32.6007388839874
 20
-18.82204491314488
 30
0.0
 40
3.175000000001542
100
AcDbArc
 50
149.9999993972186
 51
181.8071434207467
  0
LINE
  5
BF
330
1F
100
AcDbEntity
  8
Graypants_Drum36
 62
    36
420
  8866048
370
    -3
100
AcDbLine
 10
372.5069467502358
 20
-216.7990420246745
 30
0.0
 11
48.7263008308496
 21
-29.86419440302187
 31
0.0
  0
LINE
  5
C0
330
1F
100
AcDbEntity
  8
Graypants_Drum36
 62
    36
420
  8866048
370
    -3
100
AcDbLine
 10
1.499999999895863
 20
431.0000000000023
 30
0.0
 11
1.500000000009095
 21
57.13031156925491
 31
0.0
  0
LINE
  5
C1
330
1F
100
AcDbEntity
  8
Graypants_Drum36
 62
    36
420
  8866048
370
    -3
100
AcDbLine
 10
-1.500000000104137
 20
431.0000000000014
 30
0.0
 11
-1.499999999990905
 21
57.13478647108924
 31
0.0
  0
LINE
  5
C2
330
1F
100
AcDbEntity
  8
Graypants_Drum36
 62
    36
420
  8866048
370
    -3
100
AcDbLine
 10
-374.0069500981181
 20
-214.2009600312367
 30
0.0
 11
-50.22426660474548
 21
-27.26494270784745
 31
0.0
  0
LINE
  5
C3
330
1F
100
AcDbEntity
  8
Graypants_Drum36
 62
    36
420
  8866048
370
    -3
100
AcDbLine
 10
-372.5069501110597
 20
-216.7990362500618
 30
0.0
 11
-48.72296920231474
 21
-29.86226986356654
 31
0.0
  0
LINE
  5
C4
330
1F
100
AcDbEntity
  8
Graypants_Drum36
 62
    36
420
  8866048
370
    -3
100
AcDbLine
 10
374.0069467775684
 20
-214.2009658291013
 30
0.0
 11
50.22691218412911
 21
-27.26647115665694
 31
0.0
  0
CIRCLE
  5
C6
330
1F
100
AcDbEntity
  8
Graypants_Drum36
  6
Hidden
 62
    36
420
  8866048
370
    -3
100
AcDbCircle
 10
-0.0000000000003442
 20
0.0000000000010375
 30
0.0
 40
57.14999999999998
  0
CIRCLE
  5
C7
330
1F
100
AcDbEntity
  8
Graypants_Drum36
 62
    36
420
  8866048
370
    -3
100
AcDbCircle
 10
-0.0000000000002032
 20
0.0000000000010691
 30
0.0
 40
445.9999999999999
210
0.0
220
0.0
230
-1.0
  0
LINE
  5
C8
330
1F
100
AcDbEntity
  8
Graypants_Drum36
 62
    36
420
  8866048
370
    -3
100
AcDbLine
 10
-0.8055006336135193
 20
-0.7938689142508624
 30
0.0
 11
-0.8876014650631987
 21
-0.7938688954568365
 31
0.0
  0
LINE
  5
C9
330
1F
100
AcDbEntity
  8
Graypants_Drum36
 62
    36
420
  8866048
370
    -3
100
AcDbLine
 10
2.361917329679624
 20
11.41592492422779
 30
0.0
 11
2.363938912477736
 21
11.39910840981046
 31
0.0
  0
ARC
  5
CA
330
1F
100
AcDbEntity
  8
Graypants_Drum36
 62
    36
420
  8866048
370
    -3
100
AcDbCircle
 10
-3.17471921751109
 20
-0.0002246202256933
 30
0.0
 40
0.7940930676561366
210
0.0
220
0.0
230
-1.0
100
AcDbArc
 50
90.01636531953575
 51
270.1200792501161
  0
LINE
  5
CB
330
1F
100
AcDbEntity
  8
Graypants_Drum36
 62
    36
420
  8866048
370
    -3
100
AcDbLine
 10
-3.17412995691484
 20
0.7938687261276014
 30
0.0
 11
-2.698750000000928
 21
0.7938687408082101
 31
0.0
  0
LINE
  5
CC
330
1F
100
AcDbEntity
  8
Graypants_Drum36
 62
    36
420
  8866048
370
    -3
100
AcDbLine
 10
3.174129677091969
 20
-0.7938684138282328
 30
0.0
 11
2.698749999999563
 21
-0.7938683991478515
 31
0.0
  0
ARC
  5
CD
330
1F
100
AcDbEntity
  8
Graypants_Drum36
 62
    36
420
  8866048
370
    -3
100
AcDbCircle
 10
3.174927951153832
 20
-0.0000035200978742
 30
0.0
 40
0.7938722452078233
210
0.0
220
0.0
230
-1.0
100
AcDbArc
 50
269.9456030599498
 51
89.998748943579
  0
LINE
  5
CE
330
1F
100
AcDbEntity
  8
Graypants_Drum36
 62
    36
420
  8866048
370
    -3
100
AcDbLine
 10
-2.698750000000473
 20
-0.7938687408059026
 30
0.0
 11
-3.174130533245261
 21
-0.7938687261250665
 31
0.0
  0
LINE
  5
CF
330
1F
100
AcDbEntity
  8
Graypants_Drum36
 62
    36
420
  8866048
370
    -3
100
AcDbLine
 10
2.698749999999563
 20
0.7938683991499316
 30
0.0
 11
3.174130253255043
 21
0.7938684138307677
 31
0.0
  0
CIRCLE
  5
D0
330
1F
100
AcDbEntity
  8
Graypants_Drum36
 62
    36
420
  8866048
370
    -3
100
AcDbCircle
 10
0.7937500000003865
 20
0.0000000000010401
 30
0.0
 40
0.7939999999999827
210
0.0
220
0.0
230
-1.0
  0
ARC
  5
D1
330
1F
100
AcDbEntity
  8
Graypants_Drum36
 62
    36
420
  8866048
370
    -3
100
AcDbCircle
 10
-0.7937499999996407
 20
-0.0000000000027595
 30
0.0
 40
0.793749999999994
210
0.0
220
0.0
230
-1.0
100
AcDbArc
 50
1.016929198308856
 51
359.0206049107808
  0
LINE
  5
D2
330
1F
100
AcDbEntity
  8
Graypants_Drum36
 62
    36
420
  8866048
370
    -3
100
AcDbLine
 10
0.7937497175739736
 20
-0.7973452350365564
 30
0.0
 11
-0.7937500000007276
 21
-0.7973452350367838
 31
0.0
  0
LINE
  5
D3
330
1F
100
AcDbEntity
  8
Graypants_Drum36
 62
    36
420
  8866048
370
    -3
100
AcDbLine
 10
-0.7937497309890205
 20
0.7901547649633072
 30
0.0
 11
0.7922031129869538
 21
0.7901547649633072
 31
0.0
  0
ARC
  5
D4
330
1F
100
AcDbEntity
  8
Graypants_Drum36
 62
    36
420
  8866048
370
    -3
100
AcDbCircle
 10
-0.7937500000008638
 20
-0.0035952350367127
 30
0.0
 40
1.587499999999889
100
AcDbArc
 50
89.99998543631624
 51
270.0000000000049
  0
LINE
  5
D5
330
1F
100
AcDbEntity
  8
Graypants_Drum36
 62
    36
420
  8866048
370
    -3
100
AcDbLine
 10
0.7937499999993634
 20
1.583904764963353
 30
0.0
 11
-0.7937495964833943
 21
1.583904764963125
 31
0.0
  0
ARC
  5
D6
330
1F
100
AcDbEntity
  8
Graypants_Drum36
 62
    36
420
  8866048
370
    -3
100
AcDbCircle
 10
0.7937499999994909
 20
-0.0035952350366528
 30
0.0
 40
1.587500000000005
100
AcDbArc
 50
269.9999847101219
 51
90.00000000000458
  0
LINE
  5
D7
330
1F
100
AcDbEntity
  8
Graypants_Drum36
 62
    36
420
  8866048
370
    -3
100
AcDbLine
 10
-0.7937500000007276
 20
-1.591095235036602
 30
0.0
 11
0.7937495763612787
 21
-1.591095235036602
 31
0.0
  0
LINE
  5
D8
330
1F
100
AcDbEntity
  8
Graypants_Drum36
 62
    36
420
  8866048
370
    -3
100
AcDbLine
 10
9.525000872235978
 20
-2.920999999998895
 30
0.0
 11
4.762499999999818
 21
-2.920999999998895
 31
0.0
  0
LINE
  5
D9
330
1F
100
AcDbEntity
  8
Graypants_Drum36
 62
    36
420
  8866048
370
    -3
100
AcDbLine
 10
4.762500000000499
 20
2.921000000001231
 30
0.0
 11
9.525000000000317
 21
2.921000000001003
 31
0.0
  0
CIRCLE
  5
DA
330
1F
100
AcDbEntity
  8
Graypants_Drum36
 62
    36
420
  8866048
370
    -3
100
AcDbCircle
 10
-9.524999999999864
 20
0.0000000000011546
 30
0.0
 40
2.921000000000049
210
0.0
220
0.0
230
-1.0
  0
POLYLINE
  5
DB
330
1F
100
AcDbEntity
  8
Graypants_Drum36
 62
    36
420
  8866048
370
    -3
100
AcDb2dPolyline
 66
     1
 10
0.0
 20
0.0
 30
0.0
  0
VERTEX
  5
DC
330
DB
100
AcDbEntity
  8
Graypants_Drum36
 62
    36
420
  8866048
370
    -3
100
AcDbVertex
100
AcDb2dVertex
 10
2.381249999999909
 20
-11.11250000011135
 30
0.0
  0
VERTEX
  5
DD
330
DB
100
AcDbEntity
  8
Graypants_Drum36
 62
    36
420
  8866048
370
    -3
100
AcDbVertex
100
AcDb2dVertex
 10
2.381248777009953
 20
-11.11251717147215
 30
0.0
  0
VERTEX
  5
DE
330
DB
100
AcDbEntity
  8
Graypants_Drum36
 62
    36
420
  8866048
370
    -3
100
AcDbVertex
100
AcDb2dVertex
 10
2.353185390145304
 20
-11.4485016693244
 30
0.0
  0
VERTEX
  5
DF
330
DB
100
AcDbEntity
  8
Graypants_Drum36
 62
    36
420
  8866048
370
    -3
100
AcDbVertex
100
AcDb2dVertex
 10
2.346932110712624
 20
-11.50703751102866
 30
0.0
  0
VERTEX
  5
E0
330
DB
100
AcDbEntity
  8
Graypants_Drum36
 62
    36
420
  8866048
370
    -3
100
AcDbVertex
100
AcDb2dVertex
 10
2.344082172191376
 20
-11.52937067256365
 30
0.0
  0
VERTEX
  5
E1
330
DB
100
AcDbEntity
  8
Graypants_Drum36
 62
    36
420
  8866048
370
    -3
100
AcDbVertex
100
AcDb2dVertex
 10
2.342752368160428
 20
-11.53838318860314
 30
0.0
  0
VERTEX
  5
E2
330
DB
100
AcDbEntity
  8
Graypants_Drum36
 62
    36
420
  8866048
370
    -3
100
AcDbVertex
100
AcDb2dVertex
 10
2.34149590854199
 20
-11.54579951867207
 30
0.0
  0
VERTEX
  5
E3
330
DB
100
AcDbEntity
  8
Graypants_Drum36
 62
    36
420
  8866048
370
    -3
100
AcDbVertex
100
AcDb2dVertex
 10
2.330288420131607
 20
-11.60250762997389
 30
0.0
  0
VERTEX
  5
E4
330
DB
100
AcDbEntity
  8
Graypants_Drum36
 62
    36
420
  8866048
370
    -3
100
AcDbVertex
100
AcDb2dVertex
 10
2.317716131280908
 20
-11.6588914069733
 30
0.0
  0
VERTEX
  5
E5
330
DB
100
AcDbEntity
  8
Graypants_Drum36
 62
    36
420
  8866048
370
    -3
100
AcDbVertex
100
AcDb2dVertex
 10
2.303786842043013
 20
-11.71492660821754
 30
0.0
  0
VERTEX
  5
E6
330
DB
100
AcDbEntity
  8
Graypants_Drum36
 62
    36
420
  8866048
370
    -3
100
AcDbVertex
100
AcDb2dVertex
 10
2.288508352471043
 20
-11.77058899225384
 30
0.0
  0
VERTEX
  5
E7
330
DB
100
AcDbEntity
  8
Graypants_Drum36
 62
    36
420
  8866048
370
    -3
100
AcDbVertex
100
AcDb2dVertex
 10
2.271888462618121
 20
-11.82585431762944
 30
0.0
  0
VERTEX
  5
E8
330
DB
100
AcDbEntity
  8
Graypants_Drum36
 62
    36
420
  8866048
370
    -3
100
AcDbVertex
100
AcDb2dVertex
 10
2.253934972537369
 20
-11.88069834289156
 30
0.0
  0
VERTEX
  5
E9
330
DB
100
AcDbEntity
  8
Graypants_Drum36
 62
    36
420
  8866048
370
    -3
100
AcDbVertex
100
AcDb2dVertex
 10
2.234655682281907
 20
-11.93509682658745
 30
0.0
  0
VERTEX
  5
EA
330
DB
100
AcDbEntity
  8
Graypants_Drum36
 62
    36
420
  8866048
370
    -3
100
AcDbVertex
100
AcDb2dVertex
 10
2.214058391904857
 20
-11.98902552726434
 30
0.0
  0
VERTEX
  5
EB
330
DB
100
AcDbEntity
  8
Graypants_Drum36
 62
    36
420
  8866048
370
    -3
100
AcDbVertex
100
AcDb2dVertex
 10
2.190898563113543
 20
-12.04540690834746
 30
0.0
  0
VERTEX
  5
EC
330
DB
100
AcDbEntity
  8
Graypants_Drum36
 62
    36
420
  8866048
370
    -3
100
AcDbVertex
100
AcDb2dVertex
 10
2.16633201077623
 20
-12.10111408828737
 30
0.0
  0
VERTEX
  5
ED
330
DB
100
AcDbEntity
  8
Graypants_Drum36
 62
    36
420
  8866048
370
    -3
100
AcDbVertex
100
AcDb2dVertex
 10
2.140374991530376
 20
-12.15612220018303
 30
0.0
  0
VERTEX
  5
EE
330
DB
100
AcDbEntity
  8
Graypants_Drum36
 62
    36
420
  8866048
370
    -3
100
AcDbVertex
100
AcDb2dVertex
 10
2.113043762013438
 20
-12.21040637713341
 30
0.0
  0
VERTEX
  5
EF
330
DB
100
AcDbEntity
  8
Graypants_Drum36
 62
    36
420
  8866048
370
    -3
100
AcDbVertex
100
AcDb2dVertex
 10
2.084354578862877
 20
-12.26394175223747
 30
0.0
  0
VERTEX
  5
F0
330
DB
100
AcDbEntity
  8
Graypants_Drum36
 62
    36
420
  8866048
370
    -3
100
AcDbVertex
100
AcDb2dVertex
 10
2.054323698716149
 20
-12.31670345859418
 30
0.0
  0
VERTEX
  5
F1
330
DB
100
AcDbEntity
  8
Graypants_Drum36
 62
    36
420
  8866048
370
    -3
100
AcDbVertex
100
AcDb2dVertex
 10
2.022967378210714
 20
-12.36866662930249
 30
0.0
  0
VERTEX
  5
F2
330
DB
100
AcDbEntity
  8
Graypants_Drum36
 62
    36
420
  8866048
370
    -3
100
AcDbVertex
100
AcDb2dVertex
 10
1.990301873984029
 20
-12.41980639746138
 30
0.0
  0
VERTEX
  5
F3
330
DB
100
AcDbEntity
  8
Graypants_Drum36
 62
    36
420
  8866048
370
    -3
100
AcDbVertex
100
AcDb2dVertex
 10
1.956343442673552
 20
-12.4700978961698
 30
0.0
  0
VERTEX
  5
F4
330
DB
100
AcDbEntity
  8
Graypants_Drum36
 62
    36
420
  8866048
370
    -3
100
AcDbVertex
100
AcDb2dVertex
 10
1.921108340916743
 20
-12.51951625852672
 30
0.0
  0
VERTEX
  5
F5
330
DB
100
AcDbEntity
  8
Graypants_Drum36
 62
    36
420
  8866048
370
    -3
100
AcDbVertex
100
AcDb2dVertex
 10
1.884612825351059
 20
-12.56803661763111
 30
0.0
  0
VERTEX
  5
F6
330
DB
100
AcDbEntity
  8
Graypants_Drum36
 62
    36
420
  8866048
370
    -3
100
AcDbVertex
100
AcDb2dVertex
 10
1.846873152613958
 20
-12.61563410658193
 30
0.0
  0
VERTEX
  5
F7
330
DB
100
AcDbEntity
  8
Graypants_Drum36
 62
    36
420
  8866048
370
    -3
100
AcDbVertex
100
AcDb2dVertex
 10
1.807905579342899
 20
-12.66228385847813
 30
0.0
  0
VERTEX
  5
F8
330
DB
100
AcDbEntity
  8
Graypants_Drum36
 62
    36
420
  8866048
370
    -3
100
AcDbVertex
100
AcDb2dVertex
 10
1.767726362175341
 20
-12.70796100641869
 30
0.0
  0
VERTEX
  5
F9
330
DB
100
AcDbEntity
  8
Graypants_Drum36
 62
    36
420
  8866048
370
    -3
100
AcDbVertex
100
AcDb2dVertex
 10
1.726351757748741
 20
-12.75264068350257
 30
0.0
  0
VERTEX
  5
FA
330
DB
100
AcDbEntity
  8
Graypants_Drum36
 62
    36
420
  8866048
370
    -3
100
AcDbVertex
100
AcDb2dVertex
 10
1.683798022700557
 20
-12.79629802282873
 30
0.0
  0
VERTEX
  5
FB
330
DB
100
AcDbEntity
  8
Graypants_Drum36
 62
    36
420
  8866048
370
    -3
100
AcDbVertex
100
AcDb2dVertex
 10
1.639650424894803
 20
-12.83931731723049
 30
0.0
  0
VERTEX
  5
FC
330
DB
100
AcDbEntity
  8
Graypants_Drum36
 62
    36
420
  8866048
370
    -3
100
AcDbVertex
100
AcDb2dVertex
 10
1.594419442740233
 20
-12.88116565624174
 30
0.0
  0
VERTEX
  5
FD
330
DB
100
AcDbEntity
  8
Graypants_Drum36
 62
    36
420
  8866048
370
    -3
100
AcDbVertex
100
AcDb2dVertex
 10
1.548152110167063
 20
-12.9218027957626
 30
0.0
  0
VERTEX
  5
FE
330
DB
100
AcDbEntity
  8
Graypants_Drum36
 62
    36
420
  8866048
370
    -3
100
AcDbVertex
100
AcDb2dVertex
 10
1.500897413488219
 20
-12.96119102804259
 30
0.0
  0
VERTEX
  5
FF
330
DB
100
AcDbEntity
  8
Graypants_Drum36
 62
    36
420
  8866048
370
    -3
100
AcDbVertex
100
AcDb2dVertex
 10
1.452706119785327
 20
-12.99929529693351
 30
0.0
  0
VERTEX
  5
100
330
DB
100
AcDbEntity
  8
Graypants_Drum36
 62
    36
420
  8866048
370
    -3
100
AcDbVertex
100
AcDb2dVertex
 10
1.403630597426204
 20
-13.03608329920285
 30
0.0
  0
VERTEX
  5
101
330
DB
100
AcDbEntity
  8
Graypants_Drum36
 62
    36
420
  8866048
370
    -3
100
AcDbVertex
100
AcDb2dVertex
 10
1.353724630030669
 20
-13.07152557131401
 30
0.0
  0
VERTEX
  5
102
330
DB
100
AcDbEntity
  8
Graypants_Drum36
 62
    36
420
  8866048
370
    -3
100
AcDbVertex
100
AcDb2dVertex
 10
1.303043225248386
 20
-13.1055955612209
 30
0.0
  0
VERTEX
  5
103
330
DB
100
AcDbEntity
  8
Graypants_Drum36
 62
    36
420
  8866048
370
    -3
100
AcDbVertex
100
AcDb2dVertex
 10
1.25164241974239
 20
-13.13826968486931
 30
0.0
  0
VERTEX
  5
104
330
DB
100
AcDbEntity
  8
Graypants_Drum36
 62
    36
420
  8866048
370
    -3
100
AcDbVertex
100
AcDb2dVertex
 10
1.199579081784978
 20
-13.16952736724321
 30
0.0
  0
VERTEX
  5
105
330
DB
100
AcDbEntity
  8
Graypants_Drum36
 62
    36
420
  8866048
370
    -3
100
AcDbVertex
100
AcDb2dVertex
 10
1.14691071286866
 20
-13.19935106793941
 30
0.0
  0
VERTEX
  5
106
330
DB
100
AcDbEntity
  8
Graypants_Drum36
 62
    36
420
  8866048
370
    -3
100
AcDbVertex
100
AcDb2dVertex
 10
1.093695249714592
 20
-13.22772629139608
 30
0.0
  0
VERTEX
  5
107
330
DB
100
AcDbEntity
  8
Graypants_Drum36
 62
    36
420
  8866048
370
    -3
100
AcDbVertex
100
AcDb2dVertex
 10
1.039990868024774
 20
-13.25464158203767
 30
0.0
  0
VERTEX
  5
108
330
DB
100
AcDbEntity
  8
Graypants_Drum36
 62
    36
420
  8866048
370
    -3
100
AcDbVertex
100
AcDb2dVertex
 10
0.9858557892735743
 20
-13.28008850472902
 30
0.0
  0
VERTEX
  5
109
330
DB
100
AcDbEntity
  8
Graypants_Drum36
 62
    36
420
  8866048
370
    -3
100
AcDbVertex
100
AcDb2dVertex
 10
0.9313480917698033
 20
-13.30406161105313
 30
0.0
  0
VERTEX
  5
10A
330
DB
100
AcDbEntity
  8
Graypants_Drum36
 62
    36
420
  8866048
370
    -3
100
AcDbVertex
100
AcDb2dVertex
 10
0.8765255271441714
 20
-13.32655839203862
 30
0.0
  0
VERTEX
  5
10B
330
DB
100
AcDbEntity
  8
Graypants_Drum36
 62
    36
420
  8866048
370
    -3
100
AcDbVertex
100
AcDb2dVertex
 10
0.8214453433300282
 20
-13.34757921806364
 30
0.0
  0
VERTEX
  5
10C
330
DB
100
AcDbEntity
  8
Graypants_Drum36
 62
    36
420
  8866048
370
    -3
100
AcDbVertex
100
AcDb2dVertex
 10
0.7661641150094632
 20
-13.36712726675085
 30
0.0
  0
VERTEX
  5
10D
330
DB
100
AcDbEntity
  8
Graypants_Drum36
 62
    36
420
  8866048
370
    -3
100
AcDbVertex
100
AcDb2dVertex
 10
0.7107375823939529
 20
-13.38520843974388
 30
0.0
  0
VERTEX
  5
10E
330
DB
100
AcDbEntity
  8
Graypants_Drum36
 62
    36
420
  8866048
370
    -3
100
AcDbVertex
100
AcDb2dVertex
 10
0.6552204991004867
 20
-13.40183126931729
 30
0.0
  0
VERTEX
  5
10F
330
DB
100
AcDbEntity
  8
Graypants_Drum36
 62
    36
420
  8866048
370
    -3
100
AcDbVertex
100
AcDb2dVertex
 10
0.5996664897723663
 20
-13.41700681582074
 30
0.0
  0
VERTEX
  5
110
330
DB
100
AcDbEntity
  8
Graypants_Drum36
 62
    36
420
  8866048
370
    -3
100
AcDbVertex
100
AcDb2dVertex
 10
0.5441279179803
 20
-13.43074855699272
 30
0.0
  0
VERTEX
  5
111
330
DB
100
AcDbEntity
  8
Graypants_Drum36
 62
    36
420
  8866048
370
    -3
100
AcDbVertex
100
AcDb2dVertex
 10
0.4886557648257635
 20
-13.44307227020121
 30
0.0
  0
VERTEX
  5
112
330
DB
100
AcDbEntity
  8
Graypants_Drum36
 62
    36
420
  8866048
370
    -3
100
AcDbVertex
100
AcDb2dVertex
 10
0.4332995185563723
 20
-13.45399590867685
 30
0.0
  0
VERTEX
  5
113
330
DB
100
AcDbEntity
  8
Graypants_Drum36
 62
    36
420
  8866048
370
    -3
100
AcDbVertex
100
AcDb2dVertex
 10
0.3781070753937076
 20
-13.46353947280172
 30
0.0
  0
VERTEX
  5
114
330
DB
100
AcDbEntity
  8
Graypants_Drum36
 62
    36
420
  8866048
370
    -3
100
AcDbVertex
100
AcDb2dVertex
 10
0.3231246516689065
 20
-13.47172487750128
 30
0.0
  0
VERTEX
  5
115
330
DB
100
AcDbEntity
  8
Graypants_Drum36
 62
    36
420
  8866048
370
    -3
100
AcDbVertex
100
AcDb2dVertex
 10
0.268396707261549
 20
-13.47857581676292
 30
0.0
  0
VERTEX
  5
116
330
DB
100
AcDbEntity
  8
Graypants_Drum36
 62
    36
420
  8866048
370
    -3
100
AcDbVertex
100
AcDb2dVertex
 10
0.2139658802438781
 20
-13.48411762626952
 30
0.0
  0
VERTEX
  5
117
330
DB
100
AcDbEntity
  8
Graypants_Drum36
 62
    36
420
  8866048
370
    -3
100
AcDbVertex
100
AcDb2dVertex
 10
0.1598729325459947
 20
-13.48837714509425
 30
0.0
  0
VERTEX
  5
118
330
DB
100
AcDbEntity
  8
Graypants_Drum36
 62
    36
420
  8866048
370
    -3
100
AcDbVertex
100
AcDb2dVertex
 10
0.1061567063789742
 20
-13.491382577353
 30
0.0
  0
VERTEX
  5
119
330
DB
100
AcDbEntity
  8
Graypants_Drum36
 62
    36
420
  8866048
370
    -3
100
AcDbVertex
100
AcDb2dVertex
 10
0.0528540910823134
 20
-13.49316335465542
 30
0.0
  0
VERTEX
  5
11A
330
DB
100
AcDbEntity
  8
Graypants_Drum36
 62
    36
420
  8866048
370
    -3
100
AcDbVertex
100
AcDb2dVertex
 10
0.0
 20
-13.4937500001351
 30
0.0
  0
VERTEX
  5
11B
330
DB
100
AcDbEntity
  8
Graypants_Drum36
 62
    36
420
  8866048
370
    -3
100
AcDbVertex
100
AcDb2dVertex
 10
-0.0528540910823478
 20
-13.49316335465542
 30
0.0
  0
VERTEX
  5
11C
330
DB
100
AcDbEntity
  8
Graypants_Drum36
 62
    36
420
  8866048
370
    -3
100
AcDbVertex
100
AcDb2dVertex
 10
-0.1061567063790393
 20
-13.491382577353
 30
0.0
  0
VERTEX
  5
11D
330
DB
100
AcDbEntity
  8
Graypants_Drum36
 62
    36
420
  8866048
370
    -3
100
AcDbVertex
100
AcDb2dVertex
 10
-0.1598729325460866
 20
-13.48837714509425
 30
0.0
  0
VERTEX
  5
11E
330
DB
100
AcDbEntity
  8
Graypants_Drum36
 62
    36
420
  8866048
370
    -3
100
AcDbVertex
100
AcDb2dVertex
 10
-0.2139658802439931
 20
-13.48411762626951
 30
0.0
  0
VERTEX
  5
11F
330
DB
100
AcDbEntity
  8
Graypants_Drum36
 62
    36
420
  8866048
370
    -3
100
AcDbVertex
100
AcDb2dVertex
 10
-0.2683967072616834
 20
-13.47857581676291
 30
0.0
  0
VERTEX
  5
120
330
DB
100
AcDbEntity
  8
Graypants_Drum36
 62
    36
420
  8866048
370
    -3
100
AcDbVertex
100
AcDb2dVertex
 10
-0.3231246516690568
 20
-13.47172487750126
 30
0.0
  0
VERTEX
  5
121
330
DB
100
AcDbEntity
  8
Graypants_Drum36
 62
    36
420
  8866048
370
    -3
100
AcDbVertex
100
AcDb2dVertex
 10
-0.3781070753938704
 20
-13.4635394728017
 30
0.0
  0
VERTEX
  5
122
330
DB
100
AcDbEntity
  8
Graypants_Drum36
 62
    36
420
  8866048
370
    -3
100
AcDbVertex
100
AcDb2dVertex
 10
-0.4332995185565441
 20
-13.45399590867682
 30
0.0
  0
VERTEX
  5
123
330
DB
100
AcDbEntity
  8
Graypants_Drum36
 62
    36
420
  8866048
370
    -3
100
AcDbVertex
100
AcDb2dVertex
 10
-0.4886557648259409
 20
-13.44307227020117
 30
0.0
  0
VERTEX
  5
124
330
DB
100
AcDbEntity
  8
Graypants_Drum36
 62
    36
420
  8866048
370
    -3
100
AcDbVertex
100
AcDb2dVertex
 10
-0.5441279179804799
 20
-13.43074855699268
 30
0.0
  0
VERTEX
  5
125
330
DB
100
AcDbEntity
  8
Graypants_Drum36
 62
    36
420
  8866048
370
    -3
100
AcDbVertex
100
AcDb2dVertex
 10
-0.5996664897725456
 20
-13.41700681582069
 30
0.0
  0
VERTEX
  5
126
330
DB
100
AcDbEntity
  8
Graypants_Drum36
 62
    36
420
  8866048
370
    -3
100
AcDbVertex
100
AcDb2dVertex
 10
-0.6552204991006628
 20
-13.40183126931724
 30
0.0
  0
VERTEX
  5
127
330
DB
100
AcDbEntity
  8
Graypants_Drum36
 62
    36
420
  8866048
370
    -3
100
AcDbVertex
100
AcDb2dVertex
 10
-0.7107375823941228
 20
-13.38520843974381
 30
0.0
  0
VERTEX
  5
128
330
DB
100
AcDbEntity
  8
Graypants_Drum36
 62
    36
420
  8866048
370
    -3
100
AcDbVertex
100
AcDb2dVertex
 10
-0.7661641150096243
 20
-13.36712726675077
 30
0.0
  0
VERTEX
  5
129
330
DB
100
AcDbEntity
  8
Graypants_Drum36
 62
    36
420
  8866048
370
    -3
100
AcDbVertex
100
AcDb2dVertex
 10
-0.8214453433301779
 20
-13.34757921806356
 30
0.0
  0
VERTEX
  5
12A
330
DB
100
AcDbEntity
  8
Graypants_Drum36
 62
    36
420
  8866048
370
    -3
100
AcDbVertex
100
AcDb2dVertex
 10
-0.8765255271443078
 20
-13.32655839203854
 30
0.0
  0
VERTEX
  5
12B
330
DB
100
AcDbEntity
  8
Graypants_Drum36
 62
    36
420
  8866048
370
    -3
100
AcDbVertex
100
AcDb2dVertex
 10
-0.9313480917699238
 20
-13.30406161105304
 30
0.0
  0
VERTEX
  5
12C
330
DB
100
AcDbEntity
  8
Graypants_Drum36
 62
    36
420
  8866048
370
    -3
100
AcDbVertex
100
AcDb2dVertex
 10
-0.9858557892736773
 20
-13.28008850472893
 30
0.0
  0
VERTEX
  5
12D
330
DB
100
AcDbEntity
  8
Graypants_Drum36
 62
    36
420
  8866048
370
    -3
100
AcDbVertex
100
AcDb2dVertex
 10
-1.039990868024858
 20
-13.25464158203757
 30
0.0
  0
VERTEX
  5
12E
330
DB
100
AcDbEntity
  8
Graypants_Drum36
 62
    36
420
  8866048
370
    -3
100
AcDbVertex
100
AcDb2dVertex
 10
-1.093695249714655
 20
-13.22772629139598
 30
0.0
  0
VERTEX
  5
12F
330
DB
100
AcDbEntity
  8
Graypants_Drum36
 62
    36
420
  8866048
370
    -3
100
AcDbVertex
100
AcDb2dVertex
 10
-1.146910712868701
 20
-13.19935106793931
 30
0.0
  0
VERTEX
  5
130
330
DB
100
AcDbEntity
  8
Graypants_Drum36
 62
    36
420
  8866048
370
    -3
100
AcDbVertex
100
AcDb2dVertex
 10
-1.199579081784995
 20
-13.16952736724312
 30
0.0
  0
VERTEX
  5
131
330
DB
100
AcDbEntity
  8
Graypants_Drum36
 62
    36
420
  8866048
370
    -3
100
AcDbVertex
100
AcDb2dVertex
 10
-1.251642419742384
 20
-13.13826968486922
 30
0.0
  0
VERTEX
  5
132
330
DB
100
AcDbEntity
  8
Graypants_Drum36
 62
    36
420
  8866048
370
    -3
100
AcDbVertex
100
AcDb2dVertex
 10
-1.303043225248354
 20
-13.10559556122081
 30
0.0
  0
VERTEX
  5
133
330
DB
100
AcDbEntity
  8
Graypants_Drum36
 62
    36
420
  8866048
370
    -3
100
AcDbVertex
100
AcDb2dVertex
 10
-1.353724630030612
 20
-13.07152557131393
 30
0.0
  0
VERTEX
  5
134
330
DB
100
AcDbEntity
  8
Graypants_Drum36
 62
    36
420
  8866048
370
    -3
100
AcDbVertex
100
AcDb2dVertex
 10
-1.403630597426122
 20
-13.03608329920278
 30
0.0
  0
VERTEX
  5
135
330
DB
100
AcDbEntity
  8
Graypants_Drum36
 62
    36
420
  8866048
370
    -3
100
AcDbVertex
100
AcDb2dVertex
 10
-1.45270611978522
 20
-12.99929529693345
 30
0.0
  0
VERTEX
  5
136
330
DB
100
AcDbEntity
  8
Graypants_Drum36
 62
    36
420
  8866048
370
    -3
100
AcDbVertex
100
AcDb2dVertex
 10
-1.500897413488086
 20
-12.96119102804253
 30
0.0
  0
VERTEX
  5
137
330
DB
100
AcDbEntity
  8
Graypants_Drum36
 62
    36
420
  8866048
370
    -3
100
AcDbVertex
100
AcDb2dVertex
 10
-1.548152110166905
 20
-12.92180279576257
 30
0.0
  0
VERTEX
  5
138
330
DB
100
AcDbEntity
  8
Graypants_Drum36
 62
    36
420
  8866048
370
    -3
100
AcDbVertex
100
AcDb2dVertex
 10
-1.594419442740051
 20
-12.88116565624172
 30
0.0
  0
VERTEX
  5
139
330
DB
100
AcDbEntity
  8
Graypants_Drum36
 62
    36
420
  8866048
370
    -3
100
AcDbVertex
100
AcDb2dVertex
 10
-1.639650424894598
 20
-12.83931731723048
 30
0.0
  0
VERTEX
  5
13A
330
DB
100
AcDbEntity
  8
Graypants_Drum36
 62
    36
420
  8866048
370
    -3
100
AcDbVertex
100
AcDb2dVertex
 10
-1.68379802270033
 20
-12.79629802282875
 30
0.0
  0
VERTEX
  5
13B
330
DB
100
AcDbEntity
  8
Graypants_Drum36
 62
    36
420
  8866048
370
    -3
100
AcDbVertex
100
AcDb2dVertex
 10
-1.726351757748594
 20
-12.75264068350259
 30
0.0
  0
VERTEX
  5
13C
330
DB
100
AcDbEntity
  8
Graypants_Drum36
 62
    36
420
  8866048
370
    -3
100
AcDbVertex
100
AcDb2dVertex
 10
-1.767726362175264
 20
-12.70796100641871
 30
0.0
  0
VERTEX
  5
13D
330
DB
100
AcDbEntity
  8
Graypants_Drum36
 62
    36
420
  8866048
370
    -3
100
AcDbVertex
100
AcDb2dVertex
 10
-1.807905579342883
 20
-12.66228385847815
 30
0.0
  0
VERTEX
  5
13E
330
DB
100
AcDbEntity
  8
Graypants_Drum36
 62
    36
420
  8866048
370
    -3
100
AcDbVertex
100
AcDb2dVertex
 10
-1.846873152613994
 20
-12.61563410658194
 30
0.0
  0
VERTEX
  5
13F
330
DB
100
AcDbEntity
  8
Graypants_Drum36
 62
    36
420
  8866048
370
    -3
100
AcDbVertex
100
AcDb2dVertex
 10
-1.884612825351139
 20
-12.56803661763113
 30
0.0
  0
VERTEX
  5
140
330
DB
100
AcDbEntity
  8
Graypants_Drum36
 62
    36
420
  8866048
370
    -3
100
AcDbVertex
100
AcDb2dVertex
 10
-1.92110834091686
 20
-12.51951625852674
 30
0.0
  0
VERTEX
  5
141
330
DB
100
AcDbEntity
  8
Graypants_Drum36
 62
    36
420
  8866048
370
    -3
100
AcDbVertex
100
AcDb2dVertex
 10
-1.9563434426737
 20
-12.47009789616982
 30
0.0
  0
VERTEX
  5
142
330
DB
100
AcDbEntity
  8
Graypants_Drum36
 62
    36
420
  8866048
370
    -3
100
AcDbVertex
100
AcDb2dVertex
 10
-1.990301873984201
 20
-12.41980639746139
 30
0.0
  0
VERTEX
  5
143
330
DB
100
AcDbEntity
  8
Graypants_Drum36
 62
    36
420
  8866048
370
    -3
100
AcDbVertex
100
AcDb2dVertex
 10
-2.022967378210905
 20
-12.36866662930251
 30
0.0
  0
VERTEX
  5
144
330
DB
100
AcDbEntity
  8
Graypants_Drum36
 62
    36
420
  8866048
370
    -3
100
AcDbVertex
100
AcDb2dVertex
 10
-2.054323698716355
 20
-12.31670345859419
 30
0.0
  0
VERTEX
  5
145
330
DB
100
AcDbEntity
  8
Graypants_Drum36
 62
    36
420
  8866048
370
    -3
100
AcDbVertex
100
AcDb2dVertex
 10
-2.084354578863093
 20
-12.26394175223748
 30
0.0
  0
VERTEX
  5
146
330
DB
100
AcDbEntity
  8
Graypants_Drum36
 62
    36
420
  8866048
370
    -3
100
AcDbVertex
100
AcDb2dVertex
 10
-2.113043762013662
 20
-12.21040637713342
 30
0.0
  0
VERTEX
  5
147
330
DB
100
AcDbEntity
  8
Graypants_Drum36
 62
    36
420
  8866048
370
    -3
100
AcDbVertex
100
AcDb2dVertex
 10
-2.140374991530604
 20
-12.15612220018304
 30
0.0
  0
VERTEX
  5
148
330
DB
100
AcDbEntity
  8
Graypants_Drum36
 62
    36
420
  8866048
370
    -3
100
AcDbVertex
100
AcDb2dVertex
 10
-2.166332010776461
 20
-12.10111408828737
 30
0.0
  0
VERTEX
  5
149
330
DB
100
AcDbEntity
  8
Graypants_Drum36
 62
    36
420
  8866048
370
    -3
100
AcDbVertex
100
AcDb2dVertex
 10
-2.190898563113776
 20
-12.04540690834746
 30
0.0
  0
VERTEX
  5
14A
330
DB
100
AcDbEntity
  8
Graypants_Drum36
 62
    36
420
  8866048
370
    -3
100
AcDbVertex
100
AcDb2dVertex
 10
-2.214058391905091
 20
-11.98902552726434
 30
0.0
  0
VERTEX
  5
14B
330
DB
100
AcDbEntity
  8
Graypants_Drum36
 62
    36
420
  8866048
370
    -3
100
AcDbVertex
100
AcDb2dVertex
 10
-2.234644395404134
 20
-11.93509526781362
 30
0.0
  0
VERTEX
  5
14C
330
DB
100
AcDbEntity
  8
Graypants_Drum36
 62
    36
420
  8866048
370
    -3
100
AcDbVertex
100
AcDb2dVertex
 10
-2.253844677513646
 20
-11.88068587270089
 30
0.0
  0
VERTEX
  5
14D
330
DB
100
AcDbEntity
  8
Graypants_Drum36
 62
    36
420
  8866048
370
    -3
100
AcDbVertex
100
AcDb2dVertex
 10
-2.271583716912603
 20
-11.82581223073589
 30
0.0
  0
VERTEX
  5
14E
330
DB
100
AcDbEntity
  8
Graypants_Drum36
 62
    36
420
  8866048
370
    -3
100
AcDbVertex
100
AcDb2dVertex
 10
-2.287785992279982
 20
-11.77048923072839
 30
0.0
  0
VERTEX
  5
14F
330
DB
100
AcDbEntity
  8
Graypants_Drum36
 62
    36
420
  8866048
370
    -3
100
AcDbVertex
100
AcDb2dVertex
 10
-2.302375982294759
 20
-11.71473176148813
 30
0.0
  0
VERTEX
  5
150
330
DB
100
AcDbEntity
  8
Graypants_Drum36
 62
    36
420
  8866048
370
    -3
100
AcDbVertex
100
AcDb2dVertex
 10
-2.315278165635914
 20
-11.65855471182487
 30
0.0
  0
VERTEX
  5
151
330
DB
100
AcDbEntity
  8
Graypants_Drum36
 62
    36
420
  8866048
370
    -3
100
AcDbVertex
100
AcDb2dVertex
 10
-2.326417020982422
 20
-11.60197297054836
 30
0.0
  0
VERTEX
  5
152
330
DB
100
AcDbEntity
  8
Graypants_Drum36
 62
    36
420
  8866048
370
    -3
100
AcDbVertex
100
AcDb2dVertex
 10
-2.335717027013259
 20
-11.54500142646835
 30
0.0
  0
VERTEX
  5
153
330
DB
100
AcDbEntity
  8
Graypants_Drum36
 62
    36
420
  8866048
370
    -3
100
AcDbVertex
100
AcDb2dVertex
 10
-2.348064729243012
 20
-11.44729340134974
 30
0.0
  0
VERTEX
  5
154
330
DB
100
AcDbEntity
  8
Graypants_Drum36
 62
    36
420
  8866048
370
    -3
100
AcDbVertex
100
AcDb2dVertex
 10
-2.381250000000137
 20
-11.11250000011137
 30
0.0
  0
SEQEND
  5
155
330
DB
100
AcDbEntity
  8
Graypants_Drum36
 62
    36
420
  8866048
370
    -3
  0
LINE
  5
156
330
1F
100
AcDbEntity
  8
Graypants_Drum36
 62
    36
420
  8866048
370
    -3
100
AcDbLine
 10
2.376796190187953
 20
11.2749482586453
 30
0.0
 11
2.374455387829917
 21
11.30605865898547
 31
0.0
  0
LINE
  5
157
330
1F
100
AcDbEntity
  8
Graypants_Drum36
 62
    36
420
  8866048
370
    -3
100
AcDbLine
 10
2.362986154857429
 20
11.41679236066355
 30
0.0
 11
2.357778158751469
 21
11.45471389761276
 31
0.0
  0
ARC
  5
158
330
1F
100
AcDbEntity
  8
Graypants_Drum36
 62
    36
420
  8866048
370
    -3
100
AcDbCircle
 10
-0.0000480993543377
 20
11.11245581517446
 30
0.0
 40
2.38129809976417
210
0.0
220
0.0
230
-1.0
100
AcDbArc
 50
0.0010631193544941
 51
171.7416516693656
  0
LINE
  5
159
330
1F
100
AcDbEntity
  8
Graypants_Drum36
 62
    36
420
  8866048
370
    -3
100
AcDbLine
 10
2.363938912477736
 20
11.39910840981046
 30
0.0
 11
2.373502281434351
 21
11.3059410879104
 31
0.0
  0
LINE
  5
15A
330
1F
100
AcDbEntity
  8
Graypants_Drum36
 62
    36
420
  8866048
370
    -3
100
AcDbLine
 10
2.375847880096282
 20
11.27445248485227
 30
0.0
 11
2.38125
 21
11.11250000000121
 31
0.0
  0
LINE
  5
15B
330
1F
100
AcDbEntity
  8
Graypants_Drum36
 62
    36
420
  8866048
370
    -3
100
AcDbLine
 10
35.35036916166609
 20
-17.2345456280302
 30
0.0
 11
2.749631069754741
 21
39.2315904833231
 31
0.0
  0
LINE
  5
15C
330
1F
100
AcDbEntity
  8
Graypants_Drum36
 62
    36
420
  8866048
370
    -3
100
AcDbLine
 10
-32.60073891739148
 20
-21.99704491314422
 30
0.0
 11
32.60073845454599
 21
-21.99704559910263
 31
0.0
  0
LINE
  5
15D
330
1F
100
AcDbEntity
  8
Graypants_Drum36
 62
    36
420
  8866048
370
    -3
100
AcDbLine
 10
-2.749630244276432
 20
39.23159054117833
 30
0.0
 11
-35.35036952430301
 21
-17.23454488421656
 31
0.0
  0
LINE
  5
15E
330
1F
100
AcDbEntity
  8
Graypants_Drum36
 62
    36
420
  8866048
370
    -3
100
AcDbLine
 10
1.499999999891315
 20
445.9974775713436
 30
0.0
 11
1.499999999892225
 21
443.5000000000018
 31
0.0
  0
LINE
  5
15F
330
1F
100
AcDbEntity
  8
Graypants_Drum36
 62
    36
420
  8866048
370
    -3
100
AcDbLine
 10
-1.500000000108685
 20
445.9997508571896
 30
0.0
 11
-1.50000000010823
 21
443.5000000000009
 31
0.0
  0
LINE
  5
160
330
1F
100
AcDbEntity
  8
Graypants_Drum36
 62
    36
420
  8866048
370
    -3
100
AcDbLine
 10
-386.9912747635276
 20
-221.6974632858196
 30
0.0
 11
-384.8322676765565
 21
-220.4509599773137
 31
0.0
  0
LINE
  5
161
330
1F
100
AcDbEntity
  8
Graypants_Drum36
 62
    36
420
  8866048
370
    -3
100
AcDbLine
 10
-385.4943134305586
 20
-224.2972938723808
 30
0.0
 11
-383.3322676894982
 21
-223.0490361961388
 31
0.0
  0
ARC
  5
162
330
1F
100
AcDbEntity
  8
Graypants_Drum36
 62
    36
420
  8866048
370
    -3
100
AcDbCircle
 10
-0.0000000000010037
 20
0.000000000000074
 30
0.0
 40
366.7125000000004
210
0.0
220
0.0
230
-1.0
100
AcDbArc
 50
330.2343634689196
 51
89.76634408512425
  0
ARC
  5
163
330
1F
100
AcDbEntity
  8
Graypants_Drum36
 62
    36
420
  8866048
370
    -3
100
AcDbCircle
 10
-0.0000000000005082
 20
0.0000000000003096
 30
0.0
 40
366.7125000000001
210
0.0
220
0.0
230
-1.0
100
AcDbArc
 50
90.23480810172143
 51
209.765460138179
  0
LINE
  5
164
330
1F
100
AcDbEntity
  8
Graypants_Drum36
 62
    36
420
  8866048
370
    -3
100
AcDbLine
 10
1.499999999892225
 20
443.5000000000023
 30
0.0
 11
1.499999999895863
 21
431.0000000000023
 31
0.0
  0
LINE
  5
165
330
1F
100
AcDbEntity
  8
Graypants_Drum36
 62
    36
420
  8866048
370
    -3
100
AcDbLine
 10
-1.50000000010823
 20
443.5000000000014
 30
0.0
 11
-1.500000000104137
 21
431.0000000000014
 31
0.0
  0
LINE
  5
166
330
1F
100
AcDbEntity
  8
Graypants_Drum36
 62
    36
420
  8866048
370
    -3
100
AcDbLine
 10
-1.50000000010823
 20
443.5000000000014
 30
0.0
 11
1.499999999892225
 21
443.5000000000023
 31
0.0
  0
LINE
  5
167
330
1F
100
AcDbEntity
  8
Graypants_Drum36
 62
    36
420
  8866048
370
    -3
100
AcDbLine
 10
-384.8322676765563
 20
-220.4509599773135
 30
0.0
 11
-374.0069500981181
 21
-214.2009600312367
 31
0.0
  0
LINE
  5
168
330
1F
100
AcDbEntity
  8
Graypants_Drum36
 62
    36
420
  8866048
370
    -3
100
AcDbLine
 10
-383.3322676894979
 20
-223.0490361961386
 30
0.0
 11
-372.5069501110597
 21
-216.7990362500618
 31
0.0
  0
LINE
  5
169
330
1F
100
AcDbEntity
  8
Graypants_Drum36
 62
    36
420
  8866048
370
    -3
100
AcDbLine
 10
-383.3322676894979
 20
-223.0490361961386
 30
0.0
 11
-384.8322676765563
 21
-220.4509599773135
 31
0.0
  0
LINE
  5
16A
330
1F
100
AcDbEntity
  8
Graypants_Drum36
 62
    36
420
  8866048
370
    -3
100
AcDbLine
 10
385.4951432408211
 20
-224.2977809469885
 30
0.0
 11
383.3322642317903
 21
-223.0490421385612
 31
0.0
  0
LINE
  5
16B
330
1F
100
AcDbEntity
  8
Graypants_Drum36
 62
    36
420
  8866048
370
    -3
100
AcDbLine
 10
386.9951432681546
 20
-221.6997047514158
 30
0.0
 11
384.8322642591233
 21
-220.450965942988
 31
0.0
  0
ARC
  5
16C
330
1F
100
AcDbEntity
  8
Graypants_Drum36
 62
    36
420
  8866048
370
    -3
100
AcDbCircle
 10
-0.0000000139735747
 20
-0.0000000080063848
 30
0.0
 40
366.7124999838956
210
0.0
220
0.0
230
-1.0
100
AcDbArc
 50
209.7654601381769
 51
210.2336289359921
  0
LINE
  5
16D
330
1F
100
AcDbEntity
  8
Graypants_Drum36
 62
    36
420
  8866048
370
    -3
100
AcDbLine
 10
383.3322642317889
 20
-223.0490421385605
 30
0.0
 11
372.5069467502358
 21
-216.7990420246745
 31
0.0
  0
LINE
  5
16E
330
1F
100
AcDbEntity
  8
Graypants_Drum36
 62
    36
420
  8866048
370
    -3
100
AcDbLine
 10
384.832264259122
 20
-220.4509659429873
 30
0.0
 11
374.0069467775684
 21
-214.2009658291013
 31
0.0
  0
LINE
  5
16F
330
1F
100
AcDbEntity
  8
Graypants_Drum36
 62
    36
420
  8866048
370
    -3
100
AcDbLine
 10
384.832264259122
 20
-220.4509659429873
 30
0.0
 11
383.3322642317889
 21
-223.0490421385605
 31
0.0
  0
LINE
  5
170
330
1F
100
AcDbEntity
  8
Graypants_Drum36
 62
    36
420
  8866048
370
    -3
100
AcDbLine
 10
-19.05000039025526
 20
-53.88153658843861
 30
0.0
 11
-19.05000029468783
 21
-34.697045161226
 31
0.0
  0
LINE
  5
171
330
1F
100
AcDbEntity
  8
Graypants_Drum36
 62
    36
420
  8866048
370
    -3
100
AcDbLine
 10
19.04999960974465
 20
-53.88153686438999
 30
0.0
 11
19.04999951551736
 21
-72.79704535102108
 31
0.0
  0
LINE
  5
172
330
1F
100
AcDbEntity
  8
Graypants_Drum36
 62
    36
420
  8866048
370
    -3
100
AcDbLine
 10
56.19188950511807
 20
10.44535682527591
 30
0.0
 11
39.57352269322155
 21
0.8507383833148365
 31
0.0
  0
LINE
  5
173
330
1F
100
AcDbEntity
  8
Graypants_Drum36
 62
    36
420
  8866048
370
    -3
100
AcDbLine
 10
37.13928795381662
 20
43.4394227031362
 30
0.0
 11
53.51909083667351
 21
52.89630619803212
 31
0.0
  0
LINE
  5
174
330
1F
100
AcDbEntity
  8
Graypants_Drum36
 62
    36
420
  8866048
370
    -3
100
AcDbLine
 10
19.04999951551736
 20
-72.79704535102108
 30
0.0
 11
-19.05000048448301
 21
-72.79704516122591
 31
0.0
  0
ARC
  5
175
330
1F
100
AcDbEntity
  8
Graypants_Drum36
 62
    36
420
  8866048
370
    -3
100
AcDbCircle
 10
6.350000294687629
 20
-34.69704522449106
 30
0.0
 40
12.70000000000021
210
0.0
220
0.0
230
-1.0
100
AcDbArc
 50
0.0000002854189821
 51
90.0000002854186
  0
ARC
  5
176
330
1F
100
AcDbEntity
  8
Graypants_Drum36
 62
    36
420
  8866048
370
    -3
100
AcDbCircle
 10
6.349999705312317
 20
-34.6970452877562
 30
0.0
 40
12.70000000000021
100
AcDbArc
 50
359.9999997145825
 51
89.99999971457993
  0
LINE
  5
177
330
1F
100
AcDbEntity
  8
Graypants_Drum36
 62
    36
420
  8866048
370
    -3
100
AcDbLine
 10
-19.05000048448301
 20
-72.79704516122591
 30
0.0
 11
-19.05000039025526
 21
-53.88153658843861
 31
0.0
  0
LINE
  5
178
330
1F
100
AcDbEntity
  8
Graypants_Drum36
 62
    36
420
  8866048
370
    -3
100
AcDbLine
 10
19.04999970531208
 20
-34.69704535102095
 30
0.0
 11
19.04999960974465
 21
-53.88153686438999
 31
0.0
  0
LINE
  5
179
330
1F
100
AcDbEntity
  8
Graypants_Drum36
 62
    36
420
  8866048
370
    -3
100
AcDbLine
 10
53.51909083667351
 20
52.89630619803212
 30
0.0
 11
72.56909067230617
 21
19.9007382189475
 31
0.0
  0
ARC
  5
17A
330
1F
100
AcDbEntity
  8
Graypants_Drum36
 62
    36
420
  8866048
370
    -3
100
AcDbCircle
 10
-33.22352274801052
 20
11.84926104300883
 30
0.0
 40
12.6999999999993
210
0.0
220
0.0
230
-1.0
100
AcDbArc
 50
240.0000002854162
 51
330.0000002854215
  0
ARC
  5
17B
330
1F
100
AcDbEntity
  8
Graypants_Drum36
 62
    36
420
  8866048
370
    -3
100
AcDbCircle
 10
26.87352280280004
 20
22.84778370270472
 30
0.0
 40
12.70000000000021
100
AcDbArc
 50
119.999999714582
 51
209.9999997145805
  0
LINE
  5
17C
330
1F
100
AcDbEntity
  8
Graypants_Drum36
 62
    36
420
  8866048
370
    -3
100
AcDbLine
 10
72.56909067230617
 20
19.9007382189475
 30
0.0
 11
56.19188950511807
 21
10.44535682527591
 31
0.0
  0
LINE
  5
17D
330
1F
100
AcDbEntity
  8
Graypants_Drum36
 62
    36
420
  8866048
370
    -3
100
AcDbLine
 10
20.52352285758889
 20
33.84630636239946
 30
0.0
 11
37.13928795381662
 21
43.4394227031362
 31
0.0
  0
LINE
  5
17E
330
1F
100
AcDbEntity
  8
Graypants_Drum36
 62
    36
420
  8866048
370
    -3
100
AcDbLine
 10
-37.13777928540185
 20
43.4385525742846
 30
0.0
 11
-20.52352239853599
 21
33.84630677791507
 31
0.0
  0
LINE
  5
17F
330
1F
100
AcDbEntity
  8
Graypants_Drum36
 62
    36
420
  8866048
370
    -3
100
AcDbLine
 10
-56.18777952438313
 20
10.44298482807337
 30
0.0
 11
-72.56909035219269
 21
19.90073915299287
 31
0.0
  0
LINE
  5
180
330
1F
100
AcDbEntity
  8
Graypants_Drum36
 62
    36
420
  8866048
370
    -3
100
AcDbLine
 10
-72.56909035219269
 20
19.90073915299287
 30
0.0
 11
-53.51909018782544
 21
52.89630694228232
 31
0.0
  0
ARC
  5
181
330
1F
100
AcDbEntity
  8
Graypants_Drum36
 62
    36
420
  8866048
370
    -3
100
AcDbCircle
 10
26.87352245332503
 20
22.84778418148495
 30
0.0
 40
12.7
210
0.0
220
0.0
230
-1.0
100
AcDbArc
 50
120.0000002854184
 51
210.0000002854181
  0
ARC
  5
182
330
1F
100
AcDbEntity
  8
Graypants_Drum36
 62
    36
420
  8866048
370
    -3
100
AcDbCircle
 10
-33.22352250811396
 20
11.84926158505459
 30
0.0
 40
12.69999999999951
100
AcDbArc
 50
239.9999997145791
 51
329.9999997145829
  0
LINE
  5
183
330
1F
100
AcDbEntity
  8
Graypants_Drum36
 62
    36
420
  8866048
370
    -3
100
AcDbLine
 10
-53.51909018782544
 20
52.89630694228232
 30
0.0
 11
-37.13777928540185
 21
43.4385525742846
 31
0.0
  0
LINE
  5
184
330
1F
100
AcDbEntity
  8
Graypants_Drum36
 62
    36
420
  8866048
370
    -3
100
AcDbLine
 10
-39.57352256290324
 20
0.8507389886253973
 30
0.0
 11
-56.18777952438313
 21
10.44298482807337
 31
0.0
  0
ARC
  5
185
330
1F
100
AcDbEntity
  8
Graypants_Drum36
 62
    36
420
  8866048
370
    -3
100
AcDbCircle
 10
-0.0000000000003439
 20
0.0000000000000318
 30
0.0
 40
366.7124999999997
210
0.0
220
0.0
230
-1.0
100
AcDbArc
 50
210.2336289359736
 51
329.7656371019132
  0
CIRCLE
  5
186
330
1F
100
AcDbEntity
  8
Graypants_Drum36
 62
    36
420
  8866048
370
    -3
100
AcDbCircle
 10
0.0000000000002972
 20
0.0000000000012739
 30
0.0
 40
461.3734783155587
  0
LINE
  5
187
330
1F
100
AcDbEntity
  8
Graypants_Drum36
 62
    36
420
  8866048
370
    -3
100
AcDbLine
 10
-55.5625
 20
-808.5245587749973
 30
0.0
 11
-0.0000000000004547
 21
-808.5245587749973
 31
0.0
  0
LINE
  5
188
330
1F
100
AcDbEntity
  8
Graypants_Drum36
 62
    36
420
  8866048
370
    -3
100
AcDbLine
 10
-0.0000000000004547
 20
-808.5245587749973
 30
0.0
 11
55.5625
 21
-808.5245587749973
 31
0.0
  0
LINE
  5
189
330
1F
100
AcDbEntity
  8
Graypants_Drum36
 62
    36
420
  8866048
370
    -3
100
AcDbLine
 10
375.9282764609447
 20
-1869.915224556443
 30
0.0
 11
393.7245690140826
 21
-1869.915224556441
 31
0.0
  0
LINE
  5
18A
330
1F
100
AcDbEntity
  8
Graypants_Drum36
 62
    36
420
  8866048
370
    -3
100
AcDbLine
 10
-375.9282798523877
 20
-1869.915224556445
 30
0.0
 11
-393.724572564799
 21
-1869.915224556442
 31
0.0
  0
LINE
  5
18B
330
1F
100
AcDbEntity
  8
Graypants_Drum36
 62
    36
420
  8866048
370
    -3
100
AcDbLine
 10
-2.381249999999909
 20
-1525.071024442971
 30
0.0
 11
-2.381249999999681
 21
-1507.853179459076
 31
0.0
  0
POLYLINE
  5
18C
330
1F
100
AcDbEntity
  8
Graypants_Drum36
 62
    36
420
  8866048
370
    -3
100
AcDb2dPolyline
 66
     1
 10
0.0
 20
0.0
 30
0.0
  0
VERTEX
  5
18D
330
18C
100
AcDbEntity
  8
Graypants_Drum36
 62
    36
420
  8866048
370
    -3
100
AcDbVertex
100
AcDb2dVertex
 10
-2.381249999999909
 20
-1507.853179459076
 30
0.0
  0
VERTEX
  5
18E
330
18C
100
AcDbEntity
  8
Graypants_Drum36
 62
    36
420
  8866048
370
    -3
100
AcDbVertex
100
AcDb2dVertex
 10
-2.348064729242798
 20
-1507.518386057838
 30
0.0
  0
VERTEX
  5
18F
330
18C
100
AcDbEntity
  8
Graypants_Drum36
 62
    36
420
  8866048
370
    -3
100
AcDbVertex
100
AcDb2dVertex
 10
-2.335717027013063
 20
-1507.420678032719
 30
0.0
  0
VERTEX
  5
190
330
18C
100
AcDbEntity
  8
Graypants_Drum36
 62
    36
420
  8866048
370
    -3
100
AcDbVertex
100
AcDb2dVertex
 10
-2.326417020982214
 20
-1507.363706488639
 30
0.0
  0
VERTEX
  5
191
330
18C
100
AcDbEntity
  8
Graypants_Drum36
 62
    36
420
  8866048
370
    -3
100
AcDbVertex
100
AcDb2dVertex
 10
-2.315278165635697
 20
-1507.307124747362
 30
0.0
  0
VERTEX
  5
192
330
18C
100
AcDbEntity
  8
Graypants_Drum36
 62
    36
420
  8866048
370
    -3
100
AcDbVertex
100
AcDb2dVertex
 10
-2.302375982294532
 20
-1507.250947697699
 30
0.0
  0
VERTEX
  5
193
330
18C
100
AcDbEntity
  8
Graypants_Drum36
 62
    36
420
  8866048
370
    -3
100
AcDbVertex
100
AcDb2dVertex
 10
-2.287785992279739
 20
-1507.195190228459
 30
0.0
  0
VERTEX
  5
194
330
18C
100
AcDbEntity
  8
Graypants_Drum36
 62
    36
420
  8866048
370
    -3
100
AcDbVertex
100
AcDb2dVertex
 10
-2.271583716912339
 20
-1507.139867228451
 30
0.0
  0
VERTEX
  5
195
330
18C
100
AcDbEntity
  8
Graypants_Drum36
 62
    36
420
  8866048
370
    -3
100
AcDbVertex
100
AcDb2dVertex
 10
-2.253844677513354
 20
-1507.084993586486
 30
0.0
  0
VERTEX
  5
196
330
18C
100
AcDbEntity
  8
Graypants_Drum36
 62
    36
420
  8866048
370
    -3
100
AcDbVertex
100
AcDb2dVertex
 10
-2.234644395403804
 20
-1507.030584191374
 30
0.0
  0
VERTEX
  5
197
330
18C
100
AcDbEntity
  8
Graypants_Drum36
 62
    36
420
  8866048
370
    -3
100
AcDbVertex
100
AcDb2dVertex
 10
-2.214058391904711
 20
-1506.976653931923
 30
0.0
  0
VERTEX
  5
198
330
18C
100
AcDbEntity
  8
Graypants_Drum36
 62
    36
420
  8866048
370
    -3
100
AcDbVertex
100
AcDb2dVertex
 10
-2.190898563113418
 20
-1506.92027255084
 30
0.0
  0
VERTEX
  5
199
330
18C
100
AcDbEntity
  8
Graypants_Drum36
 62
    36
420
  8866048
370
    -3
100
AcDbVertex
100
AcDb2dVertex
 10
-2.166332010776113
 20
-1506.8645653709
 30
0.0
  0
VERTEX
  5
19A
330
18C
100
AcDbEntity
  8
Graypants_Drum36
 62
    36
420
  8866048
370
    -3
100
AcDbVertex
100
AcDb2dVertex
 10
-2.140374991530256
 20
-1506.809557259004
 30
0.0
  0
VERTEX
  5
19B
330
18C
100
AcDbEntity
  8
Graypants_Drum36
 62
    36
420
  8866048
370
    -3
100
AcDbVertex
100
AcDb2dVertex
 10
-2.113043762013306
 20
-1506.755273082054
 30
0.0
  0
VERTEX
  5
19C
330
18C
100
AcDbEntity
  8
Graypants_Drum36
 62
    36
420
  8866048
370
    -3
100
AcDbVertex
100
AcDb2dVertex
 10
-2.084354578862724
 20
-1506.70173770695
 30
0.0
  0
VERTEX
  5
19D
330
18C
100
AcDbEntity
  8
Graypants_Drum36
 62
    36
420
  8866048
370
    -3
100
AcDbVertex
100
AcDb2dVertex
 10
-2.05432369871597
 20
-1506.648976000593
 30
0.0
  0
VERTEX
  5
19E
330
18C
100
AcDbEntity
  8
Graypants_Drum36
 62
    36
420
  8866048
370
    -3
100
AcDbVertex
100
AcDb2dVertex
 10
-2.022967378210503
 20
-1506.597012829885
 30
0.0
  0
VERTEX
  5
19F
330
18C
100
AcDbEntity
  8
Graypants_Drum36
 62
    36
420
  8866048
370
    -3
100
AcDbVertex
100
AcDb2dVertex
 10
-1.990301873983783
 20
-1506.545873061726
 30
0.0
  0
VERTEX
  5
1A0
330
18C
100
AcDbEntity
  8
Graypants_Drum36
 62
    36
420
  8866048
370
    -3
100
AcDbVertex
100
AcDb2dVertex
 10
-1.95634344267327
 20
-1506.495581563017
 30
0.0
  0
VERTEX
  5
1A1
330
18C
100
AcDbEntity
  8
Graypants_Drum36
 62
    36
420
  8866048
370
    -3
100
AcDbVertex
100
AcDb2dVertex
 10
-1.921108340916424
 20
-1506.44616320066
 30
0.0
  0
VERTEX
  5
1A2
330
18C
100
AcDbEntity
  8
Graypants_Drum36
 62
    36
420
  8866048
370
    -3
100
AcDbVertex
100
AcDb2dVertex
 10
-1.884612825350705
 20
-1506.397642841556
 30
0.0
  0
VERTEX
  5
1A3
330
18C
100
AcDbEntity
  8
Graypants_Drum36
 62
    36
420
  8866048
370
    -3
100
AcDbVertex
100
AcDb2dVertex
 10
-1.846873152613572
 20
-1506.350045352605
 30
0.0
  0
VERTEX
  5
1A4
330
18C
100
AcDbEntity
  8
Graypants_Drum36
 62
    36
420
  8866048
370
    -3
100
AcDbVertex
100
AcDb2dVertex
 10
-1.807905579342485
 20
-1506.303395600709
 30
0.0
  0
VERTEX
  5
1A5
330
18C
100
AcDbEntity
  8
Graypants_Drum36
 62
    36
420
  8866048
370
    -3
100
AcDbVertex
100
AcDb2dVertex
 10
-1.767726362174905
 20
-1506.257718452768
 30
0.0
  0
VERTEX
  5
1A6
330
18C
100
AcDbEntity
  8
Graypants_Drum36
 62
    36
420
  8866048
370
    -3
100
AcDbVertex
100
AcDb2dVertex
 10
-1.726351757748291
 20
-1506.213038775684
 30
0.0
  0
VERTEX
  5
1A7
330
18C
100
AcDbEntity
  8
Graypants_Drum36
 62
    36
420
  8866048
370
    -3
100
AcDbVertex
100
AcDb2dVertex
 10
-1.683798022700103
 20
-1506.169381436358
 30
0.0
  0
VERTEX
  5
1A8
330
18C
100
AcDbEntity
  8
Graypants_Drum36
 62
    36
420
  8866048
370
    -3
100
AcDbVertex
100
AcDb2dVertex
 10
-1.63965042489435
 20
-1506.126362141956
 30
0.0
  0
VERTEX
  5
1A9
330
18C
100
AcDbEntity
  8
Graypants_Drum36
 62
    36
420
  8866048
370
    -3
100
AcDbVertex
100
AcDb2dVertex
 10
-1.594419442739784
 20
-1506.084513802945
 30
0.0
  0
VERTEX
  5
1AA
330
18C
100
AcDbEntity
  8
Graypants_Drum36
 62
    36
420
  8866048
370
    -3
100
AcDbVertex
100
AcDb2dVertex
 10
-1.548152110166621
 20
-1506.043876663424
 30
0.0
  0
VERTEX
  5
1AB
330
18C
100
AcDbEntity
  8
Graypants_Drum36
 62
    36
420
  8866048
370
    -3
100
AcDbVertex
100
AcDb2dVertex
 10
-1.500897413487785
 20
-1506.004488431144
 30
0.0
  0
VERTEX
  5
1AC
330
18C
100
AcDbEntity
  8
Graypants_Drum36
 62
    36
420
  8866048
370
    -3
100
AcDbVertex
100
AcDb2dVertex
 10
-1.452706119784904
 20
-1505.966384162253
 30
0.0
  0
VERTEX
  5
1AD
330
18C
100
AcDbEntity
  8
Graypants_Drum36
 62
    36
420
  8866048
370
    -3
100
AcDbVertex
100
AcDb2dVertex
 10
-1.403630597425792
 20
-1505.929596159983
 30
0.0
  0
VERTEX
  5
1AE
330
18C
100
AcDbEntity
  8
Graypants_Drum36
 62
    36
420
  8866048
370
    -3
100
AcDbVertex
100
AcDb2dVertex
 10
-1.353724630030271
 20
-1505.894153887873
 30
0.0
  0
VERTEX
  5
1AF
330
18C
100
AcDbEntity
  8
Graypants_Drum36
 62
    36
420
  8866048
370
    -3
100
AcDbVertex
100
AcDb2dVertex
 10
-1.303043225248003
 20
-1505.860083897966
 30
0.0
  0
VERTEX
  5
1B0
330
18C
100
AcDbEntity
  8
Graypants_Drum36
 62
    36
420
  8866048
370
    -3
100
AcDbVertex
100
AcDb2dVertex
 10
-1.251642419742023
 20
-1505.827409774317
 30
0.0
  0
VERTEX
  5
1B1
330
18C
100
AcDbEntity
  8
Graypants_Drum36
 62
    36
420
  8866048
370
    -3
100
AcDbVertex
100
AcDb2dVertex
 10
-1.199579081784627
 20
-1505.796152091943
 30
0.0
  0
VERTEX
  5
1B2
330
18C
100
AcDbEntity
  8
Graypants_Drum36
 62
    36
420
  8866048
370
    -3
100
AcDbVertex
100
AcDb2dVertex
 10
-1.146910712868327
 20
-1505.766328391247
 30
0.0
  0
VERTEX
  5
1B3
330
18C
100
AcDbEntity
  8
Graypants_Drum36
 62
    36
420
  8866048
370
    -3
100
AcDbVertex
100
AcDb2dVertex
 10
-1.093695249714277
 20
-1505.73795316779
 30
0.0
  0
VERTEX
  5
1B4
330
18C
100
AcDbEntity
  8
Graypants_Drum36
 62
    36
420
  8866048
370
    -3
100
AcDbVertex
100
AcDb2dVertex
 10
-1.039990868024477
 20
-1505.711037877149
 30
0.0
  0
VERTEX
  5
1B5
330
18C
100
AcDbEntity
  8
Graypants_Drum36
 62
    36
420
  8866048
370
    -3
100
AcDbVertex
100
AcDb2dVertex
 10
-0.9858557892732946
 20
-1505.685590954457
 30
0.0
  0
VERTEX
  5
1B6
330
18C
100
AcDbEntity
  8
Graypants_Drum36
 62
    36
420
  8866048
370
    -3
100
AcDbVertex
100
AcDb2dVertex
 10
-0.931348091769541
 20
-1505.661617848133
 30
0.0
  0
VERTEX
  5
1B7
330
18C
100
AcDbEntity
  8
Graypants_Drum36
 62
    36
420
  8866048
370
    -3
100
AcDbVertex
100
AcDb2dVertex
 10
-0.8765255271439262
 20
-1505.639121067147
 30
0.0
  0
VERTEX
  5
1B8
330
18C
100
AcDbEntity
  8
Graypants_Drum36
 62
    36
420
  8866048
370
    -3
100
AcDbVertex
100
AcDb2dVertex
 10
-0.8214453433297991
 20
-1505.618100241123
 30
0.0
  0
VERTEX
  5
1B9
330
18C
100
AcDbEntity
  8
Graypants_Drum36
 62
    36
420
  8866048
370
    -3
100
AcDbVertex
100
AcDb2dVertex
 10
-0.7661641150092495
 20
-1505.598552192435
 30
0.0
  0
VERTEX
  5
1BA
330
18C
100
AcDbEntity
  8
Graypants_Drum36
 62
    36
420
  8866048
370
    -3
100
AcDbVertex
100
AcDb2dVertex
 10
-0.7107375823937533
 20
-1505.580471019442
 30
0.0
  0
VERTEX
  5
1BB
330
18C
100
AcDbEntity
  8
Graypants_Drum36
 62
    36
420
  8866048
370
    -3
100
AcDbVertex
100
AcDb2dVertex
 10
-0.6552204991002999
 20
-1505.563848189869
 30
0.0
  0
VERTEX
  5
1BC
330
18C
100
AcDbEntity
  8
Graypants_Drum36
 62
    36
420
  8866048
370
    -3
100
AcDbVertex
100
AcDb2dVertex
 10
-0.5996664897721905
 20
-1505.548672643365
 30
0.0
  0
VERTEX
  5
1BD
330
18C
100
AcDbEntity
  8
Graypants_Drum36
 62
    36
420
  8866048
370
    -3
100
AcDbVertex
100
AcDb2dVertex
 10
-0.544127917980134
 20
-1505.534930902194
 30
0.0
  0
VERTEX
  5
1BE
330
18C
100
AcDbEntity
  8
Graypants_Drum36
 62
    36
420
  8866048
370
    -3
100
AcDbVertex
100
AcDb2dVertex
 10
-0.4886557648256054
 20
-1505.522607188985
 30
0.0
  0
VERTEX
  5
1BF
330
18C
100
AcDbEntity
  8
Graypants_Drum36
 62
    36
420
  8866048
370
    -3
100
AcDbVertex
100
AcDb2dVertex
 10
-0.4332995185562201
 20
-1505.511683550509
 30
0.0
  0
VERTEX
  5
1C0
330
18C
100
AcDbEntity
  8
Graypants_Drum36
 62
    36
420
  8866048
370
    -3
100
AcDbVertex
100
AcDb2dVertex
 10
-0.378107075393559
 20
-1505.502139986384
 30
0.0
  0
VERTEX
  5
1C1
330
18C
100
AcDbEntity
  8
Graypants_Drum36
 62
    36
420
  8866048
370
    -3
100
AcDbVertex
100
AcDb2dVertex
 10
-0.3231246516687592
 20
-1505.493954581684
 30
0.0
  0
VERTEX
  5
1C2
330
18C
100
AcDbEntity
  8
Graypants_Drum36
 62
    36
420
  8866048
370
    -3
100
AcDbVertex
100
AcDb2dVertex
 10
-0.2683967072614006
 20
-1505.487103642423
 30
0.0
  0
VERTEX
  5
1C3
330
18C
100
AcDbEntity
  8
Graypants_Drum36
 62
    36
420
  8866048
370
    -3
100
AcDbVertex
100
AcDb2dVertex
 10
-0.2139658802437262
 20
-1505.481561832916
 30
0.0
  0
VERTEX
  5
1C4
330
18C
100
AcDbEntity
  8
Graypants_Drum36
 62
    36
420
  8866048
370
    -3
100
AcDbVertex
100
AcDb2dVertex
 10
-0.1598729325458365
 20
-1505.477302314092
 30
0.0
  0
VERTEX
  5
1C5
330
18C
100
AcDbEntity
  8
Graypants_Drum36
 62
    36
420
  8866048
370
    -3
100
AcDbVertex
100
AcDb2dVertex
 10
-0.106156706378807
 20
-1505.474296881833
 30
0.0
  0
VERTEX
  5
1C6
330
18C
100
AcDbEntity
  8
Graypants_Drum36
 62
    36
420
  8866048
370
    -3
100
AcDbVertex
100
AcDb2dVertex
 10
-0.0528540910821342
 20
-1505.472516104531
 30
0.0
  0
VERTEX
  5
1C7
330
18C
100
AcDbEntity
  8
Graypants_Drum36
 62
    36
420
  8866048
370
    -3
100
AcDbVertex
100
AcDb2dVertex
 10
0.0000000000001941
 20
-1505.471929459051
 30
0.0
  0
VERTEX
  5
1C8
330
18C
100
AcDbEntity
  8
Graypants_Drum36
 62
    36
420
  8866048
370
    -3
100
AcDbVertex
100
AcDb2dVertex
 10
0.052854091082527
 20
-1505.472516104531
 30
0.0
  0
VERTEX
  5
1C9
330
18C
100
AcDbEntity
  8
Graypants_Drum36
 62
    36
420
  8866048
370
    -3
100
AcDbVertex
100
AcDb2dVertex
 10
0.1061567063792066
 20
-1505.474296881833
 30
0.0
  0
VERTEX
  5
1CA
330
18C
100
AcDbEntity
  8
Graypants_Drum36
 62
    36
420
  8866048
370
    -3
100
AcDbVertex
100
AcDb2dVertex
 10
0.1598729325462448
 20
-1505.477302314092
 30
0.0
  0
VERTEX
  5
1CB
330
18C
100
AcDbEntity
  8
Graypants_Drum36
 62
    36
420
  8866048
370
    -3
100
AcDbVertex
100
AcDb2dVertex
 10
0.213965880244145
 20
-1505.481561832916
 30
0.0
  0
VERTEX
  5
1CC
330
18C
100
AcDbEntity
  8
Graypants_Drum36
 62
    36
420
  8866048
370
    -3
100
AcDbVertex
100
AcDb2dVertex
 10
0.2683967072618318
 20
-1505.487103642423
 30
0.0
  0
VERTEX
  5
1CD
330
18C
100
AcDbEntity
  8
Graypants_Drum36
 62
    36
420
  8866048
370
    -3
100
AcDbVertex
100
AcDb2dVertex
 10
0.323124651669204
 20
-1505.493954581684
 30
0.0
  0
VERTEX
  5
1CE
330
18C
100
AcDbEntity
  8
Graypants_Drum36
 62
    36
420
  8866048
370
    -3
100
AcDbVertex
100
AcDb2dVertex
 10
0.378107075394019
 20
-1505.502139986384
 30
0.0
  0
VERTEX
  5
1CF
330
18C
100
AcDbEntity
  8
Graypants_Drum36
 62
    36
420
  8866048
370
    -3
100
AcDbVertex
100
AcDb2dVertex
 10
0.4332995185566964
 20
-1505.511683550509
 30
0.0
  0
VERTEX
  5
1D0
330
18C
100
AcDbEntity
  8
Graypants_Drum36
 62
    36
420
  8866048
370
    -3
100
AcDbVertex
100
AcDb2dVertex
 10
0.4886557648260991
 20
-1505.522607188985
 30
0.0
  0
VERTEX
  5
1D1
330
18C
100
AcDbEntity
  8
Graypants_Drum36
 62
    36
420
  8866048
370
    -3
100
AcDbVertex
100
AcDb2dVertex
 10
0.5441279179806459
 20
-1505.534930902194
 30
0.0
  0
VERTEX
  5
1D2
330
18C
100
AcDbEntity
  8
Graypants_Drum36
 62
    36
420
  8866048
370
    -3
100
AcDbVertex
100
AcDb2dVertex
 10
0.5996664897727213
 20
-1505.548672643365
 30
0.0
  0
VERTEX
  5
1D3
330
18C
100
AcDbEntity
  8
Graypants_Drum36
 62
    36
420
  8866048
370
    -3
100
AcDbVertex
100
AcDb2dVertex
 10
0.6552204991008497
 20
-1505.563848189869
 30
0.0
  0
VERTEX
  5
1D4
330
18C
100
AcDbEntity
  8
Graypants_Drum36
 62
    36
420
  8866048
370
    -3
100
AcDbVertex
100
AcDb2dVertex
 10
0.7107375823943225
 20
-1505.580471019442
 30
0.0
  0
VERTEX
  5
1D5
330
18C
100
AcDbEntity
  8
Graypants_Drum36
 62
    36
420
  8866048
370
    -3
100
AcDbVertex
100
AcDb2dVertex
 10
0.7661641150098382
 20
-1505.598552192435
 30
0.0
  0
VERTEX
  5
1D6
330
18C
100
AcDbEntity
  8
Graypants_Drum36
 62
    36
420
  8866048
370
    -3
100
AcDbVertex
100
AcDb2dVertex
 10
0.821445343330407
 20
-1505.618100241123
 30
0.0
  0
VERTEX
  5
1D7
330
18C
100
AcDbEntity
  8
Graypants_Drum36
 62
    36
420
  8866048
370
    -3
100
AcDbVertex
100
AcDb2dVertex
 10
0.876525527144553
 20
-1505.639121067147
 30
0.0
  0
VERTEX
  5
1D8
330
18C
100
AcDbEntity
  8
Graypants_Drum36
 62
    36
420
  8866048
370
    -3
100
AcDbVertex
100
AcDb2dVertex
 10
0.9313480917701861
 20
-1505.661617848133
 30
0.0
  0
VERTEX
  5
1D9
330
18C
100
AcDbEntity
  8
Graypants_Drum36
 62
    36
420
  8866048
370
    -3
100
AcDbVertex
100
AcDb2dVertex
 10
0.985855789273957
 20
-1505.685590954457
 30
0.0
  0
VERTEX
  5
1DA
330
18C
100
AcDbEntity
  8
Graypants_Drum36
 62
    36
420
  8866048
370
    -3
100
AcDbVertex
100
AcDb2dVertex
 10
1.039990868025155
 20
-1505.711037877149
 30
0.0
  0
VERTEX
  5
1DB
330
18C
100
AcDbEntity
  8
Graypants_Drum36
 62
    36
420
  8866048
370
    -3
100
AcDbVertex
100
AcDb2dVertex
 10
1.09369524971497
 20
-1505.73795316779
 30
0.0
  0
VERTEX
  5
1DC
330
18C
100
AcDbEntity
  8
Graypants_Drum36
 62
    36
420
  8866048
370
    -3
100
AcDbVertex
100
AcDb2dVertex
 10
1.146910712869034
 20
-1505.766328391247
 30
0.0
  0
VERTEX
  5
1DD
330
18C
100
AcDbEntity
  8
Graypants_Drum36
 62
    36
420
  8866048
370
    -3
100
AcDbVertex
100
AcDb2dVertex
 10
1.199579081785346
 20
-1505.796152091943
 30
0.0
  0
VERTEX
  5
1DE
330
18C
100
AcDbEntity
  8
Graypants_Drum36
 62
    36
420
  8866048
370
    -3
100
AcDbVertex
100
AcDb2dVertex
 10
1.251642419742751
 20
-1505.827409774317
 30
0.0
  0
VERTEX
  5
1DF
330
18C
100
AcDbEntity
  8
Graypants_Drum36
 62
    36
420
  8866048
370
    -3
100
AcDbVertex
100
AcDb2dVertex
 10
1.303043225248737
 20
-1505.860083897966
 30
0.0
  0
VERTEX
  5
1E0
330
18C
100
AcDbEntity
  8
Graypants_Drum36
 62
    36
420
  8866048
370
    -3
100
AcDbVertex
100
AcDb2dVertex
 10
1.353724630031011
 20
-1505.894153887873
 30
0.0
  0
VERTEX
  5
1E1
330
18C
100
AcDbEntity
  8
Graypants_Drum36
 62
    36
420
  8866048
370
    -3
100
AcDbVertex
100
AcDb2dVertex
 10
1.403630597426533
 20
-1505.929596159984
 30
0.0
  0
VERTEX
  5
1E2
330
18C
100
AcDbEntity
  8
Graypants_Drum36
 62
    36
420
  8866048
370
    -3
100
AcDbVertex
100
AcDb2dVertex
 10
1.452706119785644
 20
-1505.966384162253
 30
0.0
  0
VERTEX
  5
1E3
330
18C
100
AcDbEntity
  8
Graypants_Drum36
 62
    36
420
  8866048
370
    -3
100
AcDbVertex
100
AcDb2dVertex
 10
1.50089741348852
 20
-1506.004488431144
 30
0.0
  0
VERTEX
  5
1E4
330
18C
100
AcDbEntity
  8
Graypants_Drum36
 62
    36
420
  8866048
370
    -3
100
AcDbVertex
100
AcDb2dVertex
 10
1.548152110167349
 20
-1506.043876663424
 30
0.0
  0
VERTEX
  5
1E5
330
18C
100
AcDbEntity
  8
Graypants_Drum36
 62
    36
420
  8866048
370
    -3
100
AcDbVertex
100
AcDb2dVertex
 10
1.5944194427405
 20
-1506.084513802945
 30
0.0
  0
VERTEX
  5
1E6
330
18C
100
AcDbEntity
  8
Graypants_Drum36
 62
    36
420
  8866048
370
    -3
100
AcDbVertex
100
AcDb2dVertex
 10
1.639650424895051
 20
-1506.126362141956
 30
0.0
  0
VERTEX
  5
1E7
330
18C
100
AcDbEntity
  8
Graypants_Drum36
 62
    36
420
  8866048
370
    -3
100
AcDbVertex
100
AcDb2dVertex
 10
1.683798022700785
 20
-1506.169381436358
 30
0.0
  0
VERTEX
  5
1E8
330
18C
100
AcDbEntity
  8
Graypants_Drum36
 62
    36
420
  8866048
370
    -3
100
AcDbVertex
100
AcDb2dVertex
 10
1.716646353245168
 20
-1506.20288341016
 30
0.0
  0
VERTEX
  5
1E9
330
18C
100
AcDbEntity
  8
Graypants_Drum36
 62
    36
420
  8866048
370
    -3
100
AcDbVertex
100
AcDb2dVertex
 10
1.748798735900049
 20
-1506.23699410729
 30
0.0
  0
VERTEX
  5
1EA
330
18C
100
AcDbEntity
  8
Graypants_Drum36
 62
    36
420
  8866048
370
    -3
100
AcDbVertex
100
AcDb2dVertex
 10
1.780247763933998
 20
-1506.27170219807
 30
0.0
  0
VERTEX
  5
1EB
330
18C
100
AcDbEntity
  8
Graypants_Drum36
 62
    36
420
  8866048
370
    -3
100
AcDbVertex
100
AcDb2dVertex
 10
1.810986030615588
 20
-1506.306996352823
 30
0.0
  0
VERTEX
  5
1EC
330
18C
100
AcDbEntity
  8
Graypants_Drum36
 62
    36
420
  8866048
370
    -3
100
AcDbVertex
100
AcDb2dVertex
 10
1.84100612921339
 20
-1506.342865241872
 30
0.0
  0
VERTEX
  5
1ED
330
18C
100
AcDbEntity
  8
Graypants_Drum36
 62
    36
420
  8866048
370
    -3
100
AcDbVertex
100
AcDb2dVertex
 10
1.870300652995974
 20
-1506.37929753554
 30
0.0
  0
VERTEX
  5
1EE
330
18C
100
AcDbEntity
  8
Graypants_Drum36
 62
    36
420
  8866048
370
    -3
100
AcDbVertex
100
AcDb2dVertex
 10
1.898862195231911
 20
-1506.416281904148
 30
0.0
  0
VERTEX
  5
1EF
330
18C
100
AcDbEntity
  8
Graypants_Drum36
 62
    36
420
  8866048
370
    -3
100
AcDbVertex
100
AcDb2dVertex
 10
1.926683349189773
 20
-1506.45380701802
 30
0.0
  0
VERTEX
  5
1F0
330
18C
100
AcDbEntity
  8
Graypants_Drum36
 62
    36
420
  8866048
370
    -3
100
AcDbVertex
100
AcDb2dVertex
 10
1.953756708138132
 20
-1506.491861547478
 30
0.0
  0
VERTEX
  5
1F1
330
18C
100
AcDbEntity
  8
Graypants_Drum36
 62
    36
420
  8866048
370
    -3
100
AcDbVertex
100
AcDb2dVertex
 10
1.980074865345557
 20
-1506.530434162845
 30
0.0
  0
VERTEX
  5
1F2
330
18C
100
AcDbEntity
  8
Graypants_Drum36
 62
    36
420
  8866048
370
    -3
100
AcDbVertex
100
AcDb2dVertex
 10
2.00563041408062
 20
-1506.569513534444
 30
0.0
  0
VERTEX
  5
1F3
330
18C
100
AcDbEntity
  8
Graypants_Drum36
 62
    36
420
  8866048
370
    -3
100
AcDbVertex
100
AcDb2dVertex
 10
2.030415947611893
 20
-1506.609088332596
 30
0.0
  0
VERTEX
  5
1F4
330
18C
100
AcDbEntity
  8
Graypants_Drum36
 62
    36
420
  8866048
370
    -3
100
AcDbVertex
100
AcDb2dVertex
 10
2.054424059207947
 20
-1506.649147227626
 30
0.0
  0
VERTEX
  5
1F5
330
18C
100
AcDbEntity
  8
Graypants_Drum36
 62
    36
420
  8866048
370
    -3
100
AcDbVertex
100
AcDb2dVertex
 10
2.077647342137352
 20
-1506.689678889855
 30
0.0
  0
VERTEX
  5
1F6
330
18C
100
AcDbEntity
  8
Graypants_Drum36
 62
    36
420
  8866048
370
    -3
100
AcDbVertex
100
AcDb2dVertex
 10
2.100078389668679
 20
-1506.730671989606
 30
0.0
  0
VERTEX
  5
1F7
330
18C
100
AcDbEntity
  8
Graypants_Drum36
 62
    36
420
  8866048
370
    -3
100
AcDbVertex
100
AcDb2dVertex
 10
2.121709795070502
 20
-1506.772115197202
 30
0.0
  0
SEQEND
  5
1F8
330
18C
100
AcDbEntity
  8
Graypants_Drum36
 62
    36
420
  8866048
370
    -3
  0
LINE
  5
1F9
330
1F
100
AcDbEntity
  8
Graypants_Drum36
 62
    36
420
  8866048
370
    -3
100
AcDbLine
 10
2.381250000000364
 20
-1507.853179459076
 30
0.0
 11
2.381250000000137
 21
-1525.06966907627
 31
0.0
  0
LINE
  5
1FA
330
1F
100
AcDbEntity
  8
Graypants_Drum36
 62
    36
420
  8866048
370
    -3
100
AcDbLine
 10
-6.349999999999909
 20
-1521.015224556444
 30
0.0
 11
-2.381249999999566
 21
-1521.015224556444
 31
0.0
  0
LINE
  5
1FB
330
1F
100
AcDbEntity
  8
Graypants_Drum36
 62
    36
420
  8866048
370
    -3
100
AcDbLine
 10
2.381249999999816
 20
-1521.015224556444
 30
0.0
 11
6.350000000000364
 21
-1521.015224556444
 31
0.0
  0
LINE
  5
1FC
330
1F
100
AcDbEntity
  8
Graypants_Drum36
 62
    36
420
  8866048
370
    -3
100
AcDbLine
 10
0.0002500000000509
 20
-808.5245587749973
 30
0.0
 11
0.0001201211193802
 21
-1493.144219123184
 31
0.0
  0
ARC
  5
1FD
330
1F
100
AcDbEntity
  8
Graypants_Drum36
 62
    36
420
  8866048
370
    -3
100
AcDbCircle
 10
-0.0070786397452377
 20
-1507.854481198284
 30
0.0
 40
2.388169058074752
100
AcDbArc
 50
0.0312343178741734
 51
26.96194789750277
  0
ARC
  5
1FE
330
1F
100
AcDbEntity
  8
Graypants_Drum36
 62
    36
420
  8866048
370
    -3
100
AcDbCircle
 10
-13.49375008006406
 20
-1499.490504573984
 30
0.0
 40
13.49386831911617
210
0.0
220
0.0
230
-1.0
100
AcDbArc
 50
328.2116705766234
 51
0.0000011936449269
  0
LINE
  5
1FF
330
1F
100
AcDbEntity
  8
Graypants_Drum36
 62
    36
420
  8866048
370
    -3
100
AcDbLine
 10
-461.3734783155581
 20
-1865.871024442971
 30
0.0
 11
461.3734783155592
 21
-1865.871024442971
 31
0.0
  0
LINE
  5
200
330
1F
100
AcDbEntity
  8
Graypants_Drum36
 62
    36
420
  8866048
370
    -3
100
AcDbLine
 10
-2.381250000000677
 20
-1493.144219123184
 30
0.0
 11
-0.7937500000007276
 21
-1493.144219123184
 31
0.0
  0
LINE
  5
201
330
1F
100
AcDbEntity
  8
Graypants_Drum36
 62
    36
420
  8866048
370
    -3
100
AcDbLine
 10
-2.381250000000677
 20
-1499.494219123184
 30
0.0
 11
-0.7937500000007276
 21
-1499.494219123184
 31
0.0
  0
LINE
  5
202
330
1F
100
AcDbEntity
  8
Graypants_Drum36
 62
    36
420
  8866048
370
    -3
100
AcDbLine
 10
0.7937495763612787
 20
-1493.144219123184
 30
0.0
 11
2.381249999999872
 21
-1493.144219123184
 31
0.0
  0
LINE
  5
203
330
1F
100
AcDbEntity
  8
Graypants_Drum36
 62
    36
420
  8866048
370
    -3
100
AcDbLine
 10
0.7937495763612787
 20
-1499.494219123184
 30
0.0
 11
2.381249999999872
 21
-1499.494219123184
 31
0.0
  0
LINE
  5
204
330
1F
100
AcDbEntity
  8
Graypants_Drum36
 62
    36
420
  8866048
370
    -3
100
AcDbLine
 10
-0.7937500000007276
 20
-1493.144219123184
 30
0.0
 11
0.7937495763612787
 21
-1493.144219123184
 31
0.0
  0
LINE
  5
205
330
1F
100
AcDbEntity
  8
Graypants_Drum36
 62
    36
420
  8866048
370
    -3
100
AcDbLine
 10
-0.7937500000007276
 20
-1499.494219123184
 30
0.0
 11
0.7937495763612787
 21
-1499.494219123184
 31
0.0
  0
ARC
  5
206
330
1F
100
AcDbEntity
  8
Graypants_Drum36
 62
    36
420
  8866048
370
    -3
100
AcDbCircle
 10
0.6561745446821301
 20
-1507.956939062165
 30
0.0
 40
3.039196262151263
210
0.0
220
0.0
230
-1.0
100
AcDbArc
 50
164.1122248164597
 51
178.0435146929233
  0
ARC
  5
207
330
1F
100
AcDbEntity
  8
Graypants_Drum36
 62
    36
420
  8866048
370
    -3
100
AcDbCircle
 10
-288.9895886660792
 20
-1902.350031109367
 30
0.0
 40
91.22411363901551
210
0.0
220
0.0
230
-1.0
100
AcDbArc
 50
156.4291119574942
 51
158.0044231782092
  0
ARC
  5
208
330
1F
100
AcDbEntity
  8
Graypants_Drum36
 62
    36
420
  8866048
370
    -3
100
AcDbCircle
 10
-288.9900189226773
 20
-1902.349854427245
 30
0.0
 40
91.22365165101156
100
AcDbArc
 50
156.4274092558074
 51
158.0044256516411
  0
ARC
  5
209
330
1F
100
AcDbEntity
  8
Graypants_Drum36
 62
    36
420
  8866048
370
    -3
100
AcDbCircle
 10
-55.56249999999977
 20
-806.937058774997
 30
0.0
 40
1.587500000000318
100
AcDbArc
 50
180.0000000000082
 51
269.9999999999918
  0
ARC
  5
20A
330
1F
100
AcDbEntity
  8
Graypants_Drum36
 62
    36
420
  8866048
370
    -3
100
AcDbCircle
 10
-55.56250000000011
 20
-806.9370587749974
 30
0.0
 40
1.587499999999977
210
0.0
220
0.0
230
-1.0
100
AcDbArc
 50
179.9999999999959
 51
270.0000000000041
  0
LINE
  5
20B
330
1F
100
AcDbEntity
  8
Graypants_Drum36
 62
    36
420
  8866048
370
    -3
100
AcDbLine
 10
-57.15000000000009
 20
-798.9995587749972
 30
0.0
 11
-0.0000000000004547
 21
-798.9995587749972
 31
0.0
  0
LINE
  5
20C
330
1F
100
AcDbEntity
  8
Graypants_Drum36
 62
    36
420
  8866048
370
    -3
100
AcDbLine
 10
57.15000000000009
 20
-798.9995587749972
 30
0.0
 11
57.15000000000009
 21
-806.9370587749972
 31
0.0
  0
LINE
  5
20D
330
1F
100
AcDbEntity
  8
Graypants_Drum36
 62
    36
420
  8866048
370
    -3
100
AcDbLine
 10
-57.15000000000009
 20
-806.9370587749972
 30
0.0
 11
-57.15000000000009
 21
-798.9995587749972
 31
0.0
  0
LINE
  5
20E
330
1F
100
AcDbEntity
  8
Graypants_Drum36
 62
    36
420
  8866048
370
    -3
100
AcDbLine
 10
-0.0000000000004547
 20
-798.9995587749972
 30
0.0
 11
57.15000000000009
 21
-798.9995587749972
 31
0.0
  0
LINE
  5
20F
330
1F
100
AcDbEntity
  8
Graypants_Drum36
 62
    36
420
  8866048
370
    -3
100
AcDbLine
 10
395.2245690414152
 20
-1869.915224556441
 30
0.0
 11
393.7245690140826
 21
-1869.915224556441
 31
0.0
  0
POLYLINE
  5
210
330
1F
100
AcDbEntity
  8
Graypants_Drum36
 62
    36
420
  8866048
370
    -3
100
AcDb2dPolyline
 66
     1
 10
0.0
 20
0.0
 30
0.0
  0
VERTEX
  5
211
330
210
100
AcDbEntity
  8
Graypants_Drum36
 62
    36
420
  8866048
370
    -3
100
AcDbVertex
100
AcDb2dVertex
 10
373.5737518614392
 20
-1868.183406374625
 30
0.0
  0
VERTEX
  5
212
330
210
100
AcDbEntity
  8
Graypants_Drum36
 62
    36
420
  8866048
370
    -3
100
AcDbVertex
100
AcDb2dVertex
 10
373.612140725799
 20
-1868.274398418861
 30
0.0
  0
VERTEX
  5
213
330
210
100
AcDbEntity
  8
Graypants_Drum36
 62
    36
420
  8866048
370
    -3
100
AcDbVertex
100
AcDb2dVertex
 10
373.6535599059895
 20
-1868.364667912472
 30
0.0
  0
VERTEX
  5
214
330
210
100
AcDbEntity
  8
Graypants_Drum36
 62
    36
420
  8866048
370
    -3
100
AcDbVertex
100
AcDb2dVertex
 10
373.69801415304
 20
-1868.45402494528
 30
0.0
  0
VERTEX
  5
215
330
210
100
AcDbEntity
  8
Graypants_Drum36
 62
    36
420
  8866048
370
    -3
100
AcDbVertex
100
AcDb2dVertex
 10
373.7454968535091
 20
-1868.542276339057
 30
0.0
  0
VERTEX
  5
216
330
210
100
AcDbEntity
  8
Graypants_Drum36
 62
    36
420
  8866048
370
    -3
100
AcDbVertex
100
AcDb2dVertex
 10
373.7959895822917
 20
-1868.629226739207
 30
0.0
  0
VERTEX
  5
217
330
210
100
AcDbEntity
  8
Graypants_Drum36
 62
    36
420
  8866048
370
    -3
100
AcDbVertex
100
AcDb2dVertex
 10
373.8494617468187
 20
-1868.714679782091
 30
0.0
  0
VERTEX
  5
218
330
210
100
AcDbEntity
  8
Graypants_Drum36
 62
    36
420
  8866048
370
    -3
100
AcDbVertex
100
AcDb2dVertex
 10
373.9058703326411
 20
-1868.798439326461
 30
0.0
  0
VERTEX
  5
219
330
210
100
AcDbEntity
  8
Graypants_Drum36
 62
    36
420
  8866048
370
    -3
100
AcDbVertex
100
AcDb2dVertex
 10
373.9651597591771
 20
-1868.880310735528
 30
0.0
  0
VERTEX
  5
21A
330
210
100
AcDbEntity
  8
Graypants_Drum36
 62
    36
420
  8866048
370
    -3
100
AcDbVertex
100
AcDb2dVertex
 10
374.0272618528845
 20
-1868.960102194523
 30
0.0
  0
VERTEX
  5
21B
330
210
100
AcDbEntity
  8
Graypants_Drum36
 62
    36
420
  8866048
370
    -3
100
AcDbVertex
100
AcDb2dVertex
 10
374.0593429233716
 20
-1868.999159101065
 30
0.0
  0
VERTEX
  5
21C
330
210
100
AcDbEntity
  8
Graypants_Drum36
 62
    36
420
  8866048
370
    -3
100
AcDbVertex
100
AcDb2dVertex
 10
374.0920959433503
 20
-1869.03762604716
 30
0.0
  0
VERTEX
  5
21D
330
210
100
AcDbEntity
  8
Graypants_Drum36
 62
    36
420
  8866048
370
    -3
100
AcDbVertex
100
AcDb2dVertex
 10
374.1255089128838
 20
-1869.075480445044
 30
0.0
  0
VERTEX
  5
21E
330
210
100
AcDbEntity
  8
Graypants_Drum36
 62
    36
420
  8866048
370
    -3
100
AcDbVertex
100
AcDb2dVertex
 10
374.1595690857809
 20
-1869.112700133262
 30
0.0
  0
VERTEX
  5
21F
330
210
100
AcDbEntity
  8
Graypants_Drum36
 62
    36
420
  8866048
370
    -3
100
AcDbVertex
100
AcDb2dVertex
 10
374.1942629835289
 20
-1869.149263417225
 30
0.0
  0
VERTEX
  5
220
330
210
100
AcDbEntity
  8
Graypants_Drum36
 62
    36
420
  8866048
370
    -3
100
AcDbVertex
100
AcDb2dVertex
 10
374.2295764111909
 20
-1869.185149109054
 30
0.0
  0
VERTEX
  5
221
330
210
100
AcDbEntity
  8
Graypants_Drum36
 62
    36
420
  8866048
370
    -3
100
AcDbVertex
100
AcDb2dVertex
 10
374.2654944752371
 20
-1869.220336566568
 30
0.0
  0
VERTEX
  5
222
330
210
100
AcDbEntity
  8
Graypants_Drum36
 62
    36
420
  8866048
370
    -3
100
AcDbVertex
100
AcDb2dVertex
 10
374.3020016032673
 20
-1869.254805731257
 30
0.0
  0
VERTEX
  5
223
330
210
100
AcDbEntity
  8
Graypants_Drum36
 62
    36
420
  8866048
370
    -3
100
AcDbVertex
100
AcDb2dVertex
 10
374.3390815655771
 20
-1869.288537165113
 30
0.0
  0
VERTEX
  5
224
330
210
100
AcDbEntity
  8
Graypants_Drum36
 62
    36
420
  8866048
370
    -3
100
AcDbVertex
100
AcDb2dVertex
 10
374.3767174985069
 20
-1869.321512086182
 30
0.0
  0
VERTEX
  5
225
330
210
100
AcDbEntity
  8
Graypants_Drum36
 62
    36
420
  8866048
370
    -3
100
AcDbVertex
100
AcDb2dVertex
 10
374.4148919295068
 20
-1869.353712402679
 30
0.0
  0
VERTEX
  5
226
330
210
100
AcDbEntity
  8
Graypants_Drum36
 62
    36
420
  8866048
370
    -3
100
AcDbVertex
100
AcDb2dVertex
 10
374.4535868038408
 20
-1869.385120745574
 30
0.0
  0
VERTEX
  5
227
330
210
100
AcDbEntity
  8
Graypants_Drum36
 62
    36
420
  8866048
370
    -3
100
AcDbVertex
100
AcDb2dVertex
 10
374.4927835128465
 20
-1869.415720499498
 30
0.0
  0
VERTEX
  5
228
330
210
100
AcDbEntity
  8
Graypants_Drum36
 62
    36
420
  8866048
370
    -3
100
AcDbVertex
100
AcDb2dVertex
 10
374.5324629236565
 20
-1869.445495831874
 30
0.0
  0
VERTEX
  5
229
330
210
100
AcDbEntity
  8
Graypants_Drum36
 62
    36
420
  8866048
370
    -3
100
AcDbVertex
100
AcDb2dVertex
 10
374.5726054102841
 20
-1869.474431720149
 30
0.0
  0
VERTEX
  5
22A
330
210
100
AcDbEntity
  8
Graypants_Drum36
 62
    36
420
  8866048
370
    -3
100
AcDbVertex
100
AcDb2dVertex
 10
374.6131908859668
 20
-1869.502513977046
 30
0.0
  0
VERTEX
  5
22B
330
210
100
AcDbEntity
  8
Graypants_Drum36
 62
    36
420
  8866048
370
    -3
100
AcDbVertex
100
AcDb2dVertex
 10
374.6541988366542
 20
-1869.529729273736
 30
0.0
  0
VERTEX
  5
22C
330
210
100
AcDbEntity
  8
Graypants_Drum36
 62
    36
420
  8866048
370
    -3
100
AcDbVertex
100
AcDb2dVertex
 10
374.6956083555266
 20
-1869.556065160853
 30
0.0
  0
VERTEX
  5
22D
330
210
100
AcDbEntity
  8
Graypants_Drum36
 62
    36
420
  8866048
370
    -3
100
AcDbVertex
100
AcDb2dVertex
 10
374.7373981784181
 20
-1869.581510087284
 30
0.0
  0
VERTEX
  5
22E
330
210
100
AcDbEntity
  8
Graypants_Drum36
 62
    36
420
  8866048
370
    -3
100
AcDbVertex
100
AcDb2dVertex
 10
374.7795467200225
 20
-1869.606053416674
 30
0.0
  0
VERTEX
  5
22F
330
210
100
AcDbEntity
  8
Graypants_Drum36
 62
    36
420
  8866048
370
    -3
100
AcDbVertex
100
AcDb2dVertex
 10
374.8220321107509
 20
-1869.629685441603
 30
0.0
  0
VERTEX
  5
230
330
210
100
AcDbEntity
  8
Graypants_Drum36
 62
    36
420
  8866048
370
    -3
100
AcDbVertex
100
AcDb2dVertex
 10
374.8648322341102
 20
-1869.652397395383
 30
0.0
  0
VERTEX
  5
231
330
210
100
AcDbEntity
  8
Graypants_Drum36
 62
    36
420
  8866048
370
    -3
100
AcDbVertex
100
AcDb2dVertex
 10
374.9079247644707
 20
-1869.674181461472
 30
0.0
  0
VERTEX
  5
232
330
210
100
AcDbEntity
  8
Graypants_Drum36
 62
    36
420
  8866048
370
    -3
100
AcDbVertex
100
AcDb2dVertex
 10
374.951287205089
 20
-1869.695030780468
 30
0.0
  0
VERTEX
  5
233
330
210
100
AcDbEntity
  8
Graypants_Drum36
 62
    36
420
  8866048
370
    -3
100
AcDbVertex
100
AcDb2dVertex
 10
374.9948969262514
 20
-1869.714939454698
 30
0.0
  0
VERTEX
  5
234
330
210
100
AcDbEntity
  8
Graypants_Drum36
 62
    36
420
  8866048
370
    -3
100
AcDbVertex
100
AcDb2dVertex
 10
375.0387312034087
 20
-1869.733902550392
 30
0.0
  0
VERTEX
  5
235
330
210
100
AcDbEntity
  8
Graypants_Drum36
 62
    36
420
  8866048
370
    -3
100
AcDbVertex
100
AcDb2dVertex
 10
375.0827672551673
 20
-1869.751916097484
 30
0.0
  0
VERTEX
  5
236
330
210
100
AcDbEntity
  8
Graypants_Drum36
 62
    36
420
  8866048
370
    -3
100
AcDbVertex
100
AcDb2dVertex
 10
375.1269822810118
 20
-1869.768977087037
 30
0.0
  0
VERTEX
  5
237
330
210
100
AcDbEntity
  8
Graypants_Drum36
 62
    36
420
  8866048
370
    -3
100
AcDbVertex
100
AcDb2dVertex
 10
375.1713534986309
 20
-1869.785083466369
 30
0.0
  0
VERTEX
  5
238
330
210
100
AcDbEntity
  8
Graypants_Drum36
 62
    36
420
  8866048
370
    -3
100
AcDbVertex
100
AcDb2dVertex
 10
375.2158581807267
 20
-1869.800234131897
 30
0.0
  0
VERTEX
  5
239
330
210
100
AcDbEntity
  8
Graypants_Drum36
 62
    36
420
  8866048
370
    -3
100
AcDbVertex
100
AcDb2dVertex
 10
375.2604736911888
 20
-1869.814428919779
 30
0.0
  0
VERTEX
  5
23A
330
210
100
AcDbEntity
  8
Graypants_Drum36
 62
    36
420
  8866048
370
    -3
100
AcDbVertex
100
AcDb2dVertex
 10
375.3051775205222
 20
-1869.827668594412
 30
0.0
  0
VERTEX
  5
23B
330
210
100
AcDbEntity
  8
Graypants_Drum36
 62
    36
420
  8866048
370
    -3
100
AcDbVertex
100
AcDb2dVertex
 10
375.3499473204207
 20
-1869.839954834869
 30
0.0
  0
VERTEX
  5
23C
330
210
100
AcDbEntity
  8
Graypants_Drum36
 62
    36
420
  8866048
370
    -3
100
AcDbVertex
100
AcDb2dVertex
 10
375.3947609373864
 20
-1869.851290219347
 30
0.0
  0
VERTEX
  5
23D
330
210
100
AcDbEntity
  8
Graypants_Drum36
 62
    36
420
  8866048
370
    -3
100
AcDbVertex
100
AcDb2dVertex
 10
375.4395964452997
 20
-1869.861678207735
 30
0.0
  0
VERTEX
  5
23E
330
210
100
AcDbEntity
  8
Graypants_Drum36
 62
    36
420
  8866048
370
    -3
100
AcDbVertex
100
AcDb2dVertex
 10
375.4844321768548
 20
-1869.871123122381
 30
0.0
  0
VERTEX
  5
23F
330
210
100
AcDbEntity
  8
Graypants_Drum36
 62
    36
420
  8866048
370
    -3
100
AcDbVertex
100
AcDb2dVertex
 10
375.5292467537762
 20
-1869.87963012718
 30
0.0
  0
VERTEX
  5
240
330
210
100
AcDbEntity
  8
Graypants_Drum36
 62
    36
420
  8866048
370
    -3
100
AcDbVertex
100
AcDb2dVertex
 10
375.5740191157487
 20
-1869.887205205068
 30
0.0
  0
VERTEX
  5
241
330
210
100
AcDbEntity
  8
Graypants_Drum36
 62
    36
420
  8866048
370
    -3
100
AcDbVertex
100
AcDb2dVertex
 10
375.6187285479907
 20
-1869.893855134057
 30
0.0
  0
VERTEX
  5
242
330
210
100
AcDbEntity
  8
Graypants_Drum36
 62
    36
420
  8866048
370
    -3
100
AcDbVertex
100
AcDb2dVertex
 10
375.6633547074168
 20
-1869.899587461912
 30
0.0
  0
VERTEX
  5
243
330
210
100
AcDbEntity
  8
Graypants_Drum36
 62
    36
420
  8866048
370
    -3
100
AcDbVertex
100
AcDb2dVertex
 10
375.7078776473384
 20
-1869.904410479593
 30
0.0
  0
VERTEX
  5
244
330
210
100
AcDbEntity
  8
Graypants_Drum36
 62
    36
420
  8866048
370
    -3
100
AcDbVertex
100
AcDb2dVertex
 10
375.7522778406616
 20
-1869.908333193581
 30
0.0
  0
VERTEX
  5
245
330
210
100
AcDbEntity
  8
Graypants_Drum36
 62
    36
420
  8866048
370
    -3
100
AcDbVertex
100
AcDb2dVertex
 10
375.7965362015468
 20
-1869.911365297206
 30
0.0
  0
VERTEX
  5
246
330
210
100
AcDbEntity
  8
Graypants_Drum36
 62
    36
420
  8866048
370
    -3
100
AcDbVertex
100
AcDb2dVertex
 10
375.8406341055058
 20
-1869.913517141107
 30
0.0
  0
VERTEX
  5
247
330
210
100
AcDbEntity
  8
Graypants_Drum36
 62
    36
420
  8866048
370
    -3
100
AcDbVertex
100
AcDb2dVertex
 10
375.8845534079167
 20
-1869.91479970294
 30
0.0
  0
VERTEX
  5
248
330
210
100
AcDbEntity
  8
Graypants_Drum36
 62
    36
420
  8866048
370
    -3
100
AcDbVertex
100
AcDb2dVertex
 10
375.9282764609447
 20
-1869.915224556443
 30
0.0
  0
SEQEND
  5
249
330
210
100
AcDbEntity
  8
Graypants_Drum36
 62
    36
420
  8866048
370
    -3
  0
LINE
  5
24A
330
1F
100
AcDbEntity
  8
Graypants_Drum36
 62
    36
420
  8866048
370
    -3
100
AcDbLine
 10
395.4566198111311
 20
-1867.915224556441
 30
0.0
 11
395.4566198111311
 21
-1865.871024442972
 31
0.0
  0
LINE
  5
24B
330
1F
100
AcDbEntity
  8
Graypants_Drum36
 62
    36
420
  8866048
370
    -3
100
AcDbLine
 10
396.9566198384637
 20
-1867.915224556441
 30
0.0
 11
396.9566198384637
 21
-1865.868861174178
 31
0.0
  0
POLYLINE
  5
24C
330
1F
100
AcDbEntity
  8
Graypants_Drum36
 62
    36
420
  8866048
370
    -3
100
AcDb2dPolyline
 66
     1
 10
0.0
 20
0.0
 30
0.0
  0
VERTEX
  5
24D
330
24C
100
AcDbEntity
  8
Graypants_Drum36
 62
    36
420
  8866048
370
    -3
100
AcDbVertex
100
AcDb2dVertex
 10
393.7245690140826
 20
-1869.915224556441
 30
0.0
  0
VERTEX
  5
24E
330
24C
100
AcDbEntity
  8
Graypants_Drum36
 62
    36
420
  8866048
370
    -3
100
AcDbVertex
100
AcDb2dVertex
 10
393.7630135161661
 20
-1869.914731835828
 30
0.0
  0
VERTEX
  5
24F
330
24C
100
AcDbEntity
  8
Graypants_Drum36
 62
    36
420
  8866048
370
    -3
100
AcDbVertex
100
AcDb2dVertex
 10
393.8017842614929
 20
-1869.913236169852
 30
0.0
  0
VERTEX
  5
250
330
24C
100
AcDbEntity
  8
Graypants_Drum36
 62
    36
420
  8866048
370
    -3
100
AcDbVertex
100
AcDb2dVertex
 10
393.8408558551294
 20
-1869.910711922285
 30
0.0
  0
VERTEX
  5
251
330
24C
100
AcDbEntity
  8
Graypants_Drum36
 62
    36
420
  8866048
370
    -3
100
AcDbVertex
100
AcDb2dVertex
 10
393.8802014648616
 20
-1869.907134373666
 30
0.0
  0
VERTEX
  5
252
330
24C
100
AcDbEntity
  8
Graypants_Drum36
 62
    36
420
  8866048
370
    -3
100
AcDbVertex
100
AcDb2dVertex
 10
393.9197928380144
 20
-1869.902479835498
 30
0.0
  0
VERTEX
  5
253
330
24C
100
AcDbEntity
  8
Graypants_Drum36
 62
    36
420
  8866048
370
    -3
100
AcDbVertex
100
AcDb2dVertex
 10
393.9596003255657
 20
-1869.896725765777
 30
0.0
  0
VERTEX
  5
254
330
24C
100
AcDbEntity
  8
Graypants_Drum36
 62
    36
420
  8866048
370
    -3
100
AcDbVertex
100
AcDb2dVertex
 10
393.9995929138433
 20
-1869.889850885189
 30
0.0
  0
VERTEX
  5
255
330
24C
100
AcDbEntity
  8
Graypants_Drum36
 62
    36
420
  8866048
370
    -3
100
AcDbVertex
100
AcDb2dVertex
 10
394.0397382640464
 20
-1869.881835293274
 30
0.0
  0
VERTEX
  5
256
330
24C
100
AcDbEntity
  8
Graypants_Drum36
 62
    36
420
  8866048
370
    -3
100
AcDbVertex
100
AcDb2dVertex
 10
394.0800027597829
 20
-1869.872660583793
 30
0.0
  0
VERTEX
  5
257
330
24C
100
AcDbEntity
  8
Graypants_Drum36
 62
    36
420
  8866048
370
    -3
100
AcDbVertex
100
AcDb2dVertex
 10
394.1203515627583
 20
-1869.862309958526
 30
0.0
  0
VERTEX
  5
258
330
24C
100
AcDbEntity
  8
Graypants_Drum36
 62
    36
420
  8866048
370
    -3
100
AcDbVertex
100
AcDb2dVertex
 10
394.1607486766857
 20
-1869.850768338644
 30
0.0
  0
VERTEX
  5
259
330
24C
100
AcDbEntity
  8
Graypants_Drum36
 62
    36
420
  8866048
370
    -3
100
AcDbVertex
100
AcDb2dVertex
 10
394.20115701942
 20
-1869.838022472815
 30
0.0
  0
VERTEX
  5
25A
330
24C
100
AcDbEntity
  8
Graypants_Drum36
 62
    36
420
  8866048
370
    -3
100
AcDbVertex
100
AcDb2dVertex
 10
394.2415385032491
 20
-1869.824061041152
 30
0.0
  0
VERTEX
  5
25B
330
24C
100
AcDbEntity
  8
Graypants_Drum36
 62
    36
420
  8866048
370
    -3
100
AcDbVertex
100
AcDb2dVertex
 10
394.2818541231942
 20
-1869.808874754124
 30
0.0
  0
VERTEX
  5
25C
330
24C
100
AcDbEntity
  8
Graypants_Drum36
 62
    36
420
  8866048
370
    -3
100
AcDbVertex
100
AcDb2dVertex
 10
394.3220640530943
 20
-1869.792456445515
 30
0.0
  0
VERTEX
  5
25D
330
24C
100
AcDbEntity
  8
Graypants_Drum36
 62
    36
420
  8866048
370
    -3
100
AcDbVertex
100
AcDb2dVertex
 10
394.3621277491686
 20
-1869.774801158566
 30
0.0
  0
VERTEX
  5
25E
330
24C
100
AcDbEntity
  8
Graypants_Drum36
 62
    36
420
  8866048
370
    -3
100
AcDbVertex
100
AcDb2dVertex
 10
394.4020040606671
 20
-1869.755906224405
 30
0.0
  0
VERTEX
  5
25F
330
24C
100
AcDbEntity
  8
Graypants_Drum36
 62
    36
420
  8866048
370
    -3
100
AcDbVertex
100
AcDb2dVertex
 10
394.4416513471371
 20
-1869.735771331954
 30
0.0
  0
VERTEX
  5
260
330
24C
100
AcDbEntity
  8
Graypants_Drum36
 62
    36
420
  8866048
370
    -3
100
AcDbVertex
100
AcDb2dVertex
 10
394.481027601751
 20
-1869.714398588487
 30
0.0
  0
VERTEX
  5
261
330
24C
100
AcDbEntity
  8
Graypants_Drum36
 62
    36
420
  8866048
370
    -3
100
AcDbVertex
100
AcDb2dVertex
 10
394.5200905800652
 20
-1869.6917925701
 30
0.0
  0
VERTEX
  5
262
330
24C
100
AcDbEntity
  8
Graypants_Drum36
 62
    36
420
  8866048
370
    -3
100
AcDbVertex
100
AcDb2dVertex
 10
394.5587979335021
 20
-1869.667960361423
 30
0.0
  0
VERTEX
  5
263
330
24C
100
AcDbEntity
  8
Graypants_Drum36
 62
    36
420
  8866048
370
    -3
100
AcDbVertex
100
AcDb2dVertex
 10
394.5971073467769
 20
-1869.642911583936
 30
0.0
  0
VERTEX
  5
264
330
24C
100
AcDbEntity
  8
Graypants_Drum36
 62
    36
420
  8866048
370
    -3
100
AcDbVertex
100
AcDb2dVertex
 10
394.634976678433
 20
-1869.616658412389
 30
0.0
  0
VERTEX
  5
265
330
24C
100
AcDbEntity
  8
Graypants_Drum36
 62
    36
420
  8866048
370
    -3
100
AcDbVertex
100
AcDb2dVertex
 10
394.6723641035859
 20
-1869.589215578878
 30
0.0
  0
VERTEX
  5
266
330
24C
100
AcDbEntity
  8
Graypants_Drum36
 62
    36
420
  8866048
370
    -3
100
AcDbVertex
100
AcDb2dVertex
 10
394.7092282579371
 20
-1869.560600364258
 30
0.0
  0
VERTEX
  5
267
330
24C
100
AcDbEntity
  8
Graypants_Drum36
 62
    36
420
  8866048
370
    -3
100
AcDbVertex
100
AcDb2dVertex
 10
394.7455283820756
 20
-1869.530832576659
 30
0.0
  0
VERTEX
  5
268
330
24C
100
AcDbEntity
  8
Graypants_Drum36
 62
    36
420
  8866048
370
    -3
100
AcDbVertex
100
AcDb2dVertex
 10
394.7812244650647
 20
-1869.49993451701
 30
0.0
  0
VERTEX
  5
269
330
24C
100
AcDbEntity
  8
Graypants_Drum36
 62
    36
420
  8866048
370
    -3
100
AcDbVertex
100
AcDb2dVertex
 10
394.8162773862906
 20
-1869.46793093159
 30
0.0
  0
VERTEX
  5
26A
330
24C
100
AcDbEntity
  8
Graypants_Drum36
 62
    36
420
  8866048
370
    -3
100
AcDbVertex
100
AcDb2dVertex
 10
394.8506490545517
 20
-1869.434848951724
 30
0.0
  0
VERTEX
  5
26B
330
24C
100
AcDbEntity
  8
Graypants_Drum36
 62
    36
420
  8866048
370
    -3
100
AcDbVertex
100
AcDb2dVertex
 10
394.884302543375
 20
-1869.400718020892
 30
0.0
  0
VERTEX
  5
26C
330
24C
100
AcDbEntity
  8
Graypants_Drum36
 62
    36
420
  8866048
370
    -3
100
AcDbVertex
100
AcDb2dVertex
 10
394.9172022215658
 20
-1869.365569809649
 30
0.0
  0
VERTEX
  5
26D
330
24C
100
AcDbEntity
  8
Graypants_Drum36
 62
    36
420
  8866048
370
    -3
100
AcDbVertex
100
AcDb2dVertex
 10
394.9493138780351
 20
-1869.329438118814
 30
0.0
  0
VERTEX
  5
26E
330
24C
100
AcDbEntity
  8
Graypants_Drum36
 62
    36
420
  8866048
370
    -3
100
AcDbVertex
100
AcDb2dVertex
 10
394.9806048399905
 20
-1869.292358771575
 30
0.0
  0
VERTEX
  5
26F
330
24C
100
AcDbEntity
  8
Graypants_Drum36
 62
    36
420
  8866048
370
    -3
100
AcDbVertex
100
AcDb2dVertex
 10
395.0110440836394
 20
-1869.254369495225
 30
0.0
  0
VERTEX
  5
270
330
24C
100
AcDbEntity
  8
Graypants_Drum36
 62
    36
420
  8866048
370
    -3
100
AcDbVertex
100
AcDb2dVertex
 10
395.0406023366141
 20
-1869.215509793327
 30
0.0
  0
VERTEX
  5
271
330
24C
100
AcDbEntity
  8
Graypants_Drum36
 62
    36
420
  8866048
370
    -3
100
AcDbVertex
100
AcDb2dVertex
 10
395.0692521714128
 20
-1869.175820809239
 30
0.0
  0
VERTEX
  5
272
330
24C
100
AcDbEntity
  8
Graypants_Drum36
 62
    36
420
  8866048
370
    -3
100
AcDbVertex
100
AcDb2dVertex
 10
395.0969680892301
 20
-1869.135345181982
 30
0.0
  0
VERTEX
  5
273
330
24C
100
AcDbEntity
  8
Graypants_Drum36
 62
    36
420
  8866048
370
    -3
100
AcDbVertex
100
AcDb2dVertex
 10
395.1237265936508
 20
-1869.094126895486
 30
0.0
  0
VERTEX
  5
274
330
24C
100
AcDbEntity
  8
Graypants_Drum36
 62
    36
420
  8866048
370
    -3
100
AcDbVertex
100
AcDb2dVertex
 10
395.14950625377
 20
-1869.052211122346
 30
0.0
  0
VERTEX
  5
275
330
24C
100
AcDbEntity
  8
Graypants_Drum36
 62
    36
420
  8866048
370
    -3
100
AcDbVertex
100
AcDb2dVertex
 10
395.1742877564147
 20
-1869.009644063211
 30
0.0
  0
VERTEX
  5
276
330
24C
100
AcDbEntity
  8
Graypants_Drum36
 62
    36
420
  8866048
370
    -3
100
AcDbVertex
100
AcDb2dVertex
 10
395.1980539472422
 20
-1868.966472782996
 30
0.0
  0
VERTEX
  5
277
330
24C
100
AcDbEntity
  8
Graypants_Drum36
 62
    36
420
  8866048
370
    -3
100
AcDbVertex
100
AcDb2dVertex
 10
395.2207898605939
 20
-1868.922745045079
 30
0.0
  0
VERTEX
  5
278
330
24C
100
AcDbEntity
  8
Graypants_Drum36
 62
    36
420
  8866048
370
    -3
100
AcDbVertex
100
AcDb2dVertex
 10
395.2424827381001
 20
-1868.878509144677
 30
0.0
  0
VERTEX
  5
279
330
24C
100
AcDbEntity
  8
Graypants_Drum36
 62
    36
420
  8866048
370
    -3
100
AcDbVertex
100
AcDb2dVertex
 10
395.2631220361175
 20
-1868.833813742553
 30
0.0
  0
VERTEX
  5
27A
330
24C
100
AcDbEntity
  8
Graypants_Drum36
 62
    36
420
  8866048
370
    -3
100
AcDbVertex
100
AcDb2dVertex
 10
395.2826994221996
 20
-1868.788707700189
 30
0.0
  0
VERTEX
  5
27B
330
24C
100
AcDbEntity
  8
Graypants_Drum36
 62
    36
420
  8866048
370
    -3
100
AcDbVertex
100
AcDb2dVertex
 10
395.3012087608787
 20
-1868.74323991751
 30
0.0
  0
VERTEX
  5
27C
330
24C
100
AcDbEntity
  8
Graypants_Drum36
 62
    36
420
  8866048
370
    -3
100
AcDbVertex
100
AcDb2dVertex
 10
395.3186460891374
 20
-1868.6974591742
 30
0.0
  0
VERTEX
  5
27D
330
24C
100
AcDbEntity
  8
Graypants_Drum36
 62
    36
420
  8866048
370
    -3
100
AcDbVertex
100
AcDb2dVertex
 10
395.3350095820242
 20
-1868.651413975565
 30
0.0
  0
VERTEX
  5
27E
330
24C
100
AcDbEntity
  8
Graypants_Drum36
 62
    36
420
  8866048
370
    -3
100
AcDbVertex
100
AcDb2dVertex
 10
395.3502995089411
 20
-1868.605152403857
 30
0.0
  0
VERTEX
  5
27F
330
24C
100
AcDbEntity
  8
Graypants_Drum36
 62
    36
420
  8866048
370
    -3
100
AcDbVertex
100
AcDb2dVertex
 10
395.3645181811968
 20
-1868.558721975871
 30
0.0
  0
VERTEX
  5
280
330
24C
100
AcDbEntity
  8
Graypants_Drum36
 62
    36
420
  8866048
370
    -3
100
AcDbVertex
100
AcDb2dVertex
 10
395.3776698914724
 20
-1868.512169507533
 30
0.0
  0
VERTEX
  5
281
330
24C
100
AcDbEntity
  8
Graypants_Drum36
 62
    36
420
  8866048
370
    -3
100
AcDbVertex
100
AcDb2dVertex
 10
395.389760845892
 20
-1868.465540986131
 30
0.0
  0
VERTEX
  5
282
330
24C
100
AcDbEntity
  8
Graypants_Drum36
 62
    36
420
  8866048
370
    -3
100
AcDbVertex
100
AcDb2dVertex
 10
395.4007990894266
 20
-1868.418881450738
 30
0.0
  0
VERTEX
  5
283
330
24C
100
AcDbEntity
  8
Graypants_Drum36
 62
    36
420
  8866048
370
    -3
100
AcDbVertex
100
AcDb2dVertex
 10
395.4107944253844
 20
-1868.372234881254
 30
0.0
  0
VERTEX
  5
284
330
24C
100
AcDbEntity
  8
Graypants_Drum36
 62
    36
420
  8866048
370
    -3
100
AcDbVertex
100
AcDb2dVertex
 10
395.4197583297561
 20
-1868.325644096452
 30
0.0
  0
VERTEX
  5
285
330
24C
100
AcDbEntity
  8
Graypants_Drum36
 62
    36
420
  8866048
370
    -3
100
AcDbVertex
100
AcDb2dVertex
 10
395.4277038611905
 20
-1868.279150661265
 30
0.0
  0
VERTEX
  5
286
330
24C
100
AcDbEntity
  8
Graypants_Drum36
 62
    36
420
  8866048
370
    -3
100
AcDbVertex
100
AcDb2dVertex
 10
395.4346455673738
 20
-1868.23279480349
 30
0.0
  0
VERTEX
  5
287
330
24C
100
AcDbEntity
  8
Graypants_Drum36
 62
    36
420
  8866048
370
    -3
100
AcDbVertex
100
AcDb2dVertex
 10
395.4405993885745
 20
-1868.186615339995
 30
0.0
  0
VERTEX
  5
288
330
24C
100
AcDbEntity
  8
Graypants_Drum36
 62
    36
420
  8866048
370
    -3
100
AcDbVertex
100
AcDb2dVertex
 10
395.4455825590977
 20
-1868.140649612408
 30
0.0
  0
VERTEX
  5
289
330
24C
100
AcDbEntity
  8
Graypants_Drum36
 62
    36
420
  8866048
370
    -3
100
AcDbVertex
100
AcDb2dVertex
 10
395.4496135073699
 20
-1868.094933432236
 30
0.0
  0
VERTEX
  5
28A
330
24C
100
AcDbEntity
  8
Graypants_Drum36
 62
    36
420
  8866048
370
    -3
100
AcDbVertex
100
AcDb2dVertex
 10
395.4527117553386
 20
-1868.049501035219
 30
0.0
  0
VERTEX
  5
28B
330
24C
100
AcDbEntity
  8
Graypants_Drum36
 62
    36
420
  8866048
370
    -3
100
AcDbVertex
100
AcDb2dVertex
 10
395.4548978178432
 20
-1868.004385044738
 30
0.0
  0
VERTEX
  5
28C
330
24C
100
AcDbEntity
  8
Graypants_Drum36
 62
    36
420
  8866048
370
    -3
100
AcDbVertex
100
AcDb2dVertex
 10
395.456193102566
 20
-1867.959616443964
 30
0.0
  0
VERTEX
  5
28D
330
24C
100
AcDbEntity
  8
Graypants_Drum36
 62
    36
420
  8866048
370
    -3
100
AcDbVertex
100
AcDb2dVertex
 10
395.4566198111311
 20
-1867.915224556441
 30
0.0
  0
SEQEND
  5
28E
330
24C
100
AcDbEntity
  8
Graypants_Drum36
 62
    36
420
  8866048
370
    -3
  0
POLYLINE
  5
28F
330
1F
100
AcDbEntity
  8
Graypants_Drum36
 62
    36
420
  8866048
370
    -3
100
AcDb2dPolyline
 66
     1
 10
0.0
 20
0.0
 30
0.0
  0
VERTEX
  5
290
330
28F
100
AcDbEntity
  8
Graypants_Drum36
 62
    36
420
  8866048
370
    -3
100
AcDbVertex
100
AcDb2dVertex
 10
395.2245690414152
 20
-1869.915224556441
 30
0.0
  0
VERTEX
  5
291
330
28F
100
AcDbEntity
  8
Graypants_Drum36
 62
    36
420
  8866048
370
    -3
100
AcDbVertex
100
AcDb2dVertex
 10
395.2630135434987
 20
-1869.914731835828
 30
0.0
  0
VERTEX
  5
292
330
28F
100
AcDbEntity
  8
Graypants_Drum36
 62
    36
420
  8866048
370
    -3
100
AcDbVertex
100
AcDb2dVertex
 10
395.3017842888254
 20
-1869.913236169852
 30
0.0
  0
VERTEX
  5
293
330
28F
100
AcDbEntity
  8
Graypants_Drum36
 62
    36
420
  8866048
370
    -3
100
AcDbVertex
100
AcDb2dVertex
 10
395.3408558824621
 20
-1869.910711922285
 30
0.0
  0
VERTEX
  5
294
330
28F
100
AcDbEntity
  8
Graypants_Drum36
 62
    36
420
  8866048
370
    -3
100
AcDbVertex
100
AcDb2dVertex
 10
395.3802014921942
 20
-1869.907134373666
 30
0.0
  0
VERTEX
  5
295
330
28F
100
AcDbEntity
  8
Graypants_Drum36
 62
    36
420
  8866048
370
    -3
100
AcDbVertex
100
AcDb2dVertex
 10
395.4197928653469
 20
-1869.902479835498
 30
0.0
  0
VERTEX
  5
296
330
28F
100
AcDbEntity
  8
Graypants_Drum36
 62
    36
420
  8866048
370
    -3
100
AcDbVertex
100
AcDb2dVertex
 10
395.4596003528983
 20
-1869.896725765777
 30
0.0
  0
VERTEX
  5
297
330
28F
100
AcDbEntity
  8
Graypants_Drum36
 62
    36
420
  8866048
370
    -3
100
AcDbVertex
100
AcDb2dVertex
 10
395.4995929411759
 20
-1869.889850885189
 30
0.0
  0
VERTEX
  5
298
330
28F
100
AcDbEntity
  8
Graypants_Drum36
 62
    36
420
  8866048
370
    -3
100
AcDbVertex
100
AcDb2dVertex
 10
395.5397382913791
 20
-1869.881835293274
 30
0.0
  0
VERTEX
  5
299
330
28F
100
AcDbEntity
  8
Graypants_Drum36
 62
    36
420
  8866048
370
    -3
100
AcDbVertex
100
AcDb2dVertex
 10
395.5800027871155
 20
-1869.872660583793
 30
0.0
  0
VERTEX
  5
29A
330
28F
100
AcDbEntity
  8
Graypants_Drum36
 62
    36
420
  8866048
370
    -3
100
AcDbVertex
100
AcDb2dVertex
 10
395.620351590091
 20
-1869.862309958526
 30
0.0
  0
VERTEX
  5
29B
330
28F
100
AcDbEntity
  8
Graypants_Drum36
 62
    36
420
  8866048
370
    -3
100
AcDbVertex
100
AcDb2dVertex
 10
395.6607487040184
 20
-1869.850768338644
 30
0.0
  0
VERTEX
  5
29C
330
28F
100
AcDbEntity
  8
Graypants_Drum36
 62
    36
420
  8866048
370
    -3
100
AcDbVertex
100
AcDb2dVertex
 10
395.7011570467527
 20
-1869.838022472815
 30
0.0
  0
VERTEX
  5
29D
330
28F
100
AcDbEntity
  8
Graypants_Drum36
 62
    36
420
  8866048
370
    -3
100
AcDbVertex
100
AcDb2dVertex
 10
395.7415385305818
 20
-1869.824061041152
 30
0.0
  0
VERTEX
  5
29E
330
28F
100
AcDbEntity
  8
Graypants_Drum36
 62
    36
420
  8866048
370
    -3
100
AcDbVertex
100
AcDb2dVertex
 10
395.781854150527
 20
-1869.808874754124
 30
0.0
  0
VERTEX
  5
29F
330
28F
100
AcDbEntity
  8
Graypants_Drum36
 62
    36
420
  8866048
370
    -3
100
AcDbVertex
100
AcDb2dVertex
 10
395.822064080427
 20
-1869.792456445515
 30
0.0
  0
VERTEX
  5
2A0
330
28F
100
AcDbEntity
  8
Graypants_Drum36
 62
    36
420
  8866048
370
    -3
100
AcDbVertex
100
AcDb2dVertex
 10
395.8621277765013
 20
-1869.774801158566
 30
0.0
  0
VERTEX
  5
2A1
330
28F
100
AcDbEntity
  8
Graypants_Drum36
 62
    36
420
  8866048
370
    -3
100
AcDbVertex
100
AcDb2dVertex
 10
395.9020040879998
 20
-1869.755906224405
 30
0.0
  0
VERTEX
  5
2A2
330
28F
100
AcDbEntity
  8
Graypants_Drum36
 62
    36
420
  8866048
370
    -3
100
AcDbVertex
100
AcDb2dVertex
 10
395.9416513744699
 20
-1869.735771331954
 30
0.0
  0
VERTEX
  5
2A3
330
28F
100
AcDbEntity
  8
Graypants_Drum36
 62
    36
420
  8866048
370
    -3
100
AcDbVertex
100
AcDb2dVertex
 10
395.9810276290838
 20
-1869.714398588487
 30
0.0
  0
VERTEX
  5
2A4
330
28F
100
AcDbEntity
  8
Graypants_Drum36
 62
    36
420
  8866048
370
    -3
100
AcDbVertex
100
AcDb2dVertex
 10
396.0200906073981
 20
-1869.6917925701
 30
0.0
  0
VERTEX
  5
2A5
330
28F
100
AcDbEntity
  8
Graypants_Drum36
 62
    36
420
  8866048
370
    -3
100
AcDbVertex
100
AcDb2dVertex
 10
396.0587979608349
 20
-1869.667960361423
 30
0.0
  0
VERTEX
  5
2A6
330
28F
100
AcDbEntity
  8
Graypants_Drum36
 62
    36
420
  8866048
370
    -3
100
AcDbVertex
100
AcDb2dVertex
 10
396.0971073741096
 20
-1869.642911583936
 30
0.0
  0
VERTEX
  5
2A7
330
28F
100
AcDbEntity
  8
Graypants_Drum36
 62
    36
420
  8866048
370
    -3
100
AcDbVertex
100
AcDb2dVertex
 10
396.1349767057658
 20
-1869.616658412389
 30
0.0
  0
VERTEX
  5
2A8
330
28F
100
AcDbEntity
  8
Graypants_Drum36
 62
    36
420
  8866048
370
    -3
100
AcDbVertex
100
AcDb2dVertex
 10
396.1723641309187
 20
-1869.589215578878
 30
0.0
  0
VERTEX
  5
2A9
330
28F
100
AcDbEntity
  8
Graypants_Drum36
 62
    36
420
  8866048
370
    -3
100
AcDbVertex
100
AcDb2dVertex
 10
396.2092282852698
 20
-1869.560600364258
 30
0.0
  0
VERTEX
  5
2AA
330
28F
100
AcDbEntity
  8
Graypants_Drum36
 62
    36
420
  8866048
370
    -3
100
AcDbVertex
100
AcDb2dVertex
 10
396.2455284094084
 20
-1869.530832576659
 30
0.0
  0
VERTEX
  5
2AB
330
28F
100
AcDbEntity
  8
Graypants_Drum36
 62
    36
420
  8866048
370
    -3
100
AcDbVertex
100
AcDb2dVertex
 10
396.2812244923975
 20
-1869.49993451701
 30
0.0
  0
VERTEX
  5
2AC
330
28F
100
AcDbEntity
  8
Graypants_Drum36
 62
    36
420
  8866048
370
    -3
100
AcDbVertex
100
AcDb2dVertex
 10
396.3162774136233
 20
-1869.46793093159
 30
0.0
  0
VERTEX
  5
2AD
330
28F
100
AcDbEntity
  8
Graypants_Drum36
 62
    36
420
  8866048
370
    -3
100
AcDbVertex
100
AcDb2dVertex
 10
396.3506490818845
 20
-1869.434848951724
 30
0.0
  0
VERTEX
  5
2AE
330
28F
100
AcDbEntity
  8
Graypants_Drum36
 62
    36
420
  8866048
370
    -3
100
AcDbVertex
100
AcDb2dVertex
 10
396.3843025707078
 20
-1869.400718020892
 30
0.0
  0
VERTEX
  5
2AF
330
28F
100
AcDbEntity
  8
Graypants_Drum36
 62
    36
420
  8866048
370
    -3
100
AcDbVertex
100
AcDb2dVertex
 10
396.4172022488987
 20
-1869.365569809649
 30
0.0
  0
VERTEX
  5
2B0
330
28F
100
AcDbEntity
  8
Graypants_Drum36
 62
    36
420
  8866048
370
    -3
100
AcDbVertex
100
AcDb2dVertex
 10
396.4493139053679
 20
-1869.329438118814
 30
0.0
  0
VERTEX
  5
2B1
330
28F
100
AcDbEntity
  8
Graypants_Drum36
 62
    36
420
  8866048
370
    -3
100
AcDbVertex
100
AcDb2dVertex
 10
396.4806048673232
 20
-1869.292358771575
 30
0.0
  0
VERTEX
  5
2B2
330
28F
100
AcDbEntity
  8
Graypants_Drum36
 62
    36
420
  8866048
370
    -3
100
AcDbVertex
100
AcDb2dVertex
 10
396.5110441109721
 20
-1869.254369495225
 30
0.0
  0
VERTEX
  5
2B3
330
28F
100
AcDbEntity
  8
Graypants_Drum36
 62
    36
420
  8866048
370
    -3
100
AcDbVertex
100
AcDb2dVertex
 10
396.540602363947
 20
-1869.215509793327
 30
0.0
  0
VERTEX
  5
2B4
330
28F
100
AcDbEntity
  8
Graypants_Drum36
 62
    36
420
  8866048
370
    -3
100
AcDbVertex
100
AcDb2dVertex
 10
396.5692521987455
 20
-1869.175820809239
 30
0.0
  0
VERTEX
  5
2B5
330
28F
100
AcDbEntity
  8
Graypants_Drum36
 62
    36
420
  8866048
370
    -3
100
AcDbVertex
100
AcDb2dVertex
 10
396.5969681165629
 20
-1869.135345181982
 30
0.0
  0
VERTEX
  5
2B6
330
28F
100
AcDbEntity
  8
Graypants_Drum36
 62
    36
420
  8866048
370
    -3
100
AcDbVertex
100
AcDb2dVertex
 10
396.6237266209836
 20
-1869.094126895486
 30
0.0
  0
VERTEX
  5
2B7
330
28F
100
AcDbEntity
  8
Graypants_Drum36
 62
    36
420
  8866048
370
    -3
100
AcDbVertex
100
AcDb2dVertex
 10
396.6495062811027
 20
-1869.052211122346
 30
0.0
  0
VERTEX
  5
2B8
330
28F
100
AcDbEntity
  8
Graypants_Drum36
 62
    36
420
  8866048
370
    -3
100
AcDbVertex
100
AcDb2dVertex
 10
396.6742877837476
 20
-1869.009644063211
 30
0.0
  0
VERTEX
  5
2B9
330
28F
100
AcDbEntity
  8
Graypants_Drum36
 62
    36
420
  8866048
370
    -3
100
AcDbVertex
100
AcDb2dVertex
 10
396.698053974575
 20
-1868.966472782996
 30
0.0
  0
VERTEX
  5
2BA
330
28F
100
AcDbEntity
  8
Graypants_Drum36
 62
    36
420
  8866048
370
    -3
100
AcDbVertex
100
AcDb2dVertex
 10
396.7207898879267
 20
-1868.922745045079
 30
0.0
  0
VERTEX
  5
2BB
330
28F
100
AcDbEntity
  8
Graypants_Drum36
 62
    36
420
  8866048
370
    -3
100
AcDbVertex
100
AcDb2dVertex
 10
396.7424827654329
 20
-1868.878509144677
 30
0.0
  0
VERTEX
  5
2BC
330
28F
100
AcDbEntity
  8
Graypants_Drum36
 62
    36
420
  8866048
370
    -3
100
AcDbVertex
100
AcDb2dVertex
 10
396.7631220634502
 20
-1868.833813742553
 30
0.0
  0
VERTEX
  5
2BD
330
28F
100
AcDbEntity
  8
Graypants_Drum36
 62
    36
420
  8866048
370
    -3
100
AcDbVertex
100
AcDb2dVertex
 10
396.7826994495323
 20
-1868.788707700189
 30
0.0
  0
VERTEX
  5
2BE
330
28F
100
AcDbEntity
  8
Graypants_Drum36
 62
    36
420
  8866048
370
    -3
100
AcDbVertex
100
AcDb2dVertex
 10
396.8012087882115
 20
-1868.74323991751
 30
0.0
  0
VERTEX
  5
2BF
330
28F
100
AcDbEntity
  8
Graypants_Drum36
 62
    36
420
  8866048
370
    -3
100
AcDbVertex
100
AcDb2dVertex
 10
396.8186461164701
 20
-1868.6974591742
 30
0.0
  0
VERTEX
  5
2C0
330
28F
100
AcDbEntity
  8
Graypants_Drum36
 62
    36
420
  8866048
370
    -3
100
AcDbVertex
100
AcDb2dVertex
 10
396.8350096093569
 20
-1868.651413975565
 30
0.0
  0
VERTEX
  5
2C1
330
28F
100
AcDbEntity
  8
Graypants_Drum36
 62
    36
420
  8866048
370
    -3
100
AcDbVertex
100
AcDb2dVertex
 10
396.8502995362737
 20
-1868.605152403857
 30
0.0
  0
VERTEX
  5
2C2
330
28F
100
AcDbEntity
  8
Graypants_Drum36
 62
    36
420
  8866048
370
    -3
100
AcDbVertex
100
AcDb2dVertex
 10
396.8645182085294
 20
-1868.558721975871
 30
0.0
  0
VERTEX
  5
2C3
330
28F
100
AcDbEntity
  8
Graypants_Drum36
 62
    36
420
  8866048
370
    -3
100
AcDbVertex
100
AcDb2dVertex
 10
396.8776699188051
 20
-1868.512169507533
 30
0.0
  0
VERTEX
  5
2C4
330
28F
100
AcDbEntity
  8
Graypants_Drum36
 62
    36
420
  8866048
370
    -3
100
AcDbVertex
100
AcDb2dVertex
 10
396.8897608732246
 20
-1868.465540986131
 30
0.0
  0
VERTEX
  5
2C5
330
28F
100
AcDbEntity
  8
Graypants_Drum36
 62
    36
420
  8866048
370
    -3
100
AcDbVertex
100
AcDb2dVertex
 10
396.9007991167593
 20
-1868.418881450738
 30
0.0
  0
VERTEX
  5
2C6
330
28F
100
AcDbEntity
  8
Graypants_Drum36
 62
    36
420
  8866048
370
    -3
100
AcDbVertex
100
AcDb2dVertex
 10
396.9107944527171
 20
-1868.372234881254
 30
0.0
  0
VERTEX
  5
2C7
330
28F
100
AcDbEntity
  8
Graypants_Drum36
 62
    36
420
  8866048
370
    -3
100
AcDbVertex
100
AcDb2dVertex
 10
396.9197583570888
 20
-1868.325644096452
 30
0.0
  0
VERTEX
  5
2C8
330
28F
100
AcDbEntity
  8
Graypants_Drum36
 62
    36
420
  8866048
370
    -3
100
AcDbVertex
100
AcDb2dVertex
 10
396.9277038885232
 20
-1868.279150661265
 30
0.0
  0
VERTEX
  5
2C9
330
28F
100
AcDbEntity
  8
Graypants_Drum36
 62
    36
420
  8866048
370
    -3
100
AcDbVertex
100
AcDb2dVertex
 10
396.9346455947065
 20
-1868.23279480349
 30
0.0
  0
VERTEX
  5
2CA
330
28F
100
AcDbEntity
  8
Graypants_Drum36
 62
    36
420
  8866048
370
    -3
100
AcDbVertex
100
AcDb2dVertex
 10
396.9405994159071
 20
-1868.186615339995
 30
0.0
  0
VERTEX
  5
2CB
330
28F
100
AcDbEntity
  8
Graypants_Drum36
 62
    36
420
  8866048
370
    -3
100
AcDbVertex
100
AcDb2dVertex
 10
396.9455825864304
 20
-1868.140649612408
 30
0.0
  0
VERTEX
  5
2CC
330
28F
100
AcDbEntity
  8
Graypants_Drum36
 62
    36
420
  8866048
370
    -3
100
AcDbVertex
100
AcDb2dVertex
 10
396.9496135347025
 20
-1868.094933432236
 30
0.0
  0
VERTEX
  5
2CD
330
28F
100
AcDbEntity
  8
Graypants_Drum36
 62
    36
420
  8866048
370
    -3
100
AcDbVertex
100
AcDb2dVertex
 10
396.9527117826711
 20
-1868.049501035219
 30
0.0
  0
VERTEX
  5
2CE
330
28F
100
AcDbEntity
  8
Graypants_Drum36
 62
    36
420
  8866048
370
    -3
100
AcDbVertex
100
AcDb2dVertex
 10
396.9548978451758
 20
-1868.004385044738
 30
0.0
  0
VERTEX
  5
2CF
330
28F
100
AcDbEntity
  8
Graypants_Drum36
 62
    36
420
  8866048
370
    -3
100
AcDbVertex
100
AcDb2dVertex
 10
396.9561931298986
 20
-1867.959616443964
 30
0.0
  0
VERTEX
  5
2D0
330
28F
100
AcDbEntity
  8
Graypants_Drum36
 62
    36
420
  8866048
370
    -3
100
AcDbVertex
100
AcDb2dVertex
 10
396.9566198384637
 20
-1867.915224556441
 30
0.0
  0
SEQEND
  5
2D1
330
28F
100
AcDbEntity
  8
Graypants_Drum36
 62
    36
420
  8866048
370
    -3
  0
LINE
  5
2D2
330
1F
100
AcDbEntity
  8
Graypants_Drum36
 62
    36
420
  8866048
370
    -3
100
AcDbLine
 10
-393.724572564799
 20
-1869.915224556442
 30
0.0
 11
-395.2245725518574
 21
-1869.915224556442
 31
0.0
  0
POLYLINE
  5
2D3
330
1F
100
AcDbEntity
  8
Graypants_Drum36
 62
    36
420
  8866048
370
    -3
100
AcDb2dPolyline
 66
     1
 10
0.0
 20
0.0
 30
0.0
  0
VERTEX
  5
2D4
330
2D3
100
AcDbEntity
  8
Graypants_Drum36
 62
    36
420
  8866048
370
    -3
100
AcDbVertex
100
AcDb2dVertex
 10
-373.5737552318096
 20
-1868.183406374626
 30
0.0
  0
VERTEX
  5
2D5
330
2D3
100
AcDbEntity
  8
Graypants_Drum36
 62
    36
420
  8866048
370
    -3
100
AcDbVertex
100
AcDb2dVertex
 10
-373.612144096513
 20
-1868.274398418863
 30
0.0
  0
VERTEX
  5
2D6
330
2D3
100
AcDbEntity
  8
Graypants_Drum36
 62
    36
420
  8866048
370
    -3
100
AcDbVertex
100
AcDb2dVertex
 10
-373.6535632770742
 20
-1868.364667912474
 30
0.0
  0
VERTEX
  5
2D7
330
2D3
100
AcDbEntity
  8
Graypants_Drum36
 62
    36
420
  8866048
370
    -3
100
AcDbVertex
100
AcDb2dVertex
 10
-373.6980175245226
 20
-1868.454024945281
 30
0.0
  0
VERTEX
  5
2D8
330
2D3
100
AcDbEntity
  8
Graypants_Drum36
 62
    36
420
  8866048
370
    -3
100
AcDbVertex
100
AcDb2dVertex
 10
-373.7455002254166
 20
-1868.542276339059
 30
0.0
  0
VERTEX
  5
2D9
330
2D3
100
AcDbEntity
  8
Graypants_Drum36
 62
    36
420
  8866048
370
    -3
100
AcDbVertex
100
AcDb2dVertex
 10
-373.7959929546512
 20
-1868.629226739208
 30
0.0
  0
VERTEX
  5
2DA
330
2D3
100
AcDbEntity
  8
Graypants_Drum36
 62
    36
420
  8866048
370
    -3
100
AcDbVertex
100
AcDb2dVertex
 10
-373.8494651196568
 20
-1868.714679782092
 30
0.0
  0
VERTEX
  5
2DB
330
2D3
100
AcDbEntity
  8
Graypants_Drum36
 62
    36
420
  8866048
370
    -3
100
AcDbVertex
100
AcDb2dVertex
 10
-373.905873705984
 20
-1868.798439326463
 30
0.0
  0
VERTEX
  5
2DC
330
2D3
100
AcDbEntity
  8
Graypants_Drum36
 62
    36
420
  8866048
370
    -3
100
AcDbVertex
100
AcDb2dVertex
 10
-373.9651631330506
 20
-1868.880310735529
 30
0.0
  0
VERTEX
  5
2DD
330
2D3
100
AcDbEntity
  8
Graypants_Drum36
 62
    36
420
  8866048
370
    -3
100
AcDbVertex
100
AcDb2dVertex
 10
-374.0272652273137
 20
-1868.960102194524
 30
0.0
  0
VERTEX
  5
2DE
330
2D3
100
AcDbEntity
  8
Graypants_Drum36
 62
    36
420
  8866048
370
    -3
100
AcDbVertex
100
AcDb2dVertex
 10
-374.0593462980879
 20
-1868.999159101066
 30
0.0
  0
VERTEX
  5
2DF
330
2D3
100
AcDbEntity
  8
Graypants_Drum36
 62
    36
420
  8866048
370
    -3
100
AcDbVertex
100
AcDb2dVertex
 10
-374.0920993183598
 20
-1869.037626047161
 30
0.0
  0
VERTEX
  5
2E0
330
2D3
100
AcDbEntity
  8
Graypants_Drum36
 62
    36
420
  8866048
370
    -3
100
AcDbVertex
100
AcDb2dVertex
 10
-374.1255122881923
 20
-1869.075480445045
 30
0.0
  0
VERTEX
  5
2E1
330
2D3
100
AcDbEntity
  8
Graypants_Drum36
 62
    36
420
  8866048
370
    -3
100
AcDbVertex
100
AcDb2dVertex
 10
-374.1595724613942
 20
-1869.112700133263
 30
0.0
  0
VERTEX
  5
2E2
330
2D3
100
AcDbEntity
  8
Graypants_Drum36
 62
    36
420
  8866048
370
    -3
100
AcDbVertex
100
AcDb2dVertex
 10
-374.1942663594527
 20
-1869.149263417226
 30
0.0
  0
VERTEX
  5
2E3
330
2D3
100
AcDbEntity
  8
Graypants_Drum36
 62
    36
420
  8866048
370
    -3
100
AcDbVertex
100
AcDb2dVertex
 10
-374.2295797874308
 20
-1869.185149109056
 30
0.0
  0
VERTEX
  5
2E4
330
2D3
100
AcDbEntity
  8
Graypants_Drum36
 62
    36
420
  8866048
370
    -3
100
AcDbVertex
100
AcDb2dVertex
 10
-374.2654978517984
 20
-1869.220336566569
 30
0.0
  0
VERTEX
  5
2E5
330
2D3
100
AcDbEntity
  8
Graypants_Drum36
 62
    36
420
  8866048
370
    -3
100
AcDbVertex
100
AcDb2dVertex
 10
-374.3020049801554
 20
-1869.254805731258
 30
0.0
  0
VERTEX
  5
2E6
330
2D3
100
AcDbEntity
  8
Graypants_Drum36
 62
    36
420
  8866048
370
    -3
100
AcDbVertex
100
AcDb2dVertex
 10
-374.3390849427971
 20
-1869.288537165115
 30
0.0
  0
VERTEX
  5
2E7
330
2D3
100
AcDbEntity
  8
Graypants_Drum36
 62
    36
420
  8866048
370
    -3
100
AcDbVertex
100
AcDb2dVertex
 10
-374.3767208760637
 20
-1869.321512086183
 30
0.0
  0
VERTEX
  5
2E8
330
2D3
100
AcDbEntity
  8
Graypants_Drum36
 62
    36
420
  8866048
370
    -3
100
AcDbVertex
100
AcDb2dVertex
 10
-374.4148953074052
 20
-1869.35371240268
 30
0.0
  0
VERTEX
  5
2E9
330
2D3
100
AcDbEntity
  8
Graypants_Drum36
 62
    36
420
  8866048
370
    -3
100
AcDbVertex
100
AcDb2dVertex
 10
-374.4535901820856
 20
-1869.385120745575
 30
0.0
  0
VERTEX
  5
2EA
330
2D3
100
AcDbEntity
  8
Graypants_Drum36
 62
    36
420
  8866048
370
    -3
100
AcDbVertex
100
AcDb2dVertex
 10
-374.4927868914421
 20
-1869.415720499499
 30
0.0
  0
VERTEX
  5
2EB
330
2D3
100
AcDbEntity
  8
Graypants_Drum36
 62
    36
420
  8866048
370
    -3
100
AcDbVertex
100
AcDb2dVertex
 10
-374.5324663026071
 20
-1869.445495831875
 30
0.0
  0
VERTEX
  5
2EC
330
2D3
100
AcDbEntity
  8
Graypants_Drum36
 62
    36
420
  8866048
370
    -3
100
AcDbVertex
100
AcDb2dVertex
 10
-374.572608789594
 20
-1869.47443172015
 30
0.0
  0
VERTEX
  5
2ED
330
2D3
100
AcDbEntity
  8
Graypants_Drum36
 62
    36
420
  8866048
370
    -3
100
AcDbVertex
100
AcDb2dVertex
 10
-374.6131942656399
 20
-1869.502513977048
 30
0.0
  0
VERTEX
  5
2EE
330
2D3
100
AcDbEntity
  8
Graypants_Drum36
 62
    36
420
  8866048
370
    -3
100
AcDbVertex
100
AcDb2dVertex
 10
-374.6542022166943
 20
-1869.529729273738
 30
0.0
  0
VERTEX
  5
2EF
330
2D3
100
AcDbEntity
  8
Graypants_Drum36
 62
    36
420
  8866048
370
    -3
100
AcDbVertex
100
AcDb2dVertex
 10
-374.6956117359373
 20
-1869.556065160854
 30
0.0
  0
VERTEX
  5
2F0
330
2D3
100
AcDbEntity
  8
Graypants_Drum36
 62
    36
420
  8866048
370
    -3
100
AcDbVertex
100
AcDb2dVertex
 10
-374.7374015592029
 20
-1869.581510087285
 30
0.0
  0
VERTEX
  5
2F1
330
2D3
100
AcDbEntity
  8
Graypants_Drum36
 62
    36
420
  8866048
370
    -3
100
AcDbVertex
100
AcDb2dVertex
 10
-374.7795501011846
 20
-1869.606053416676
 30
0.0
  0
VERTEX
  5
2F2
330
2D3
100
AcDbEntity
  8
Graypants_Drum36
 62
    36
420
  8866048
370
    -3
100
AcDbVertex
100
AcDb2dVertex
 10
-374.8220354922932
 20
-1869.629685441604
 30
0.0
  0
VERTEX
  5
2F3
330
2D3
100
AcDbEntity
  8
Graypants_Drum36
 62
    36
420
  8866048
370
    -3
100
AcDbVertex
100
AcDb2dVertex
 10
-374.8648356160355
 20
-1869.652397395384
 30
0.0
  0
VERTEX
  5
2F4
330
2D3
100
AcDbEntity
  8
Graypants_Drum36
 62
    36
420
  8866048
370
    -3
100
AcDbVertex
100
AcDb2dVertex
 10
-374.9079281467818
 20
-1869.674181461473
 30
0.0
  0
VERTEX
  5
2F5
330
2D3
100
AcDbEntity
  8
Graypants_Drum36
 62
    36
420
  8866048
370
    -3
100
AcDbVertex
100
AcDb2dVertex
 10
-374.9512905877881
 20
-1869.695030780469
 30
0.0
  0
VERTEX
  5
2F6
330
2D3
100
AcDbEntity
  8
Graypants_Drum36
 62
    36
420
  8866048
370
    -3
100
AcDbVertex
100
AcDb2dVertex
 10
-374.9949003093409
 20
-1869.714939454699
 30
0.0
  0
VERTEX
  5
2F7
330
2D3
100
AcDbEntity
  8
Graypants_Drum36
 62
    36
420
  8866048
370
    -3
100
AcDbVertex
100
AcDb2dVertex
 10
-375.0387345868905
 20
-1869.733902550394
 30
0.0
  0
VERTEX
  5
2F8
330
2D3
100
AcDbEntity
  8
Graypants_Drum36
 62
    36
420
  8866048
370
    -3
100
AcDbVertex
100
AcDb2dVertex
 10
-375.0827706390432
 20
-1869.751916097485
 30
0.0
  0
VERTEX
  5
2F9
330
2D3
100
AcDbEntity
  8
Graypants_Drum36
 62
    36
420
  8866048
370
    -3
100
AcDbVertex
100
AcDb2dVertex
 10
-375.1269856652834
 20
-1869.768977087039
 30
0.0
  0
VERTEX
  5
2FA
330
2D3
100
AcDbEntity
  8
Graypants_Drum36
 62
    36
420
  8866048
370
    -3
100
AcDbVertex
100
AcDb2dVertex
 10
-375.1713568832996
 20
-1869.78508346637
 30
0.0
  0
VERTEX
  5
2FB
330
2D3
100
AcDbEntity
  8
Graypants_Drum36
 62
    36
420
  8866048
370
    -3
100
AcDbVertex
100
AcDb2dVertex
 10
-375.2158615657937
 20
-1869.800234131898
 30
0.0
  0
VERTEX
  5
2FC
330
2D3
100
AcDbEntity
  8
Graypants_Drum36
 62
    36
420
  8866048
370
    -3
100
AcDbVertex
100
AcDb2dVertex
 10
-375.260477076655
 20
-1869.81442891978
 30
0.0
  0
VERTEX
  5
2FD
330
2D3
100
AcDbEntity
  8
Graypants_Drum36
 62
    36
420
  8866048
370
    -3
100
AcDbVertex
100
AcDb2dVertex
 10
-375.3051809063886
 20
-1869.827668594414
 30
0.0
  0
VERTEX
  5
2FE
330
2D3
100
AcDbEntity
  8
Graypants_Drum36
 62
    36
420
  8866048
370
    -3
100
AcDbVertex
100
AcDb2dVertex
 10
-375.3499507066877
 20
-1869.83995483487
 30
0.0
  0
VERTEX
  5
2FF
330
2D3
100
AcDbEntity
  8
Graypants_Drum36
 62
    36
420
  8866048
370
    -3
100
AcDbVertex
100
AcDb2dVertex
 10
-375.3947643240544
 20
-1869.851290219349
 30
0.0
  0
VERTEX
  5
300
330
2D3
100
AcDbEntity
  8
Graypants_Drum36
 62
    36
420
  8866048
370
    -3
100
AcDbVertex
100
AcDb2dVertex
 10
-375.4395998323691
 20
-1869.861678207736
 30
0.0
  0
VERTEX
  5
301
330
2D3
100
AcDbEntity
  8
Graypants_Drum36
 62
    36
420
  8866048
370
    -3
100
AcDbVertex
100
AcDb2dVertex
 10
-375.4844355643255
 20
-1869.871123122383
 30
0.0
  0
VERTEX
  5
302
330
2D3
100
AcDbEntity
  8
Graypants_Drum36
 62
    36
420
  8866048
370
    -3
100
AcDbVertex
100
AcDb2dVertex
 10
-375.529250141648
 20
-1869.879630127181
 30
0.0
  0
VERTEX
  5
303
330
2D3
100
AcDbEntity
  8
Graypants_Drum36
 62
    36
420
  8866048
370
    -3
100
AcDbVertex
100
AcDb2dVertex
 10
-375.5740225040212
 20
-1869.887205205069
 30
0.0
  0
VERTEX
  5
304
330
2D3
100
AcDbEntity
  8
Graypants_Drum36
 62
    36
420
  8866048
370
    -3
100
AcDbVertex
100
AcDb2dVertex
 10
-375.6187319366633
 20
-1869.893855134058
 30
0.0
  0
VERTEX
  5
305
330
2D3
100
AcDbEntity
  8
Graypants_Drum36
 62
    36
420
  8866048
370
    -3
100
AcDbVertex
100
AcDb2dVertex
 10
-375.6633580964888
 20
-1869.899587461914
 30
0.0
  0
VERTEX
  5
306
330
2D3
100
AcDbEntity
  8
Graypants_Drum36
 62
    36
420
  8866048
370
    -3
100
AcDbVertex
100
AcDb2dVertex
 10
-375.7078810368089
 20
-1869.904410479595
 30
0.0
  0
VERTEX
  5
307
330
2D3
100
AcDbEntity
  8
Graypants_Drum36
 62
    36
420
  8866048
370
    -3
100
AcDbVertex
100
AcDb2dVertex
 10
-375.7522812305295
 20
-1869.908333193583
 30
0.0
  0
VERTEX
  5
308
330
2D3
100
AcDbEntity
  8
Graypants_Drum36
 62
    36
420
  8866048
370
    -3
100
AcDbVertex
100
AcDb2dVertex
 10
-375.7965395918108
 20
-1869.911365297207
 30
0.0
  0
VERTEX
  5
309
330
2D3
100
AcDbEntity
  8
Graypants_Drum36
 62
    36
420
  8866048
370
    -3
100
AcDbVertex
100
AcDb2dVertex
 10
-375.8406374961645
 20
-1869.913517141109
 30
0.0
  0
VERTEX
  5
30A
330
2D3
100
AcDbEntity
  8
Graypants_Drum36
 62
    36
420
  8866048
370
    -3
100
AcDbVertex
100
AcDb2dVertex
 10
-375.8845567989683
 20
-1869.914799702941
 30
0.0
  0
VERTEX
  5
30B
330
2D3
100
AcDbEntity
  8
Graypants_Drum36
 62
    36
420
  8866048
370
    -3
100
AcDbVertex
100
AcDb2dVertex
 10
-375.9282798523877
 20
-1869.915224556445
 30
0.0
  0
SEQEND
  5
30C
330
2D3
100
AcDbEntity
  8
Graypants_Drum36
 62
    36
420
  8866048
370
    -3
  0
LINE
  5
30D
330
1F
100
AcDbEntity
  8
Graypants_Drum36
 62
    36
420
  8866048
370
    -3
100
AcDbLine
 10
-396.9566233644073
 20
-1867.915224556442
 30
0.0
 11
-396.9566233644075
 21
-1865.86679138053
 31
0.0
  0
LINE
  5
30E
330
1F
100
AcDbEntity
  8
Graypants_Drum36
 62
    36
420
  8866048
370
    -3
100
AcDbLine
 10
-395.4566233773489
 20
-1867.915224556442
 30
0.0
 11
-395.4566233773489
 21
-1865.871024442971
 31
0.0
  0
POLYLINE
  5
30F
330
1F
100
AcDbEntity
  8
Graypants_Drum36
 62
    36
420
  8866048
370
    -3
100
AcDb2dPolyline
 66
     1
 10
0.0
 20
0.0
 30
0.0
  0
VERTEX
  5
310
330
30F
100
AcDbEntity
  8
Graypants_Drum36
 62
    36
420
  8866048
370
    -3
100
AcDbVertex
100
AcDb2dVertex
 10
-395.2245725518574
 20
-1869.915224556442
 30
0.0
  0
VERTEX
  5
311
330
30F
100
AcDbEntity
  8
Graypants_Drum36
 62
    36
420
  8866048
370
    -3
100
AcDbVertex
100
AcDb2dVertex
 10
-395.263017054285
 20
-1869.91473183583
 30
0.0
  0
VERTEX
  5
312
330
30F
100
AcDbEntity
  8
Graypants_Drum36
 62
    36
420
  8866048
370
    -3
100
AcDbVertex
100
AcDb2dVertex
 10
-395.3017877999587
 20
-1869.913236169853
 30
0.0
  0
VERTEX
  5
313
330
30F
100
AcDbEntity
  8
Graypants_Drum36
 62
    36
420
  8866048
370
    -3
100
AcDbVertex
100
AcDb2dVertex
 10
-395.340859393945
 20
-1869.910711922287
 30
0.0
  0
VERTEX
  5
314
330
30F
100
AcDbEntity
  8
Graypants_Drum36
 62
    36
420
  8866048
370
    -3
100
AcDbVertex
100
AcDb2dVertex
 10
-395.3802050040293
 20
-1869.907134373668
 30
0.0
  0
VERTEX
  5
315
330
30F
100
AcDbEntity
  8
Graypants_Drum36
 62
    36
420
  8866048
370
    -3
100
AcDbVertex
100
AcDb2dVertex
 10
-395.4197963775364
 20
-1869.9024798355
 30
0.0
  0
VERTEX
  5
316
330
30F
100
AcDbEntity
  8
Graypants_Drum36
 62
    36
420
  8866048
370
    -3
100
AcDbVertex
100
AcDb2dVertex
 10
-395.459603865444
 20
-1869.896725765779
 30
0.0
  0
VERTEX
  5
317
330
30F
100
AcDbEntity
  8
Graypants_Drum36
 62
    36
420
  8866048
370
    -3
100
AcDbVertex
100
AcDb2dVertex
 10
-395.4995964540796
 20
-1869.889850885191
 30
0.0
  0
VERTEX
  5
318
330
30F
100
AcDbEntity
  8
Graypants_Drum36
 62
    36
420
  8866048
370
    -3
100
AcDbVertex
100
AcDb2dVertex
 10
-395.5397418046419
 20
-1869.881835293276
 30
0.0
  0
VERTEX
  5
319
330
30F
100
AcDbEntity
  8
Graypants_Drum36
 62
    36
420
  8866048
370
    -3
100
AcDbVertex
100
AcDb2dVertex
 10
-395.5800063007387
 20
-1869.872660583795
 30
0.0
  0
VERTEX
  5
31A
330
30F
100
AcDbEntity
  8
Graypants_Drum36
 62
    36
420
  8866048
370
    -3
100
AcDbVertex
100
AcDb2dVertex
 10
-395.6203551040753
 20
-1869.862309958528
 30
0.0
  0
VERTEX
  5
31B
330
30F
100
AcDbEntity
  8
Graypants_Drum36
 62
    36
420
  8866048
370
    -3
100
AcDbVertex
100
AcDb2dVertex
 10
-395.6607522183642
 20
-1869.850768338647
 30
0.0
  0
VERTEX
  5
31C
330
30F
100
AcDbEntity
  8
Graypants_Drum36
 62
    36
420
  8866048
370
    -3
100
AcDbVertex
100
AcDb2dVertex
 10
-395.7011605614601
 20
-1869.838022472817
 30
0.0
  0
VERTEX
  5
31D
330
30F
100
AcDbEntity
  8
Graypants_Drum36
 62
    36
420
  8866048
370
    -3
100
AcDbVertex
100
AcDb2dVertex
 10
-395.7415420456506
 20
-1869.824061041154
 30
0.0
  0
VERTEX
  5
31E
330
30F
100
AcDbEntity
  8
Graypants_Drum36
 62
    36
420
  8866048
370
    -3
100
AcDbVertex
100
AcDb2dVertex
 10
-395.7818576659566
 20
-1869.808874754126
 30
0.0
  0
VERTEX
  5
31F
330
30F
100
AcDbEntity
  8
Graypants_Drum36
 62
    36
420
  8866048
370
    -3
100
AcDbVertex
100
AcDb2dVertex
 10
-395.8220675962165
 20
-1869.792456445517
 30
0.0
  0
VERTEX
  5
320
330
30F
100
AcDbEntity
  8
Graypants_Drum36
 62
    36
420
  8866048
370
    -3
100
AcDbVertex
100
AcDb2dVertex
 10
-395.8621312926493
 20
-1869.774801158568
 30
0.0
  0
VERTEX
  5
321
330
30F
100
AcDbEntity
  8
Graypants_Drum36
 62
    36
420
  8866048
370
    -3
100
AcDbVertex
100
AcDb2dVertex
 10
-395.9020076045048
 20
-1869.755906224407
 30
0.0
  0
VERTEX
  5
322
330
30F
100
AcDbEntity
  8
Graypants_Drum36
 62
    36
420
  8866048
370
    -3
100
AcDbVertex
100
AcDb2dVertex
 10
-395.9416548913296
 20
-1869.735771331956
 30
0.0
  0
VERTEX
  5
323
330
30F
100
AcDbEntity
  8
Graypants_Drum36
 62
    36
420
  8866048
370
    -3
100
AcDbVertex
100
AcDb2dVertex
 10
-395.9810311462959
 20
-1869.714398588489
 30
0.0
  0
VERTEX
  5
324
330
30F
100
AcDbEntity
  8
Graypants_Drum36
 62
    36
420
  8866048
370
    -3
100
AcDbVertex
100
AcDb2dVertex
 10
-396.0200941249597
 20
-1869.691792570102
 30
0.0
  0
VERTEX
  5
325
330
30F
100
AcDbEntity
  8
Graypants_Drum36
 62
    36
420
  8866048
370
    -3
100
AcDbVertex
100
AcDb2dVertex
 10
-396.058801478743
 20
-1869.667960361425
 30
0.0
  0
VERTEX
  5
326
330
30F
100
AcDbEntity
  8
Graypants_Drum36
 62
    36
420
  8866048
370
    -3
100
AcDbVertex
100
AcDb2dVertex
 10
-396.0971108923606
 20
-1869.642911583938
 30
0.0
  0
VERTEX
  5
327
330
30F
100
AcDbEntity
  8
Graypants_Drum36
 62
    36
420
  8866048
370
    -3
100
AcDbVertex
100
AcDb2dVertex
 10
-396.1349802243557
 20
-1869.616658412391
 30
0.0
  0
VERTEX
  5
328
330
30F
100
AcDbEntity
  8
Graypants_Drum36
 62
    36
420
  8866048
370
    -3
100
AcDbVertex
100
AcDb2dVertex
 10
-396.1723676498432
 20
-1869.58921557888
 30
0.0
  0
VERTEX
  5
329
330
30F
100
AcDbEntity
  8
Graypants_Drum36
 62
    36
420
  8866048
370
    -3
100
AcDbVertex
100
AcDb2dVertex
 10
-396.2092318045243
 20
-1869.56060036426
 30
0.0
  0
VERTEX
  5
32A
330
30F
100
AcDbEntity
  8
Graypants_Drum36
 62
    36
420
  8866048
370
    -3
100
AcDbVertex
100
AcDb2dVertex
 10
-396.2455319289878
 20
-1869.53083257666
 30
0.0
  0
VERTEX
  5
32B
330
30F
100
AcDbEntity
  8
Graypants_Drum36
 62
    36
420
  8866048
370
    -3
100
AcDbVertex
100
AcDb2dVertex
 10
-396.2812280122963
 20
-1869.499934517012
 30
0.0
  0
VERTEX
  5
32C
330
30F
100
AcDbEntity
  8
Graypants_Drum36
 62
    36
420
  8866048
370
    -3
100
AcDbVertex
100
AcDb2dVertex
 10
-396.3162809338358
 20
-1869.467930931593
 30
0.0
  0
VERTEX
  5
32D
330
30F
100
AcDbEntity
  8
Graypants_Drum36
 62
    36
420
  8866048
370
    -3
100
AcDbVertex
100
AcDb2dVertex
 10
-396.3506526024046
 20
-1869.434848951725
 30
0.0
  0
VERTEX
  5
32E
330
30F
100
AcDbEntity
  8
Graypants_Drum36
 62
    36
420
  8866048
370
    -3
100
AcDbVertex
100
AcDb2dVertex
 10
-396.3843060915291
 20
-1869.400718020895
 30
0.0
  0
VERTEX
  5
32F
330
30F
100
AcDbEntity
  8
Graypants_Drum36
 62
    36
420
  8866048
370
    -3
100
AcDbVertex
100
AcDb2dVertex
 10
-396.4172057700145
 20
-1869.365569809652
 30
0.0
  0
VERTEX
  5
330
330
30F
100
AcDbEntity
  8
Graypants_Drum36
 62
    36
420
  8866048
370
    -3
100
AcDbVertex
100
AcDb2dVertex
 10
-396.449317426771
 20
-1869.329438118816
 30
0.0
  0
VERTEX
  5
331
330
30F
100
AcDbEntity
  8
Graypants_Drum36
 62
    36
420
  8866048
370
    -3
100
AcDbVertex
100
AcDb2dVertex
 10
-396.4806083890065
 20
-1869.292358771577
 30
0.0
  0
VERTEX
  5
332
330
30F
100
AcDbEntity
  8
Graypants_Drum36
 62
    36
420
  8866048
370
    -3
100
AcDbVertex
100
AcDb2dVertex
 10
-396.5110476329278
 20
-1869.254369495227
 30
0.0
  0
VERTEX
  5
333
330
30F
100
AcDbEntity
  8
Graypants_Drum36
 62
    36
420
  8866048
370
    -3
100
AcDbVertex
100
AcDb2dVertex
 10
-396.5406058861672
 20
-1869.215509793329
 30
0.0
  0
VERTEX
  5
334
330
30F
100
AcDbEntity
  8
Graypants_Drum36
 62
    36
420
  8866048
370
    -3
100
AcDbVertex
100
AcDb2dVertex
 10
-396.5692557212221
 20
-1869.175820809241
 30
0.0
  0
VERTEX
  5
335
330
30F
100
AcDbEntity
  8
Graypants_Drum36
 62
    36
420
  8866048
370
    -3
100
AcDbVertex
100
AcDb2dVertex
 10
-396.5969716392876
 20
-1869.135345181984
 30
0.0
  0
VERTEX
  5
336
330
30F
100
AcDbEntity
  8
Graypants_Drum36
 62
    36
420
  8866048
370
    -3
100
AcDbVertex
100
AcDb2dVertex
 10
-396.6237301439477
 20
-1869.094126895488
 30
0.0
  0
VERTEX
  5
337
330
30F
100
AcDbEntity
  8
Graypants_Drum36
 62
    36
420
  8866048
370
    -3
100
AcDbVertex
100
AcDb2dVertex
 10
-396.6495098042976
 20
-1869.052211122347
 30
0.0
  0
VERTEX
  5
338
330
30F
100
AcDbEntity
  8
Graypants_Drum36
 62
    36
420
  8866048
370
    -3
100
AcDbVertex
100
AcDb2dVertex
 10
-396.6742913071642
 20
-1869.009644063213
 30
0.0
  0
VERTEX
  5
339
330
30F
100
AcDbEntity
  8
Graypants_Drum36
 62
    36
420
  8866048
370
    -3
100
AcDbVertex
100
AcDb2dVertex
 10
-396.6980574982043
 20
-1868.966472782998
 30
0.0
  0
VERTEX
  5
33A
330
30F
100
AcDbEntity
  8
Graypants_Drum36
 62
    36
420
  8866048
370
    -3
100
AcDbVertex
100
AcDb2dVertex
 10
-396.7207934117596
 20
-1868.922745045081
 30
0.0
  0
VERTEX
  5
33B
330
30F
100
AcDbEntity
  8
Graypants_Drum36
 62
    36
420
  8866048
370
    -3
100
AcDbVertex
100
AcDb2dVertex
 10
-396.7424862894599
 20
-1868.878509144679
 30
0.0
  0
VERTEX
  5
33C
330
30F
100
AcDbEntity
  8
Graypants_Drum36
 62
    36
420
  8866048
370
    -3
100
AcDbVertex
100
AcDb2dVertex
 10
-396.7631255876619
 20
-1868.833813742555
 30
0.0
  0
VERTEX
  5
33D
330
30F
100
AcDbEntity
  8
Graypants_Drum36
 62
    36
420
  8866048
370
    -3
100
AcDbVertex
100
AcDb2dVertex
 10
-396.7827029739193
 20
-1868.788707700191
 30
0.0
  0
VERTEX
  5
33E
330
30F
100
AcDbEntity
  8
Graypants_Drum36
 62
    36
420
  8866048
370
    -3
100
AcDbVertex
100
AcDb2dVertex
 10
-396.801212312764
 20
-1868.743239917512
 30
0.0
  0
VERTEX
  5
33F
330
30F
100
AcDbEntity
  8
Graypants_Drum36
 62
    36
420
  8866048
370
    -3
100
AcDbVertex
100
AcDb2dVertex
 10
-396.8186496411788
 20
-1868.697459174202
 30
0.0
  0
VERTEX
  5
340
330
30F
100
AcDbEntity
  8
Graypants_Drum36
 62
    36
420
  8866048
370
    -3
100
AcDbVertex
100
AcDb2dVertex
 10
-396.835013134212
 20
-1868.651413975567
 30
0.0
  0
VERTEX
  5
341
330
30F
100
AcDbEntity
  8
Graypants_Drum36
 62
    36
420
  8866048
370
    -3
100
AcDbVertex
100
AcDb2dVertex
 10
-396.8503030612657
 20
-1868.605152403859
 30
0.0
  0
VERTEX
  5
342
330
30F
100
AcDbEntity
  8
Graypants_Drum36
 62
    36
420
  8866048
370
    -3
100
AcDbVertex
100
AcDb2dVertex
 10
-396.8645217336487
 20
-1868.558721975873
 30
0.0
  0
VERTEX
  5
343
330
30F
100
AcDbEntity
  8
Graypants_Drum36
 62
    36
420
  8866048
370
    -3
100
AcDbVertex
100
AcDb2dVertex
 10
-396.877673444042
 20
-1868.512169507535
 30
0.0
  0
VERTEX
  5
344
330
30F
100
AcDbEntity
  8
Graypants_Drum36
 62
    36
420
  8866048
370
    -3
100
AcDbVertex
100
AcDb2dVertex
 10
-396.8897643985698
 20
-1868.465540986133
 30
0.0
  0
VERTEX
  5
345
330
30F
100
AcDbEntity
  8
Graypants_Drum36
 62
    36
420
  8866048
370
    -3
100
AcDbVertex
100
AcDb2dVertex
 10
-396.9008026422032
 20
-1868.41888145074
 30
0.0
  0
VERTEX
  5
346
330
30F
100
AcDbEntity
  8
Graypants_Drum36
 62
    36
420
  8866048
370
    -3
100
AcDbVertex
100
AcDb2dVertex
 10
-396.9107979782505
 20
-1868.372234881256
 30
0.0
  0
VERTEX
  5
347
330
30F
100
AcDbEntity
  8
Graypants_Drum36
 62
    36
420
  8866048
370
    -3
100
AcDbVertex
100
AcDb2dVertex
 10
-396.9197618827023
 20
-1868.325644096454
 30
0.0
  0
VERTEX
  5
348
330
30F
100
AcDbEntity
  8
Graypants_Drum36
 62
    36
420
  8866048
370
    -3
100
AcDbVertex
100
AcDb2dVertex
 10
-396.9277074142079
 20
-1868.279150661267
 30
0.0
  0
VERTEX
  5
349
330
30F
100
AcDbEntity
  8
Graypants_Drum36
 62
    36
420
  8866048
370
    -3
100
AcDbVertex
100
AcDb2dVertex
 10
-396.9346491204533
 20
-1868.232794803492
 30
0.0
  0
VERTEX
  5
34A
330
30F
100
AcDbEntity
  8
Graypants_Drum36
 62
    36
420
  8866048
370
    -3
100
AcDbVertex
100
AcDb2dVertex
 10
-396.9406029417072
 20
-1868.186615339996
 30
0.0
  0
VERTEX
  5
34B
330
30F
100
AcDbEntity
  8
Graypants_Drum36
 62
    36
420
  8866048
370
    -3
100
AcDbVertex
100
AcDb2dVertex
 10
-396.9455861122751
 20
-1868.14064961241
 30
0.0
  0
VERTEX
  5
34C
330
30F
100
AcDbEntity
  8
Graypants_Drum36
 62
    36
420
  8866048
370
    -3
100
AcDbVertex
100
AcDb2dVertex
 10
-396.9496170605833
 20
-1868.094933432238
 30
0.0
  0
VERTEX
  5
34D
330
30F
100
AcDbEntity
  8
Graypants_Drum36
 62
    36
420
  8866048
370
    -3
100
AcDbVertex
100
AcDb2dVertex
 10
-396.9527153085797
 20
-1868.049501035221
 30
0.0
  0
VERTEX
  5
34E
330
30F
100
AcDbEntity
  8
Graypants_Drum36
 62
    36
420
  8866048
370
    -3
100
AcDbVertex
100
AcDb2dVertex
 10
-396.9549013711039
 20
-1868.004385044739
 30
0.0
  0
VERTEX
  5
34F
330
30F
100
AcDbEntity
  8
Graypants_Drum36
 62
    36
420
  8866048
370
    -3
100
AcDbVertex
100
AcDb2dVertex
 10
-396.9561966558383
 20
-1867.959616443966
 30
0.0
  0
VERTEX
  5
350
330
30F
100
AcDbEntity
  8
Graypants_Drum36
 62
    36
420
  8866048
370
    -3
100
AcDbVertex
100
AcDb2dVertex
 10
-396.9566233644073
 20
-1867.915224556442
 30
0.0
  0
SEQEND
  5
351
330
30F
100
AcDbEntity
  8
Graypants_Drum36
 62
    36
420
  8866048
370
    -3
  0
POLYLINE
  5
352
330
1F
100
AcDbEntity
  8
Graypants_Drum36
 62
    36
420
  8866048
370
    -3
100
AcDb2dPolyline
 66
     1
 10
0.0
 20
0.0
 30
0.0
  0
VERTEX
  5
353
330
352
100
AcDbEntity
  8
Graypants_Drum36
 62
    36
420
  8866048
370
    -3
100
AcDbVertex
100
AcDb2dVertex
 10
-393.724572564799
 20
-1869.915224556442
 30
0.0
  0
VERTEX
  5
354
330
352
100
AcDbEntity
  8
Graypants_Drum36
 62
    36
420
  8866048
370
    -3
100
AcDbVertex
100
AcDb2dVertex
 10
-393.7630170672266
 20
-1869.91473183583
 30
0.0
  0
VERTEX
  5
355
330
352
100
AcDbEntity
  8
Graypants_Drum36
 62
    36
420
  8866048
370
    -3
100
AcDbVertex
100
AcDb2dVertex
 10
-393.8017878129003
 20
-1869.913236169853
 30
0.0
  0
VERTEX
  5
356
330
352
100
AcDbEntity
  8
Graypants_Drum36
 62
    36
420
  8866048
370
    -3
100
AcDbVertex
100
AcDb2dVertex
 10
-393.8408594068866
 20
-1869.910711922287
 30
0.0
  0
VERTEX
  5
357
330
352
100
AcDbEntity
  8
Graypants_Drum36
 62
    36
420
  8866048
370
    -3
100
AcDbVertex
100
AcDb2dVertex
 10
-393.8802050169709
 20
-1869.907134373668
 30
0.0
  0
VERTEX
  5
358
330
352
100
AcDbEntity
  8
Graypants_Drum36
 62
    36
420
  8866048
370
    -3
100
AcDbVertex
100
AcDb2dVertex
 10
-393.9197963904779
 20
-1869.9024798355
 30
0.0
  0
VERTEX
  5
359
330
352
100
AcDbEntity
  8
Graypants_Drum36
 62
    36
420
  8866048
370
    -3
100
AcDbVertex
100
AcDb2dVertex
 10
-393.9596038783856
 20
-1869.896725765779
 30
0.0
  0
VERTEX
  5
35A
330
352
100
AcDbEntity
  8
Graypants_Drum36
 62
    36
420
  8866048
370
    -3
100
AcDbVertex
100
AcDb2dVertex
 10
-393.9995964670211
 20
-1869.889850885191
 30
0.0
  0
VERTEX
  5
35B
330
352
100
AcDbEntity
  8
Graypants_Drum36
 62
    36
420
  8866048
370
    -3
100
AcDbVertex
100
AcDb2dVertex
 10
-394.0397418175835
 20
-1869.881835293276
 30
0.0
  0
VERTEX
  5
35C
330
352
100
AcDbEntity
  8
Graypants_Drum36
 62
    36
420
  8866048
370
    -3
100
AcDbVertex
100
AcDb2dVertex
 10
-394.0800063136803
 20
-1869.872660583795
 30
0.0
  0
VERTEX
  5
35D
330
352
100
AcDbEntity
  8
Graypants_Drum36
 62
    36
420
  8866048
370
    -3
100
AcDbVertex
100
AcDb2dVertex
 10
-394.120355117017
 20
-1869.862309958528
 30
0.0
  0
VERTEX
  5
35E
330
352
100
AcDbEntity
  8
Graypants_Drum36
 62
    36
420
  8866048
370
    -3
100
AcDbVertex
100
AcDb2dVertex
 10
-394.1607522313058
 20
-1869.850768338647
 30
0.0
  0
VERTEX
  5
35F
330
352
100
AcDbEntity
  8
Graypants_Drum36
 62
    36
420
  8866048
370
    -3
100
AcDbVertex
100
AcDb2dVertex
 10
-394.2011605744017
 20
-1869.838022472817
 30
0.0
  0
VERTEX
  5
360
330
352
100
AcDbEntity
  8
Graypants_Drum36
 62
    36
420
  8866048
370
    -3
100
AcDbVertex
100
AcDb2dVertex
 10
-394.2415420585923
 20
-1869.824061041154
 30
0.0
  0
VERTEX
  5
361
330
352
100
AcDbEntity
  8
Graypants_Drum36
 62
    36
420
  8866048
370
    -3
100
AcDbVertex
100
AcDb2dVertex
 10
-394.2818576788982
 20
-1869.808874754126
 30
0.0
  0
VERTEX
  5
362
330
352
100
AcDbEntity
  8
Graypants_Drum36
 62
    36
420
  8866048
370
    -3
100
AcDbVertex
100
AcDb2dVertex
 10
-394.3220676091581
 20
-1869.792456445517
 30
0.0
  0
VERTEX
  5
363
330
352
100
AcDbEntity
  8
Graypants_Drum36
 62
    36
420
  8866048
370
    -3
100
AcDbVertex
100
AcDb2dVertex
 10
-394.362131305591
 20
-1869.774801158568
 30
0.0
  0
VERTEX
  5
364
330
352
100
AcDbEntity
  8
Graypants_Drum36
 62
    36
420
  8866048
370
    -3
100
AcDbVertex
100
AcDb2dVertex
 10
-394.4020076174465
 20
-1869.755906224407
 30
0.0
  0
VERTEX
  5
365
330
352
100
AcDbEntity
  8
Graypants_Drum36
 62
    36
420
  8866048
370
    -3
100
AcDbVertex
100
AcDb2dVertex
 10
-394.4416549042713
 20
-1869.735771331956
 30
0.0
  0
VERTEX
  5
366
330
352
100
AcDbEntity
  8
Graypants_Drum36
 62
    36
420
  8866048
370
    -3
100
AcDbVertex
100
AcDb2dVertex
 10
-394.4810311592375
 20
-1869.714398588489
 30
0.0
  0
VERTEX
  5
367
330
352
100
AcDbEntity
  8
Graypants_Drum36
 62
    36
420
  8866048
370
    -3
100
AcDbVertex
100
AcDb2dVertex
 10
-394.5200941379014
 20
-1869.691792570102
 30
0.0
  0
VERTEX
  5
368
330
352
100
AcDbEntity
  8
Graypants_Drum36
 62
    36
420
  8866048
370
    -3
100
AcDbVertex
100
AcDb2dVertex
 10
-394.5588014916847
 20
-1869.667960361425
 30
0.0
  0
VERTEX
  5
369
330
352
100
AcDbEntity
  8
Graypants_Drum36
 62
    36
420
  8866048
370
    -3
100
AcDbVertex
100
AcDb2dVertex
 10
-394.5971109053023
 20
-1869.642911583938
 30
0.0
  0
VERTEX
  5
36A
330
352
100
AcDbEntity
  8
Graypants_Drum36
 62
    36
420
  8866048
370
    -3
100
AcDbVertex
100
AcDb2dVertex
 10
-394.6349802372974
 20
-1869.616658412391
 30
0.0
  0
VERTEX
  5
36B
330
352
100
AcDbEntity
  8
Graypants_Drum36
 62
    36
420
  8866048
370
    -3
100
AcDbVertex
100
AcDb2dVertex
 10
-394.6723676627848
 20
-1869.58921557888
 30
0.0
  0
VERTEX
  5
36C
330
352
100
AcDbEntity
  8
Graypants_Drum36
 62
    36
420
  8866048
370
    -3
100
AcDbVertex
100
AcDb2dVertex
 10
-394.7092318174659
 20
-1869.56060036426
 30
0.0
  0
VERTEX
  5
36D
330
352
100
AcDbEntity
  8
Graypants_Drum36
 62
    36
420
  8866048
370
    -3
100
AcDbVertex
100
AcDb2dVertex
 10
-394.7455319419294
 20
-1869.53083257666
 30
0.0
  0
VERTEX
  5
36E
330
352
100
AcDbEntity
  8
Graypants_Drum36
 62
    36
420
  8866048
370
    -3
100
AcDbVertex
100
AcDb2dVertex
 10
-394.781228025238
 20
-1869.499934517012
 30
0.0
  0
VERTEX
  5
36F
330
352
100
AcDbEntity
  8
Graypants_Drum36
 62
    36
420
  8866048
370
    -3
100
AcDbVertex
100
AcDb2dVertex
 10
-394.8162809467775
 20
-1869.467930931593
 30
0.0
  0
VERTEX
  5
370
330
352
100
AcDbEntity
  8
Graypants_Drum36
 62
    36
420
  8866048
370
    -3
100
AcDbVertex
100
AcDb2dVertex
 10
-394.8506526153462
 20
-1869.434848951725
 30
0.0
  0
VERTEX
  5
371
330
352
100
AcDbEntity
  8
Graypants_Drum36
 62
    36
420
  8866048
370
    -3
100
AcDbVertex
100
AcDb2dVertex
 10
-394.8843061044708
 20
-1869.400718020895
 30
0.0
  0
VERTEX
  5
372
330
352
100
AcDbEntity
  8
Graypants_Drum36
 62
    36
420
  8866048
370
    -3
100
AcDbVertex
100
AcDb2dVertex
 10
-394.9172057829562
 20
-1869.365569809652
 30
0.0
  0
VERTEX
  5
373
330
352
100
AcDbEntity
  8
Graypants_Drum36
 62
    36
420
  8866048
370
    -3
100
AcDbVertex
100
AcDb2dVertex
 10
-394.9493174397127
 20
-1869.329438118816
 30
0.0
  0
VERTEX
  5
374
330
352
100
AcDbEntity
  8
Graypants_Drum36
 62
    36
420
  8866048
370
    -3
100
AcDbVertex
100
AcDb2dVertex
 10
-394.9806084019481
 20
-1869.292358771577
 30
0.0
  0
VERTEX
  5
375
330
352
100
AcDbEntity
  8
Graypants_Drum36
 62
    36
420
  8866048
370
    -3
100
AcDbVertex
100
AcDb2dVertex
 10
-395.0110476458694
 20
-1869.254369495227
 30
0.0
  0
VERTEX
  5
376
330
352
100
AcDbEntity
  8
Graypants_Drum36
 62
    36
420
  8866048
370
    -3
100
AcDbVertex
100
AcDb2dVertex
 10
-395.0406058991088
 20
-1869.215509793329
 30
0.0
  0
VERTEX
  5
377
330
352
100
AcDbEntity
  8
Graypants_Drum36
 62
    36
420
  8866048
370
    -3
100
AcDbVertex
100
AcDb2dVertex
 10
-395.0692557341638
 20
-1869.175820809241
 30
0.0
  0
VERTEX
  5
378
330
352
100
AcDbEntity
  8
Graypants_Drum36
 62
    36
420
  8866048
370
    -3
100
AcDbVertex
100
AcDb2dVertex
 10
-395.0969716522292
 20
-1869.135345181984
 30
0.0
  0
VERTEX
  5
379
330
352
100
AcDbEntity
  8
Graypants_Drum36
 62
    36
420
  8866048
370
    -3
100
AcDbVertex
100
AcDb2dVertex
 10
-395.1237301568893
 20
-1869.094126895488
 30
0.0
  0
VERTEX
  5
37A
330
352
100
AcDbEntity
  8
Graypants_Drum36
 62
    36
420
  8866048
370
    -3
100
AcDbVertex
100
AcDb2dVertex
 10
-395.1495098172392
 20
-1869.052211122347
 30
0.0
  0
VERTEX
  5
37B
330
352
100
AcDbEntity
  8
Graypants_Drum36
 62
    36
420
  8866048
370
    -3
100
AcDbVertex
100
AcDb2dVertex
 10
-395.1742913201059
 20
-1869.009644063213
 30
0.0
  0
VERTEX
  5
37C
330
352
100
AcDbEntity
  8
Graypants_Drum36
 62
    36
420
  8866048
370
    -3
100
AcDbVertex
100
AcDb2dVertex
 10
-395.198057511146
 20
-1868.966472782998
 30
0.0
  0
VERTEX
  5
37D
330
352
100
AcDbEntity
  8
Graypants_Drum36
 62
    36
420
  8866048
370
    -3
100
AcDbVertex
100
AcDb2dVertex
 10
-395.2207934247012
 20
-1868.922745045081
 30
0.0
  0
VERTEX
  5
37E
330
352
100
AcDbEntity
  8
Graypants_Drum36
 62
    36
420
  8866048
370
    -3
100
AcDbVertex
100
AcDb2dVertex
 10
-395.2424863024015
 20
-1868.878509144679
 30
0.0
  0
VERTEX
  5
37F
330
352
100
AcDbEntity
  8
Graypants_Drum36
 62
    36
420
  8866048
370
    -3
100
AcDbVertex
100
AcDb2dVertex
 10
-395.2631256006036
 20
-1868.833813742555
 30
0.0
  0
VERTEX
  5
380
330
352
100
AcDbEntity
  8
Graypants_Drum36
 62
    36
420
  8866048
370
    -3
100
AcDbVertex
100
AcDb2dVertex
 10
-395.282702986861
 20
-1868.788707700191
 30
0.0
  0
VERTEX
  5
381
330
352
100
AcDbEntity
  8
Graypants_Drum36
 62
    36
420
  8866048
370
    -3
100
AcDbVertex
100
AcDb2dVertex
 10
-395.3012123257056
 20
-1868.743239917512
 30
0.0
  0
VERTEX
  5
382
330
352
100
AcDbEntity
  8
Graypants_Drum36
 62
    36
420
  8866048
370
    -3
100
AcDbVertex
100
AcDb2dVertex
 10
-395.3186496541203
 20
-1868.697459174202
 30
0.0
  0
VERTEX
  5
383
330
352
100
AcDbEntity
  8
Graypants_Drum36
 62
    36
420
  8866048
370
    -3
100
AcDbVertex
100
AcDb2dVertex
 10
-395.3350131471536
 20
-1868.651413975567
 30
0.0
  0
VERTEX
  5
384
330
352
100
AcDbEntity
  8
Graypants_Drum36
 62
    36
420
  8866048
370
    -3
100
AcDbVertex
100
AcDb2dVertex
 10
-395.3503030742074
 20
-1868.605152403859
 30
0.0
  0
VERTEX
  5
385
330
352
100
AcDbEntity
  8
Graypants_Drum36
 62
    36
420
  8866048
370
    -3
100
AcDbVertex
100
AcDb2dVertex
 10
-395.3645217465904
 20
-1868.558721975873
 30
0.0
  0
VERTEX
  5
386
330
352
100
AcDbEntity
  8
Graypants_Drum36
 62
    36
420
  8866048
370
    -3
100
AcDbVertex
100
AcDb2dVertex
 10
-395.3776734569837
 20
-1868.512169507535
 30
0.0
  0
VERTEX
  5
387
330
352
100
AcDbEntity
  8
Graypants_Drum36
 62
    36
420
  8866048
370
    -3
100
AcDbVertex
100
AcDb2dVertex
 10
-395.3897644115115
 20
-1868.465540986133
 30
0.0
  0
VERTEX
  5
388
330
352
100
AcDbEntity
  8
Graypants_Drum36
 62
    36
420
  8866048
370
    -3
100
AcDbVertex
100
AcDb2dVertex
 10
-395.4008026551449
 20
-1868.41888145074
 30
0.0
  0
VERTEX
  5
389
330
352
100
AcDbEntity
  8
Graypants_Drum36
 62
    36
420
  8866048
370
    -3
100
AcDbVertex
100
AcDb2dVertex
 10
-395.4107979911921
 20
-1868.372234881256
 30
0.0
  0
VERTEX
  5
38A
330
352
100
AcDbEntity
  8
Graypants_Drum36
 62
    36
420
  8866048
370
    -3
100
AcDbVertex
100
AcDb2dVertex
 10
-395.419761895644
 20
-1868.325644096454
 30
0.0
  0
VERTEX
  5
38B
330
352
100
AcDbEntity
  8
Graypants_Drum36
 62
    36
420
  8866048
370
    -3
100
AcDbVertex
100
AcDb2dVertex
 10
-395.4277074271496
 20
-1868.279150661267
 30
0.0
  0
VERTEX
  5
38C
330
352
100
AcDbEntity
  8
Graypants_Drum36
 62
    36
420
  8866048
370
    -3
100
AcDbVertex
100
AcDb2dVertex
 10
-395.4346491333951
 20
-1868.232794803492
 30
0.0
  0
VERTEX
  5
38D
330
352
100
AcDbEntity
  8
Graypants_Drum36
 62
    36
420
  8866048
370
    -3
100
AcDbVertex
100
AcDb2dVertex
 10
-395.440602954649
 20
-1868.186615339996
 30
0.0
  0
VERTEX
  5
38E
330
352
100
AcDbEntity
  8
Graypants_Drum36
 62
    36
420
  8866048
370
    -3
100
AcDbVertex
100
AcDb2dVertex
 10
-395.4455861252168
 20
-1868.14064961241
 30
0.0
  0
VERTEX
  5
38F
330
352
100
AcDbEntity
  8
Graypants_Drum36
 62
    36
420
  8866048
370
    -3
100
AcDbVertex
100
AcDb2dVertex
 10
-395.449617073525
 20
-1868.094933432238
 30
0.0
  0
VERTEX
  5
390
330
352
100
AcDbEntity
  8
Graypants_Drum36
 62
    36
420
  8866048
370
    -3
100
AcDbVertex
100
AcDb2dVertex
 10
-395.4527153215215
 20
-1868.049501035221
 30
0.0
  0
VERTEX
  5
391
330
352
100
AcDbEntity
  8
Graypants_Drum36
 62
    36
420
  8866048
370
    -3
100
AcDbVertex
100
AcDb2dVertex
 10
-395.4549013840456
 20
-1868.004385044739
 30
0.0
  0
VERTEX
  5
392
330
352
100
AcDbEntity
  8
Graypants_Drum36
 62
    36
420
  8866048
370
    -3
100
AcDbVertex
100
AcDb2dVertex
 10
-395.45619666878
 20
-1867.959616443966
 30
0.0
  0
VERTEX
  5
393
330
352
100
AcDbEntity
  8
Graypants_Drum36
 62
    36
420
  8866048
370
    -3
100
AcDbVertex
100
AcDb2dVertex
 10
-395.4566233773489
 20
-1867.915224556442
 30
0.0
  0
SEQEND
  5
394
330
352
100
AcDbEntity
  8
Graypants_Drum36
 62
    36
420
  8866048
370
    -3
  0
LINE
  5
395
330
1F
100
AcDbEntity
  8
Graypants_Drum36
 62
    36
420
  8866048
370
    -3
100
AcDbLine
 10
-7.937499999999545
 20
-1525.071024442971
 30
0.0
 11
-7.937499999999545
 21
-1522.602724556444
 31
0.0
  0
ARC
  5
396
330
1F
100
AcDbEntity
  8
Graypants_Drum36
 62
    36
420
  8866048
370
    -3
100
AcDbCircle
 10
0.0005981878753206
 20
-1507.853482703971
 30
0.0
 40
2.381687376734792
100
AcDbArc
 50
162.092530599977
 51
179.9927011990574
  0
ARC
  5
397
330
1F
100
AcDbEntity
  8
Graypants_Drum36
 62
    36
420
  8866048
370
    -3
100
AcDbCircle
 10
-0.0029403575578417
 20
-1507.852340560571
 30
0.0
 40
3.970926771719516
210
0.0
220
0.0
230
-1.0
100
AcDbArc
 50
306.8993795086734
 51
31.7556927259228
  0
ARC
  5
398
330
1F
100
AcDbEntity
  8
Graypants_Drum36
 62
    36
420
  8866048
370
    -3
100
AcDbCircle
 10
-4.76325506205005
 20
-1521.020566401509
 30
0.0
 40
7.688841882139063
210
0.0
220
0.0
230
-1.0
100
AcDbArc
 50
71.96576362332739
 51
89.99437342197234
  0
ARC
  5
399
330
1F
100
AcDbEntity
  8
Graypants_Drum36
 62
    36
420
  8866048
370
    -3
100
AcDbCircle
 10
6.350000000000364
 20
-1522.602724556443
 30
0.0
 40
1.587499999999181
210
0.0
220
0.0
230
-1.0
100
AcDbArc
 50
359.9999999999754
 51
90.00000000001641
  0
ARC
  5
39A
330
1F
100
AcDbEntity
  8
Graypants_Drum36
 62
    36
420
  8866048
370
    -3
100
AcDbCircle
 10
6.350000000000591
 20
-1522.602724556444
 30
0.0
 40
1.587499999999864
100
AcDbArc
 50
0.0
 51
90.00000000000821
  0
LINE
  5
39B
330
1F
100
AcDbEntity
  8
Graypants_Drum36
 62
    36
420
  8866048
370
    -3
100
AcDbLine
 10
7.937500000000455
 20
-1522.602724556444
 30
0.0
 11
7.937500000000455
 21
-1525.070390392466
 31
0.0
  0
LINE
  5
39C
330
1F
100
AcDbEntity
  8
Graypants_Drum36
 62
    36
420
  8866048
370
    -3
100
AcDbLine
 10
1.499999999896305
 20
-1865.871024442971
 30
0.0
 11
1.499999999895863
 21
-1868.183406374627
 31
0.0
  0
LINE
  5
39D
330
1F
100
AcDbEntity
  8
Graypants_Drum36
 62
    36
420
  8866048
370
    -3
100
AcDbLine
 10
-1.500000000104078
 20
-1865.871024442971
 30
0.0
 11
-1.500000000104137
 21
-1868.183406374627
 31
0.0
  0
ARC
  5
39E
330
1F
100
AcDbEntity
  8
Graypants_Drum36
 62
    36
420
  8866048
370
    -3
100
AcDbCircle
 10
13.49404171478766
 20
-1499.490401367547
 30
0.0
 40
13.49417753553587
210
0.0
220
0.0
230
-1.0
100
AcDbArc
 50
180.256807606315
 51
211.6924423552311
  0
LINE
  5
39F
330
1F
100
AcDbEntity
  8
Graypants_Drum36
 62
    36
420
  8866048
370
    -3
100
AcDbLine
 10
-1.587620121119926
 20
-1493.144219123207
 30
0.0
 11
-1.587750000000142
 21
-808.5245587749973
 31
0.0
  0
ARC
  5
3A0
330
1F
100
AcDbEntity
  8
Graypants_Drum36
 62
    36
420
  8866048
370
    -3
100
AcDbCircle
 10
13.49376320990029
 20
-1499.490498135201
 30
0.0
 40
11.90614607301861
100
AcDbArc
 50
180.0179064584964
 51
211.7883223171568
  0
LINE
  5
3A1
330
1F
100
AcDbEntity
  8
Graypants_Drum36
 62
    36
420
  8866048
370
    -3
100
AcDbLine
 10
1.587500000000091
 20
-1491.553004292866
 30
0.0
 11
0.0
 21
-1491.553004292866
 31
0.0
  0
ARC
  5
3A2
330
1F
100
AcDbEntity
  8
Graypants_Drum36
 62
    36
420
  8866048
370
    -3
100
AcDbCircle
 10
-13.49376333399682
 20
-1499.490498755035
 30
0.0
 40
11.90614551032441
100
AcDbArc
 50
328.2116805328261
 51
359.9820965234774
  0
ARC
  5
3A3
330
1F
100
AcDbEntity
  8
Graypants_Drum36
 62
    36
420
  8866048
370
    -3
100
AcDbCircle
 10
0.0028999181203122
 20
-1507.852343867972
 30
0.0
 40
3.970893785162491
210
0.0
220
0.0
230
-1.0
100
AcDbArc
 50
148.2439596044979
 51
233.0587990483991
  0
LINE
  5
3A4
330
1F
100
AcDbEntity
  8
Graypants_Drum36
 62
    36
420
  8866048
370
    -3
100
AcDbLine
 10
1.587500000000091
 20
-1491.553004292866
 30
0.0
 11
1.5875123500482
 21
-1493.144219123007
 31
0.0
  0
LINE
  5
3A5
330
1F
100
AcDbEntity
  8
Graypants_Drum36
 62
    36
420
  8866048
370
    -3
100
AcDbLine
 10
12.44600000000037
 20
-808.5245587749973
 30
0.0
 11
12.44600000000037
 21
-1511.490224556435
 31
0.0
  0
LINE
  5
3A6
330
1F
100
AcDbEntity
  8
Graypants_Drum36
 62
    36
420
  8866048
370
    -3
100
AcDbLine
 10
6.604000000000269
 20
-1511.490224556435
 30
0.0
 11
6.604000000000269
 21
-808.5245587749973
 31
0.0
  0
ARC
  5
3A7
330
1F
100
AcDbEntity
  8
Graypants_Drum36
 62
    36
420
  8866048
370
    -3
100
AcDbCircle
 10
-4.762499999943088
 20
-1511.490224556387
 30
0.0
 40
7.683500000057279
210
0.0
220
0.0
230
-1.0
100
AcDbArc
 50
180.0000000003561
 51
269.9999999995736
  0
ARC
  5
3A8
330
1F
100
AcDbEntity
  8
Graypants_Drum36
 62
    36
420
  8866048
370
    -3
100
AcDbCircle
 10
4.762499999985835
 20
-1511.49022455643
 30
0.0
 40
1.841500000014776
100
AcDbArc
 50
270.0000000004563
 51
359.9999999998373
  0
ARC
  5
3A9
330
1F
100
AcDbEntity
  8
Graypants_Drum36
 62
    36
420
  8866048
370
    -3
100
AcDbCircle
 10
4.762500000013366
 20
-1521.015224556457
 30
0.0
 40
1.841500000012957
100
AcDbArc
 50
90.0000000004074
 51
179.9999999995968
  0
ARC
  5
3AA
330
1F
100
AcDbEntity
  8
Graypants_Drum36
 62
    36
420
  8866048
370
    -3
100
AcDbCircle
 10
-4.767891838492966
 20
-1521.016182958704
 30
0.0
 40
7.68889189822408
210
0.0
220
0.0
230
-1.0
100
AcDbArc
 50
0.0071417839473017
 51
21.59613438624984
  0
LINE
  5
3AB
330
1F
100
AcDbEntity
  8
Graypants_Drum36
 62
    36
420
  8866048
370
    -3
100
AcDbLine
 10
461.3734783155592
 20
-1525.071024442971
 30
0.0
 11
461.3734783155592
 21
-1865.871024442971
 31
0.0
  0
LINE
  5
3AC
330
1F
100
AcDbEntity
  8
Graypants_Drum36
 62
    36
420
  8866048
370
    -3
100
AcDbLine
 10
-461.3734783155584
 20
-1865.871024442971
 30
0.0
 11
-461.3734783155584
 21
-1525.071024442971
 31
0.0
  0
LINE
  5
3AD
330
1F
100
AcDbEntity
  8
Graypants_Drum36
 62
    36
420
  8866048
370
    -3
100
AcDbLine
 10
-2.38125000000043
 20
-1499.494219123184
 30
0.0
 11
-2.38125000000043
 21
-1493.144219123184
 31
0.0
  0
LINE
  5
3AE
330
1F
100
AcDbEntity
  8
Graypants_Drum36
 62
    36
420
  8866048
370
    -3
100
AcDbLine
 10
2.381249999999871
 20
-1493.144219123184
 30
0.0
 11
2.381249999999871
 21
-1499.494219123184
 31
0.0
  0
LINE
  5
3AF
330
1F
100
AcDbEntity
  8
Graypants_Drum36
 62
    36
420
  8866048
370
    -3
100
AcDbLine
 10
1.499999999894953
 20
-1869.915224556446
 30
0.0
 11
-1.500000000105047
 21
-1869.915224556446
 31
0.0
  0
LINE
  5
3B0
330
1F
100
AcDbEntity
  8
Graypants_Drum36
 62
    36
420
  8866048
370
    -3
100
AcDbLine
 10
1.499999999895863
 20
-1868.183406374627
 30
0.0
 11
1.499999999894953
 21
-1869.915224556446
 31
0.0
  0
LINE
  5
3B1
330
1F
100
AcDbEntity
  8
Graypants_Drum36
 62
    36
420
  8866048
370
    -3
100
AcDbLine
 10
-1.500000000104137
 20
-1868.183406374627
 30
0.0
 11
-1.500000000105047
 21
-1869.915224556446
 31
0.0
  0
ENDSEC
  0
SECTION
  2
OBJECTS
  0
DICTIONARY
  5
C
330
0
100
AcDbDictionary
281
     1
  3
ACAD_DETAILVIEWSTYLE
350
3ED
  3
ACAD_GROUP
350
D
  3
ACAD_LAYOUT
350
1A
  3
ACAD_MATERIAL
350
43
  3
ACAD_MLEADERSTYLE
350
6B
  3
ACAD_MLINESTYLE
350
17
  3
ACAD_PLOTSETTINGS
350
19
  3
ACAD_PLOTSTYLENAME
350
E
  3
ACAD_SCALELIST
350
47
  3
ACAD_SECTIONVIEWSTYLE
350
3EE
  3
ACAD_TABLESTYLE
350
69
  3
ACAD_VISUALSTYLE
350
2A
  3
AcDbVariableDictionary
350
3B2
  3
ACDB_RECOMPOSE_DATA
350
3EA
  0
SUN
  5
6D
330
29
100
AcDbSun
 90
        1
290
     0
 63
     7
421
 16777215
 40
1.0
291
     1
 91
  2455826
 92
 54000000
292
     0
 70
     2
 71
   256
280
     1
  0
DICTIONARY
  5
3ED
102
{ACAD_REACTORS
330
C
102
}
330
C
100
AcDbDictionary
281
     1
  0
DICTIONARY
  5
D
102
{ACAD_REACTORS
330
C
102
}
330
C
100
AcDbDictionary
281
     1
  0
DICTIONARY
  5
1A
102
{ACAD_REACTORS
330
C
102
}
330
C
100
AcDbDictionary
281
     1
  3
Layout1
350
1E
  3
Layout2
350
26
  3
Model
350
22
  0
DICTIONARY
  5
43
102
{ACAD_REACTORS
330
C
102
}
330
C
100
AcDbDictionary
281
     1
  3
ByBlock
350
45
  3
ByLayer
350
44
  3
Global
350
46
  0
DICTIONARY
  5
6B
102
{ACAD_REACTORS
330
C
102
}
330
C
100
AcDbDictionary
281
     1
  3
Standard
350
6C
  0
DICTIONARY
  5
17
102
{ACAD_REACTORS
330
C
102
}
330
C
100
AcDbDictionary
281
     1
  3
Standard
350
18
  0
DICTIONARY
  5
19
102
{ACAD_REACTORS
330
C
102
}
330
C
100
AcDbDictionary
281
     1
  0
ACDBDICTIONARYWDFLT
  5
E
102
{ACAD_REACTORS
330
C
102
}
330
C
100
AcDbDictionary
281
     1
  3
Normal
350
F
100
AcDbDictionaryWithDefault
340
F
  0
DICTIONARY
  5
47
102
{ACAD_REACTORS
330
C
102
}
330
C
100
AcDbDictionary
281
     1
  3
A0
350
48
  3
A1
350
49
  3
A2
350
4A
  3
A3
350
4B
  3
A4
350
4C
  3
A5
350
4D
  3
A6
350
4E
  3
A7
350
4F
  3
A8
350
50
  3
A9
350
51
  3
B0
350
52
  3
B1
350
53
  3
B2
350
54
  3
B3
350
55
  3
B4
350
56
  3
B5
350
57
  3
B6
350
58
  3
B7
350
59
  3
B8
350
5A
  3
B9
350
5B
  3
C0
350
5C
  3
C1
350
5D
  3
C2
350
5E
  3
C3
350
5F
  3
C4
350
60
  3
C5
350
61
  3
C6
350
62
  3
C7
350
63
  3
C8
350
64
  3
C9
350
65
  3
D0
350
66
  3
D1
350
67
  3
D2
350
68
  0
DICTIONARY
  5
3EE
102
{ACAD_REACTORS
330
C
102
}
330
C
100
AcDbDictionary
281
     1
  0
DICTIONARY
  5
69
102
{ACAD_REACTORS
330
C
102
}
330
C
100
AcDbDictionary
281
     1
  3
Standard
350
6A
  0
DICTIONARY
  5
2A
102
{ACAD_REACTORS
330
C
102
}
330
C
100
AcDbDictionary
281
     1
  3
2dWireframe
350
2F
  3
Basic
350
32
  3
Brighten
350
36
  3
ColorChange
350
3A
  3
Conceptual
350
34
  3
Dim
350
35
  3
EdgeColorOff
350
3D
  3
Facepattern
350
39
  3
Flat
350
2B
  3
FlatWithEdges
350
2C
  3
Gouraud
350
2D
  3
GouraudWithEdges
350
2E
  3
Hidden
350
31
  3
JitterOff
350
3B
  3
Linepattern
350
38
  3
OverhangOff
350
3C
  3
Realistic
350
33
  3
Shaded
350
42
  3
Shaded with edges
350
41
  3
Shades of Gray
350
3E
  3
Sketchy
350
3F
  3
Thicken
350
37
  3
Wireframe
350
30
  3
X-Ray
350
40
  0
DICTIONARY
  5
3B2
102
{ACAD_REACTORS
330
C
102
}
330
C
100
AcDbDictionary
281
     1
  3
CANNOSCALE
350
3B3
  3
CMLEADERSTYLE
350
3EC
  3
CTABLESTYLE
350
3EB
  3
XCLIPFRAME
350
3B4
  0
XRECORD
  5
3EA
102
{ACAD_REACTORS
330
C
102
}
330
C
100
AcDbXrecord
280
     1
 90
        1
330
6A
  0
LAYOUT
  5
1E
102
{ACAD_REACTORS
330
1A
102
}
330
1A
100
AcDbPlotSettings
  1

  2
none_device
  4

  6

 40
0.0
 41
0.0
 42
0.0
 43
0.0
 44
0.0
 45
0.0
 46
0.0
 47
0.0
 48
0.0
 49
0.0
140
0.0
141
0.0
142
1.0
143
1.0
 70
   688
 72
     0
 73
     0
 74
     5
  7

 75
    16
 76
     0
 77
     2
 78
   300
147
1.0
148
0.0
149
0.0
100
AcDbLayout
  1
Layout1
 70
     1
 71
     1
 10
0.0
 20
0.0
 11
12.0
 21
9.0
 12
0.0
 22
0.0
 32
0.0
 14
1.000000000000000E+20
 24
1.000000000000000E+20
 34
1.000000000000000E+20
 15
-1.000000000000000E+20
 25
-1.000000000000000E+20
 35
-1.000000000000000E+20
146
0.0
 13
0.0
 23
0.0
 33
0.0
 16
1.0
 26
0.0
 36
0.0
 17
0.0
 27
1.0
 37
0.0
 76
     0
330
1B
  0
LAYOUT
  5
26
102
{ACAD_REACTORS
330
1A
102
}
330
1A
100
AcDbPlotSettings
  1

  2
none_device
  4

  6

 40
0.0
 41
0.0
 42
0.0
 43
0.0
 44
0.0
 45
0.0
 46
0.0
 47
0.0
 48
0.0
 49
0.0
140
0.0
141
0.0
142
1.0
143
1.0
 70
   688
 72
     0
 73
     0
 74
     5
  7

 75
    16
 76
     0
 77
     2
 78
   300
147
1.0
148
0.0
149
0.0
100
AcDbLayout
  1
Layout2
 70
     1
 71
     2
 10
0.0
 20
0.0
 11
0.0
 21
0.0
 12
0.0
 22
0.0
 32
0.0
 14
0.0
 24
0.0
 34
0.0
 15
0.0
 25
0.0
 35
0.0
146
0.0
 13
0.0
 23
0.0
 33
0.0
 16
1.0
 26
0.0
 36
0.0
 17
0.0
 27
1.0
 37
0.0
 76
     0
330
23
  0
LAYOUT
  5
22
102
{ACAD_REACTORS
330
1A
102
}
330
1A
100
AcDbPlotSettings
  1

  2
none_device
  4
Letter_(8.50_x_11.00_Inches)
  6

 40
6.35
 41
6.35
 42
6.35000508
 43
6.35000508
 44
215.9
 45
279.4
 46
0.0
 47
0.0
 48
0.0
 49
0.0
140
0.0
141
0.0
142
1.0
143
1.0
 70
  1712
 72
     0
 73
     0
 74
     0
  7

 75
     0
 76
     0
 77
     2
 78
   300
147
1.0
148
0.0
149
0.0
100
AcDbLayout
  1
Model
 70
     1
 71
     0
 10
0.0
 20
0.0
 11
12.0
 21
9.0
 12
3804.693056528511
 22
1444.863951419895
 32
0.0
 14
1.000000000000000E+20
 24
1.000000000000000E+20
 34
1.000000000000000E+20
 15
-1.000000000000000E+20
 25
-1.000000000000000E+20
 35
-1.000000000000000E+20
146
0.0
 13
0.0
 23
0.0
 33
0.0
 16
1.0
 26
0.0
 36
0.0
 17
0.0
 27
1.0
 37
0.0
 76
     0
330
1F
331
29
  0
MATERIAL
  5
45
102
{ACAD_REACTORS
330
43
102
}
330
43
100
AcDbMaterial
  1
ByBlock
 72
     1
 94
      127
  0
MATERIAL
  5
44
102
{ACAD_REACTORS
330
43
102
}
330
43
100
AcDbMaterial
  1
ByLayer
 72
     1
 94
      127
  0
MATERIAL
  5
46
102
{ACAD_REACTORS
330
43
102
}
330
43
100
AcDbMaterial
  1
Global
 72
     1
 94
      127
  0
MLEADERSTYLE
  5
6C
102
{ACAD_REACTORS
330
6B
102
}
102
{ACAD_XDICTIONARY
360
3E8
102
}
330
6B
100
AcDbMLeaderStyle
170
     2
171
     1
172
     0
 90
        2
 40
0.0
 41
0.0
173
     1
 91
-1056964608
340
14
 92
       -2
290
     1
 42
0.09
291
     1
 43
0.36
  3
Standard
341
0
 44
0.18
300

342
11
174
     1
178
     6
175
     1
176
     0
 93
-1056964608
 45
0.18
292
     0
297
     0
 46
0.18
343
0
 94
-1056964608
 47
1.0
 49
1.0
140
1.0
293
     1
141
0.0
294
     1
177
     0
142
1.0
295
     0
296
     0
143
0.125
1001
ACAD_MLEADERVER
1070
     2
  0
MLINESTYLE
  5
18
102
{ACAD_REACTORS
330
17
102
}
330
17
100
AcDbMlineStyle
  2
Standard
 70
     0
  3

 62
   256
 51
90.0
 52
90.0
 71
     2
 49
0.5
 62
   256
  6
BYLAYER
 49
-0.5
 62
   256
  6
BYLAYER
  0
ACDBPLACEHOLDER
  5
F
102
{ACAD_REACTORS
330
E
102
}
330
E
  0
SCALE
  5
48
102
{ACAD_REACTORS
330
47
102
}
330
47
100
AcDbScale
 70
     0
300
1:1
140
1.0
141
1.0
290
     1
  0
SCALE
  5
49
102
{ACAD_REACTORS
330
47
102
}
330
47
100
AcDbScale
 70
     0
300
1:2
140
1.0
141
2.0
290
     0
  0
SCALE
  5
4A
102
{ACAD_REACTORS
330
47
102
}
330
47
100
AcDbScale
 70
     0
300
1:4
140
1.0
141
4.0
290
     0
  0
SCALE
  5
4B
102
{ACAD_REACTORS
330
47
102
}
330
47
100
AcDbScale
 70
     0
300
1:5
140
1.0
141
5.0
290
     0
  0
SCALE
  5
4C
102
{ACAD_REACTORS
330
47
102
}
330
47
100
AcDbScale
 70
     0
300
1:8
140
1.0
141
8.0
290
     0
  0
SCALE
  5
4D
102
{ACAD_REACTORS
330
47
102
}
330
47
100
AcDbScale
 70
     0
300
1:10
140
1.0
141
10.0
290
     0
  0
SCALE
  5
4E
102
{ACAD_REACTORS
330
47
102
}
330
47
100
AcDbScale
 70
     0
300
1:16
140
1.0
141
16.0
290
     0
  0
SCALE
  5
4F
102
{ACAD_REACTORS
330
47
102
}
330
47
100
AcDbScale
 70
     0
300
1:20
140
1.0
141
20.0
290
     0
  0
SCALE
  5
50
102
{ACAD_REACTORS
330
47
102
}
330
47
100
AcDbScale
 70
     0
300
1:30
140
1.0
141
30.0
290
     0
  0
SCALE
  5
51
102
{ACAD_REACTORS
330
47
102
}
330
47
100
AcDbScale
 70
     0
300
1:40
140
1.0
141
40.0
290
     0
  0
SCALE
  5
52
102
{ACAD_REACTORS
330
47
102
}
330
47
100
AcDbScale
 70
     0
300
1:50
140
1.0
141
50.0
290
     0
  0
SCALE
  5
53
102
{ACAD_REACTORS
330
47
102
}
330
47
100
AcDbScale
 70
     0
300
1:100
140
1.0
141
100.0
290
     0
  0
SCALE
  5
54
102
{ACAD_REACTORS
330
47
102
}
330
47
100
AcDbScale
 70
     0
300
2:1
140
2.0
141
1.0
290
     0
  0
SCALE
  5
55
102
{ACAD_REACTORS
330
47
102
}
330
47
100
AcDbScale
 70
     0
300
4:1
140
4.0
141
1.0
290
     0
  0
SCALE
  5
56
102
{ACAD_REACTORS
330
47
102
}
330
47
100
AcDbScale
 70
     0
300
8:1
140
8.0
141
1.0
290
     0
  0
SCALE
  5
57
102
{ACAD_REACTORS
330
47
102
}
330
47
100
AcDbScale
 70
     0
300
10:1
140
10.0
141
1.0
290
     0
  0
SCALE
  5
58
102
{ACAD_REACTORS
330
47
102
}
330
47
100
AcDbScale
 70
     0
300
100:1
140
100.0
141
1.0
290
     0
  0
SCALE
  5
59
102
{ACAD_REACTORS
330
47
102
}
330
47
100
AcDbScale
 70
     0
300
1/128" = 1'-0"
140
0.0078125
141
12.0
290
     0
  0
SCALE
  5
5A
102
{ACAD_REACTORS
330
47
102
}
330
47
100
AcDbScale
 70
     0
300
1/64" = 1'-0"
140
0.015625
141
12.0
290
     0
  0
SCALE
  5
5B
102
{ACAD_REACTORS
330
47
102
}
330
47
100
AcDbScale
 70
     0
300
1/32" = 1'-0"
140
0.03125
141
12.0
290
     0
  0
SCALE
  5
5C
102
{ACAD_REACTORS
330
47
102
}
330
47
100
AcDbScale
 70
     0
300
1/16" = 1'-0"
140
0.0625
141
12.0
290
     0
  0
SCALE
  5
5D
102
{ACAD_REACTORS
330
47
102
}
330
47
100
AcDbScale
 70
     0
300
3/32" = 1'-0"
140
0.09375
141
12.0
290
     0
  0
SCALE
  5
5E
102
{ACAD_REACTORS
330
47
102
}
330
47
100
AcDbScale
 70
     0
300
1/8" = 1'-0"
140
0.125
141
12.0
290
     0
  0
SCALE
  5
5F
102
{ACAD_REACTORS
330
47
102
}
330
47
100
AcDbScale
 70
     0
300
3/16" = 1'-0"
140
0.1875
141
12.0
290
     0
  0
SCALE
  5
60
102
{ACAD_REACTORS
330
47
102
}
330
47
100
AcDbScale
 70
     0
300
1/4" = 1'-0"
140
0.25
141
12.0
290
     0
  0
SCALE
  5
61
102
{ACAD_REACTORS
330
47
102
}
330
47
100
AcDbScale
 70
     0
300
3/8" = 1'-0"
140
0.375
141
12.0
290
     0
  0
SCALE
  5
62
102
{ACAD_REACTORS
330
47
102
}
330
47
100
AcDbScale
 70
     0
300
1/2" = 1'-0"
140
0.5
141
12.0
290
     0
  0
SCALE
  5
63
102
{ACAD_REACTORS
330
47
102
}
330
47
100
AcDbScale
 70
     0
300
3/4" = 1'-0"
140
0.75
141
12.0
290
     0
  0
SCALE
  5
64
102
{ACAD_REACTORS
330
47
102
}
330
47
100
AcDbScale
 70
     0
300
1" = 1'-0"
140
1.0
141
12.0
290
     0
  0
SCALE
  5
65
102
{ACAD_REACTORS
330
47
102
}
330
47
100
AcDbScale
 70
     0
300
1-1/2" = 1'-0"
140
1.5
141
12.0
290
     0
  0
SCALE
  5
66
102
{ACAD_REACTORS
330
47
102
}
330
47
100
AcDbScale
 70
     0
300
3" = 1'-0"
140
3.0
141
12.0
290
     0
  0
SCALE
  5
67
102
{ACAD_REACTORS
330
47
102
}
330
47
100
AcDbScale
 70
     0
300
6" = 1'-0"
140
6.0
141
12.0
290
     0
  0
SCALE
  5
68
102
{ACAD_REACTORS
330
47
102
}
330
47
100
AcDbScale
 70
     0
300
1'-0" = 1'-0"
140
12.0
141
12.0
290
     0
  0
TABLESTYLE
  5
6A
102
{ACAD_REACTORS
330
69
102
}
102
{ACAD_XDICTIONARY
360
3E5
102
}
330
69
100
AcDbTableStyle
  3
Standard
 70
     0
 71
     0
 40
0.06
 41
0.06
280
     0
281
     0
  7
Standard
140
0.18
170
     2
 62
     0
 63
   257
283
     0
 90
        4
 91
        0
  1

274
    -2
284
     1
 64
     0
275
    -2
285
     1
 65
     0
276
    -2
286
     1
 66
     0
277
    -2
287
     1
 67
     0
278
    -2
288
     1
 68
     0
279
    -2
289
     1
 69
     0
  7
Standard
140
0.25
170
     5
 62
     0
 63
   257
283
     0
 90
        4
 91
        0
  1

274
    -2
284
     1
 64
     0
275
    -2
285
     1
 65
     0
276
    -2
286
     1
 66
     0
277
    -2
287
     1
 67
     0
278
    -2
288
     1
 68
     0
279
    -2
289
     1
 69
     0
  7
Standard
140
0.18
170
     5
 62
     0
 63
   257
283
     0
 90
        4
 91
        0
  1

274
    -2
284
     1
 64
     0
275
    -2
285
     1
 65
     0
276
    -2
286
     1
 66
     0
277
    -2
287
     1
 67
     0
278
    -2
288
     1
 68
     0
279
    -2
289
     1
 69
     0
  0
VISUALSTYLE
  5
2F
102
{ACAD_REACTORS
330
2A
102
}
102
{ACAD_XDICTIONARY
360
3BD
102
}
330
2A
100
AcDbVisualStyle
  2
2dWireframe
 70
     4
 71
     0
 72
     2
 73
     0
 90
        0
 40
0.6
 41
30.0
 62
     5
 63
     7
421
 16777215
 74
     1
 91
        4
 64
     7
 65
   257
 75
     1
175
     1
 42
1.0
 92
        0
 66
   257
 43
1.0
 76
     1
 77
     6
 78
     2
 67
     7
 79
     5
170
     0
171
     0
290
     0
174
     0
 93
        1
 44
0.0
173
     0
291
     0
 45
0.0
  0
VISUALSTYLE
  5
32
102
{ACAD_REACTORS
330
2A
102
}
102
{ACAD_XDICTIONARY
360
3C3
102
}
330
2A
100
AcDbVisualStyle
  2
Basic
 70
     7
 71
     1
 72
     0
 73
     1
 90
        0
 40
0.6
 41
30.0
 62
     5
 63
     7
421
 16777215
 74
     0
 91
        4
 64
     7
 65
   257
 75
     1
175
     1
 42
1.0
 92
        8
 66
     7
 43
1.0
 76
     1
 77
     6
 78
     2
 67
     7
 79
     5
170
     0
171
     0
290
     0
174
     0
 93
        1
 44
0.0
173
     0
291
     1
 45
0.0
  0
VISUALSTYLE
  5
36
102
{ACAD_REACTORS
330
2A
102
}
102
{ACAD_XDICTIONARY
360
3CB
102
}
330
2A
100
AcDbVisualStyle
  2
Brighten
 70
    12
 71
     2
 72
     2
 73
     0
 90
        0
 40
0.6
 41
30.0
 62
     5
 63
     7
421
 16777215
 74
     1
 91
        4
 64
     7
 65
   257
 75
     1
175
     1
 42
1.0
 92
        8
 66
     7
 43
1.0
 76
     1
 77
     6
 78
     2
 67
     7
 79
     5
170
     0
171
     0
290
     0
174
     0
 93
        1
 44
50.0
173
     0
291
     1
 45
0.0
  0
VISUALSTYLE
  5
3A
102
{ACAD_REACTORS
330
2A
102
}
102
{ACAD_XDICTIONARY
360
3D3
102
}
330
2A
100
AcDbVisualStyle
  2
ColorChange
 70
    16
 71
     2
 72
     2
 73
     3
 90
        0
 40
0.6
 41
30.0
 62
     5
 63
     8
421
  8421504
 74
     1
 91
        4
 64
     7
 65
   257
 75
     1
175
     1
 42
1.0
 92
        8
 66
     8
424
  8421504
 43
1.0
 76
     1
 77
     6
 78
     2
 67
     7
 79
     5
170
     0
171
     0
290
     0
174
     0
 93
        1
 44
0.0
173
     0
291
     1
 45
0.0
  0
VISUALSTYLE
  5
34
102
{ACAD_REACTORS
330
2A
102
}
102
{ACAD_XDICTIONARY
360
3C7
102
}
330
2A
100
AcDbVisualStyle
  2
Conceptual
 70
     9
 71
     3
 72
     2
 73
     0
 90
        0
 40
0.6
 41
30.0
 62
     5
 63
     7
421
 16777215
 74
     2
 91
        2
 64
     7
 65
   257
 75
     1
175
     1
 42
179.0
 92
        8
 66
     7
 43
1.0
 76
     1
 77
     6
 78
     2
 67
     7
 79
     3
170
     0
171
     0
290
     0
174
     0
 93
        1
 44
0.0
173
     0
291
     0
 45
0.0
  0
VISUALSTYLE
  5
35
102
{ACAD_REACTORS
330
2A
102
}
102
{ACAD_XDICTIONARY
360
3C9
102
}
330
2A
100
AcDbVisualStyle
  2
Dim
 70
    11
 71
     2
 72
     2
 73
     0
 90
        0
 40
0.6
 41
30.0
 62
     5
 63
     7
421
 16777215
 74
     1
 91
        4
 64
     7
 65
   257
 75
     1
175
     1
 42
1.0
 92
        8
 66
     7
 43
1.0
 76
     1
 77
     6
 78
     2
 67
     7
 79
     5
170
     0
171
     0
290
     0
174
     0
 93
        1
 44
-50.0
173
     0
291
     1
 45
0.0
  0
VISUALSTYLE
  5
3D
102
{ACAD_REACTORS
330
2A
102
}
102
{ACAD_XDICTIONARY
360
3D9
102
}
330
2A
100
AcDbVisualStyle
  2
EdgeColorOff
 70
    22
 71
     2
 72
     2
 73
     0
 90
        0
 40
0.6
 41
30.0
 62
     5
 63
     7
421
 16777215
 74
     1
 91
        4
 64
     7
 65
   257
 75
     1
175
     1
 42
1.0
 92
        8
 66
     7
 43
1.0
 76
     1
 77
     6
 78
     2
 67
     7
 79
     5
170
     0
171
     0
290
     0
174
     0
 93
        1
 44
0.0
173
     0
291
     1
 45
0.0
  0
VISUALSTYLE
  5
39
102
{ACAD_REACTORS
330
2A
102
}
102
{ACAD_XDICTIONARY
360
3D1
102
}
330
2A
100
AcDbVisualStyle
  2
Facepattern
 70
    15
 71
     2
 72
     2
 73
     0
 90
        0
 40
0.6
 41
30.0
 62
     5
 63
     7
421
 16777215
 74
     1
 91
        4
 64
     7
 65
   257
 75
     1
175
     1
 42
1.0
 92
        8
 66
     7
 43
1.0
 76
     1
 77
     6
 78
     2
 67
     7
 79
     5
170
     0
171
     0
290
     0
174
     0
 93
        1
 44
0.0
173
     0
291
     1
 45
0.0
  0
VISUALSTYLE
  5
2B
102
{ACAD_REACTORS
330
2A
102
}
102
{ACAD_XDICTIONARY
360
3B5
102
}
330
2A
100
AcDbVisualStyle
  2
Flat
 70
     0
 71
     2
 72
     1
 73
     1
 90
        2
 40
0.6
 41
30.0
 62
     5
 63
     7
421
 16777215
 74
     0
 91
        0
 64
     7
 65
   257
 75
     1
175
     1
 42
1.0
 92
        8
 66
     7
 43
1.0
 76
     1
 77
     6
 78
     2
 67
     7
 79
     5
170
     0
171
     0
290
     0
174
     0
 93
       13
 44
0.0
173
     0
291
     1
 45
0.0
  0
VISUALSTYLE
  5
2C
102
{ACAD_REACTORS
330
2A
102
}
102
{ACAD_XDICTIONARY
360
3B7
102
}
330
2A
100
AcDbVisualStyle
  2
FlatWithEdges
 70
     1
 71
     2
 72
     1
 73
     1
 90
        2
 40
0.6
 41
30.0
 62
     5
 63
     7
421
 16777215
 74
     1
 91
        0
 64
     7
 65
   257
 75
     1
175
     1
 42
1.0
 92
        0
 66
   257
 43
1.0
 76
     1
 77
     6
 78
     2
 67
     7
 79
     5
170
     0
171
     0
290
     0
174
     0
 93
       13
 44
0.0
173
     0
291
     1
 45
0.0
  0
VISUALSTYLE
  5
2D
102
{ACAD_REACTORS
330
2A
102
}
102
{ACAD_XDICTIONARY
360
3B9
102
}
330
2A
100
AcDbVisualStyle
  2
Gouraud
 70
     2
 71
     2
 72
     2
 73
     1
 90
        2
 40
0.6
 41
30.0
 62
     5
 63
     7
421
 16777215
 74
     0
 91
        0
 64
     7
 65
   257
 75
     1
175
     1
 42
1.0
 92
        0
 66
     7
 43
1.0
 76
     1
 77
     6
 78
     2
 67
     7
 79
     5
170
     0
171
     0
290
     0
174
     0
 93
       13
 44
0.0
173
     0
291
     1
 45
0.0
  0
VISUALSTYLE
  5
2E
102
{ACAD_REACTORS
330
2A
102
}
102
{ACAD_XDICTIONARY
360
3BB
102
}
330
2A
100
AcDbVisualStyle
  2
GouraudWithEdges
 70
     3
 71
     2
 72
     2
 73
     1
 90
        2
 40
0.6
 41
30.0
 62
     5
 63
     7
421
 16777215
 74
     1
 91
        0
 64
     7
 65
   257
 75
     1
175
     1
 42
1.0
 92
        0
 66
   257
 43
1.0
 76
     1
 77
     6
 78
     2
 67
     7
 79
     5
170
     0
171
     0
290
     0
174
     0
 93
       13
 44
0.0
173
     0
291
     1
 45
0.0
  0
VISUALSTYLE
  5
31
102
{ACAD_REACTORS
330
2A
102
}
102
{ACAD_XDICTIONARY
360
3C1
102
}
330
2A
100
AcDbVisualStyle
  2
Hidden
 70
     6
 71
     1
 72
     2
 73
     2
 90
        0
 40
0.6
 41
30.0
 62
     5
 63
     7
421
 16777215
 74
     2
 91
        2
 64
     7
 65
   257
 75
     2
175
     1
 42
40.0
 92
        0
 66
   257
 43
1.0
 76
     1
 77
     6
 78
     2
 67
     7
 79
     3
170
     0
171
     0
290
     0
174
     0
 93
        1
 44
0.0
173
     0
291
     0
 45
0.0
  0
VISUALSTYLE
  5
3B
102
{ACAD_REACTORS
330
2A
102
}
102
{ACAD_XDICTIONARY
360
3D5
102
}
330
2A
100
AcDbVisualStyle
  2
JitterOff
 70
    20
 71
     2
 72
     2
 73
     0
 90
        0
 40
0.6
 41
30.0
 62
     5
 63
     7
421
 16777215
 74
     1
 91
        4
 64
     7
 65
   257
 75
     1
175
     1
 42
1.0
 92
       10
 66
     7
 43
1.0
 76
     1
 77
     6
 78
     2
 67
     7
 79
     5
170
     0
171
     0
290
     0
174
     0
 93
        1
 44
0.0
173
     0
291
     1
 45
0.0
  0
VISUALSTYLE
  5
38
102
{ACAD_REACTORS
330
2A
102
}
102
{ACAD_XDICTIONARY
360
3CF
102
}
330
2A
100
AcDbVisualStyle
  2
Linepattern
 70
    14
 71
     2
 72
     2
 73
     0
 90
        0
 40
0.6
 41
30.0
 62
     5
 63
     7
421
 16777215
 74
     1
 91
        4
 64
     7
 65
   257
 75
     7
175
     7
 42
1.0
 92
        8
 66
     7
 43
1.0
 76
     1
 77
     6
 78
     2
 67
     7
 79
     5
170
     0
171
     0
290
     0
174
     0
 93
        1
 44
0.0
173
     0
291
     1
 45
0.0
  0
VISUALSTYLE
  5
3C
102
{ACAD_REACTORS
330
2A
102
}
102
{ACAD_XDICTIONARY
360
3D7
102
}
330
2A
100
AcDbVisualStyle
  2
OverhangOff
 70
    21
 71
     2
 72
     2
 73
     0
 90
        0
 40
0.6
 41
30.0
 62
     5
 63
     7
421
 16777215
 74
     1
 91
        4
 64
     7
 65
   257
 75
     1
175
     1
 42
1.0
 92
        9
 66
     7
 43
1.0
 76
     1
 77
     6
 78
     2
 67
     7
 79
     5
170
     0
171
     0
290
     0
174
     0
 93
        1
 44
0.0
173
     0
291
     1
 45
0.0
  0
VISUALSTYLE
  5
33
102
{ACAD_REACTORS
330
2A
102
}
102
{ACAD_XDICTIONARY
360
3C5
102
}
330
2A
100
AcDbVisualStyle
  2
Realistic
 70
     8
 71
     2
 72
     3
 73
     0
 90
        2
 40
0.6
 41
30.0
 62
     5
 63
     7
421
 16777215
 74
     0
 91
        0
 64
     7
 65
   257
 75
     1
175
     1
 42
1.0
 92
        8
 66
   257
 43
1.0
 76
     1
 77
     6
 78
     2
 67
     7
 79
     3
170
     0
171
     0
290
     0
174
     0
 93
       13
 44
0.0
173
     0
291
     0
 45
0.0
  0
VISUALSTYLE
  5
42
102
{ACAD_REACTORS
330
2A
102
}
102
{ACAD_XDICTIONARY
360
3E3
102
}
330
2A
100
AcDbVisualStyle
  2
Shaded
 70
    27
 71
     2
 72
     2
 73
     1
 90
        2
 40
0.6
 41
30.0
 62
     5
 63
     7
421
 16777215
 74
     0
 91
        4
 64
     7
 65
   257
 75
     1
175
     1
 42
1.0
 92
        8
 66
   257
 43
1.0
 76
     1
 77
     6
 78
     2
 67
     8
425
  7895160
 79
     3
170
     0
171
     0
290
     0
174
     0
 93
        5
 44
0.0
173
     0
291
     0
 45
0.0
  0
VISUALSTYLE
  5
41
102
{ACAD_REACTORS
330
2A
102
}
102
{ACAD_XDICTIONARY
360
3E1
102
}
330
2A
100
AcDbVisualStyle
  2
Shaded with edges
 70
    26
 71
     2
 72
     2
 73
     1
 90
        2
 40
0.6
 41
30.0
 62
     5
 63
     7
421
 16777215
 74
     1
 91
       10
 64
     7
 65
   257
 75
     2
175
     1
 42
1.0
 92
        8
 66
   257
 43
1.0
 76
     1
 77
     6
 78
     2
 67
     7
 79
     3
170
     0
171
     0
290
     0
174
     0
 93
        5
 44
0.0
173
     0
291
     0
 45
0.0
  0
VISUALSTYLE
  5
3E
102
{ACAD_REACTORS
330
2A
102
}
102
{ACAD_XDICTIONARY
360
3DB
102
}
330
2A
100
AcDbVisualStyle
  2
Shades of Gray
 70
    23
 71
     2
 72
     2
 73
     3
 90
        0
 40
0.6
 41
30.0
 62
     5
 63
     7
421
 16777215
 74
     2
 91
        2
 64
     7
 65
     7
 75
     1
175
     1
 42
40.0
 92
        8
 66
     7
 43
1.0
 76
     1
 77
     6
 78
     2
 67
     7
 79
     3
170
     0
171
     0
290
     0
174
     0
 93
        1
 44
0.0
173
     0
291
     0
 45
0.0
  0
VISUALSTYLE
  5
3F
102
{ACAD_REACTORS
330
2A
102
}
102
{ACAD_XDICTIONARY
360
3DD
102
}
330
2A
100
AcDbVisualStyle
  2
Sketchy
 70
    24
 71
     1
 72
     2
 73
     2
 90
        0
 40
0.6
 41
30.0
 62
     5
 63
     7
421
 16777215
 74
     2
 91
        2
 64
     7
 65
     7
 75
     1
175
     1
 42
40.0
 92
       11
 66
     7
 43
1.0
 76
     1
 77
     6
 78
     2
 67
     7
 79
     6
170
     0
171
     0
290
     0
174
     0
 93
        1
 44
0.0
173
     0
291
     0
 45
0.0
  0
VISUALSTYLE
  5
37
102
{ACAD_REACTORS
330
2A
102
}
102
{ACAD_XDICTIONARY
360
3CD
102
}
330
2A
100
AcDbVisualStyle
  2
Thicken
 70
    13
 71
     2
 72
     2
 73
     0
 90
        0
 40
0.6
 41
30.0
 62
     5
 63
     7
421
 16777215
 74
     1
 91
        4
 64
     7
 65
   257
 75
     1
175
     1
 42
1.0
 92
       12
 66
     7
 43
1.0
 76
     1
 77
     6
 78
     2
 67
     7
 79
     5
170
     0
171
     0
290
     0
174
     0
 93
        1
 44
0.0
173
     0
291
     1
 45
0.0
  0
VISUALSTYLE
  5
30
102
{ACAD_REACTORS
330
2A
102
}
102
{ACAD_XDICTIONARY
360
3BF
102
}
330
2A
100
AcDbVisualStyle
  2
Wireframe
 70
     5
 71
     0
 72
     2
 73
     0
 90
        0
 40
0.6
 41
30.0
 62
     5
 63
     7
421
 16777215
 74
     1
 91
        4
 64
     7
 65
   257
 75
     1
175
     1
 42
1.0
 92
        0
 66
   257
 43
1.0
 76
     1
 77
     6
 78
     2
 67
     7
 79
     3
170
     0
171
     0
290
     0
174
     0
 93
        1
 44
0.0
173
     0
291
     0
 45
0.0
  0
VISUALSTYLE
  5
40
102
{ACAD_REACTORS
330
2A
102
}
102
{ACAD_XDICTIONARY
360
3DF
102
}
330
2A
100
AcDbVisualStyle
  2
X-Ray
 70
    25
 71
     2
 72
     2
 73
     1
 90
        1
 40
0.5
 41
30.0
 62
     5
 63
     7
421
 16777215
 74
     1
 91
        0
 64
     7
 65
   257
 75
     1
175
     1
 42
1.0
 92
        8
 66
     7
 43
1.0
 76
     1
 77
     6
 78
     2
 67
     7
 79
     3
170
     0
171
     0
290
     0
174
     0
 93
       13
 44
0.0
173
     0
291
     0
 45
0.0
  0
DICTIONARYVAR
  5
3B3
102
{ACAD_REACTORS
330
3B2
102
}
330
3B2
100
DictionaryVariables
280
     0
  1
1:1
  0
DICTIONARYVAR
  5
3EC
102
{ACAD_REACTORS
330
3B2
102
}
330
3B2
100
DictionaryVariables
280
     0
  1
Standard
  0
DICTIONARYVAR
  5
3EB
102
{ACAD_REACTORS
330
3B2
102
}
330
3B2
100
DictionaryVariables
280
     0
  1
Standard
  0
DICTIONARYVAR
  5
3B4
102
{ACAD_REACTORS
330
3B2
102
}
330
3B2
100
DictionaryVariables
280
     0
  1
2
  0
DICTIONARY
  5
3E8
330
6C
100
AcDbDictionary
280
     1
281
     1
  3
ACAD_XREC_ROUNDTRIP
360
3E9
  0
DICTIONARY
  5
3E5
330
6A
100
AcDbDictionary
280
     1
281
     1
  3
ACAD_ROUNDTRIP_2008_TABLESTYLE_CELLSTYLEMAP
360
3E6
  0
DICTIONARY
  5
3BD
330
2F
100
AcDbDictionary
280
     1
281
     1
  3
ACAD_XREC_ROUNDTRIP
360
3BE
  0
DICTIONARY
  5
3C3
330
32
100
AcDbDictionary
280
     1
281
     1
  3
ACAD_XREC_ROUNDTRIP
360
3C4
  0
DICTIONARY
  5
3CB
330
36
100
AcDbDictionary
280
     1
281
     1
  3
ACAD_XREC_ROUNDTRIP
360
3CC
  0
DICTIONARY
  5
3D3
330
3A
100
AcDbDictionary
280
     1
281
     1
  3
ACAD_XREC_ROUNDTRIP
360
3D4
  0
DICTIONARY
  5
3C7
330
34
100
AcDbDictionary
280
     1
281
     1
  3
ACAD_XREC_ROUNDTRIP
360
3C8
  0
DICTIONARY
  5
3C9
330
35
100
AcDbDictionary
280
     1
281
     1
  3
ACAD_XREC_ROUNDTRIP
360
3CA
  0
DICTIONARY
  5
3D9
330
3D
100
AcDbDictionary
280
     1
281
     1
  3
ACAD_XREC_ROUNDTRIP
360
3DA
  0
DICTIONARY
  5
3D1
330
39
100
AcDbDictionary
280
     1
281
     1
  3
ACAD_XREC_ROUNDTRIP
360
3D2
  0
DICTIONARY
  5
3B5
330
2B
100
AcDbDictionary
280
     1
281
     1
  3
ACAD_XREC_ROUNDTRIP
360
3B6
  0
DICTIONARY
  5
3B7
330
2C
100
AcDbDictionary
280
     1
281
     1
  3
ACAD_XREC_ROUNDTRIP
360
3B8
  0
DICTIONARY
  5
3B9
330
2D
100
AcDbDictionary
280
     1
281
     1
  3
ACAD_XREC_ROUNDTRIP
360
3BA
  0
DICTIONARY
  5
3BB
330
2E
100
AcDbDictionary
280
     1
281
     1
  3
ACAD_XREC_ROUNDTRIP
360
3BC
  0
DICTIONARY
  5
3C1
330
31
100
AcDbDictionary
280
     1
281
     1
  3
ACAD_XREC_ROUNDTRIP
360
3C2
  0
DICTIONARY
  5
3D5
330
3B
100
AcDbDictionary
280
     1
281
     1
  3
ACAD_XREC_ROUNDTRIP
360
3D6
  0
DICTIONARY
  5
3CF
330
38
100
AcDbDictionary
280
     1
281
     1
  3
ACAD_XREC_ROUNDTRIP
360
3D0
  0
DICTIONARY
  5
3D7
330
3C
100
AcDbDictionary
280
     1
281
     1
  3
ACAD_XREC_ROUNDTRIP
360
3D8
  0
DICTIONARY
  5
3C5
330
33
100
AcDbDictionary
280
     1
281
     1
  3
ACAD_XREC_ROUNDTRIP
360
3C6
  0
DICTIONARY
  5
3E3
330
42
100
AcDbDictionary
280
     1
281
     1
  3
ACAD_XREC_ROUNDTRIP
360
3E4
  0
DICTIONARY
  5
3E1
330
41
100
AcDbDictionary
280
     1
281
     1
  3
ACAD_XREC_ROUNDTRIP
360
3E2
  0
DICTIONARY
  5
3DB
330
3E
100
AcDbDictionary
280
     1
281
     1
  3
ACAD_XREC_ROUNDTRIP
360
3DC
  0
DICTIONARY
  5
3DD
330
3F
100
AcDbDictionary
280
     1
281
     1
  3
ACAD_XREC_ROUNDTRIP
360
3DE
  0
DICTIONARY
  5
3CD
330
37
100
AcDbDictionary
280
     1
281
     1
  3
ACAD_XREC_ROUNDTRIP
360
3CE
  0
DICTIONARY
  5
3BF
330
30
100
AcDbDictionary
280
     1
281
     1
  3
ACAD_XREC_ROUNDTRIP
360
3C0
  0
DICTIONARY
  5
3DF
330
40
100
AcDbDictionary
280
     1
281
     1
  3
ACAD_XREC_ROUNDTRIP
360
3E0
  0
XRECORD
  5
3E9
102
{ACAD_REACTORS
330
3E8
102
}
330
3E8
100
AcDbXrecord
280
     1
102
ACAD_ROUNDTRIP_2010_MLEADER_STYLE
  0
CELLSTYLEMAP
  5
3E6
102
{ACAD_REACTORS
330
3E5
102
}
330
3E5
100
AcDbCellStyleMap
 90
        3
300
CELLSTYLE
  1
TABLEFORMAT_BEGIN
 90
        5
170
     1
 91
        0
 92
    32768
 62
   257
 93
        1
300
CONTENTFORMAT
  1
CONTENTFORMAT_BEGIN
 90
        0
 91
        0
 92
        4
 93
        0
300

 40
0.0
140
1.0
 94
        5
 62
     0
340
11
144
0.25
309
CONTENTFORMAT_END
171
     1
301
MARGIN
  1
CELLMARGIN_BEGIN
 40
0.06
 40
0.06
 40
0.06
 40
0.06
 40
0.06
 40
0.06
309
CELLMARGIN_END
 94
        6
 95
        1
302
GRIDFORMAT
  1
GRIDFORMAT_BEGIN
 90
        0
 91
        1
 62
     0
 92
       -2
340
14
 93
        0
 40
0.045
309
GRIDFORMAT_END
 95
        2
302
GRIDFORMAT
  1
GRIDFORMAT_BEGIN
 90
        0
 91
        1
 62
     0
 92
       -2
340
14
 93
        0
 40
0.045
309
GRIDFORMAT_END
 95
        4
302
GRIDFORMAT
  1
GRIDFORMAT_BEGIN
 90
        0
 91
        1
 62
     0
 92
       -2
340
14
 93
        0
 40
0.045
309
GRIDFORMAT_END
 95
        8
302
GRIDFORMAT
  1
GRIDFORMAT_BEGIN
 90
        0
 91
        1
 62
     0
 92
       -2
340
14
 93
        0
 40
0.045
309
GRIDFORMAT_END
 95
       16
302
GRIDFORMAT
  1
GRIDFORMAT_BEGIN
 90
        0
 91
        1
 62
     0
 92
       -2
340
14
 93
        0
 40
0.045
309
GRIDFORMAT_END
 95
       32
302
GRIDFORMAT
  1
GRIDFORMAT_BEGIN
 90
        0
 91
        1
 62
     0
 92
       -2
340
14
 93
        0
 40
0.045
309
GRIDFORMAT_END
309
TABLEFORMAT_END
  1
CELLSTYLE_BEGIN
 90
        1
 91
        1
300
_TITLE
309
CELLSTYLE_END
300
CELLSTYLE
  1
TABLEFORMAT_BEGIN
 90
        5
170
     1
 91
        0
 92
        0
 62
   257
 93
        1
300
CONTENTFORMAT
  1
CONTENTFORMAT_BEGIN
 90
        0
 91
        0
 92
        4
 93
        0
300

 40
0.0
140
1.0
 94
        5
 62
     0
340
11
144
0.18
309
CONTENTFORMAT_END
171
     1
301
MARGIN
  1
CELLMARGIN_BEGIN
 40
0.06
 40
0.06
 40
0.06
 40
0.06
 40
0.06
 40
0.06
309
CELLMARGIN_END
 94
        6
 95
        1
302
GRIDFORMAT
  1
GRIDFORMAT_BEGIN
 90
        0
 91
        1
 62
     0
 92
       -2
340
14
 93
        0
 40
0.045
309
GRIDFORMAT_END
 95
        2
302
GRIDFORMAT
  1
GRIDFORMAT_BEGIN
 90
        0
 91
        1
 62
     0
 92
       -2
340
14
 93
        0
 40
0.045
309
GRIDFORMAT_END
 95
        4
302
GRIDFORMAT
  1
GRIDFORMAT_BEGIN
 90
        0
 91
        1
 62
     0
 92
       -2
340
14
 93
        0
 40
0.045
309
GRIDFORMAT_END
 95
        8
302
GRIDFORMAT
  1
GRIDFORMAT_BEGIN
 90
        0
 91
        1
 62
     0
 92
       -2
340
14
 93
        0
 40
0.045
309
GRIDFORMAT_END
 95
       16
302
GRIDFORMAT
  1
GRIDFORMAT_BEGIN
 90
        0
 91
        1
 62
     0
 92
       -2
340
14
 93
        0
 40
0.045
309
GRIDFORMAT_END
 95
       32
302
GRIDFORMAT
  1
GRIDFORMAT_BEGIN
 90
        0
 91
        1
 62
     0
 92
       -2
340
14
 93
        0
 40
0.045
309
GRIDFORMAT_END
309
TABLEFORMAT_END
  1
CELLSTYLE_BEGIN
 90
        2
 91
        1
300
_HEADER
309
CELLSTYLE_END
300
CELLSTYLE
  1
TABLEFORMAT_BEGIN
 90
        5
170
     1
 91
        0
 92
        0
 62
   257
 93
        1
300
CONTENTFORMAT
  1
CONTENTFORMAT_BEGIN
 90
        0
 91
        0
 92
        4
 93
        0
300

 40
0.0
140
1.0
 94
        2
 62
     0
340
11
144
0.18
309
CONTENTFORMAT_END
171
     1
301
MARGIN
  1
CELLMARGIN_BEGIN
 40
0.06
 40
0.06
 40
0.06
 40
0.06
 40
0.06
 40
0.06
309
CELLMARGIN_END
 94
        6
 95
        1
302
GRIDFORMAT
  1
GRIDFORMAT_BEGIN
 90
        0
 91
        1
 62
     0
 92
       -2
340
14
 93
        0
 40
0.045
309
GRIDFORMAT_END
 95
        2
302
GRIDFORMAT
  1
GRIDFORMAT_BEGIN
 90
        0
 91
        1
 62
     0
 92
       -2
340
14
 93
        0
 40
0.045
309
GRIDFORMAT_END
 95
        4
302
GRIDFORMAT
  1
GRIDFORMAT_BEGIN
 90
        0
 91
        1
 62
     0
 92
       -2
340
14
 93
        0
 40
0.045
309
GRIDFORMAT_END
 95
        8
302
GRIDFORMAT
  1
GRIDFORMAT_BEGIN
 90
        0
 91
        1
 62
     0
 92
       -2
340
14
 93
        0
 40
0.045
309
GRIDFORMAT_END
 95
       16
302
GRIDFORMAT
  1
GRIDFORMAT_BEGIN
 90
        0
 91
        1
 62
     0
 92
       -2
340
14
 93
        0
 40
0.045
309
GRIDFORMAT_END
 95
       32
302
GRIDFORMAT
  1
GRIDFORMAT_BEGIN
 90
        0
 91
        1
 62
     0
 92
       -2
340
14
 93
        0
 40
0.045
309
GRIDFORMAT_END
309
TABLEFORMAT_END
  1
CELLSTYLE_BEGIN
 90
        3
 91
        2
300
_DATA
309
CELLSTYLE_END
  0
XRECORD
  5
3BE
102
{ACAD_REACTORS
330
3BD
102
}
330
3BD
100
AcDbXrecord
280
     1
102
RTVSPropertyOp0
 70
     1
102
RTVSPropertyOp1
 70
     1
102
RTVSPropertyOp2
 70
     1
102
RTVSPropertyOp3
 70
     1
102
RTVSPropertyOp4
 70
     1
102
RTVSPropertyOp5
 70
     1
102
RTVSPropertyOp6
 70
     1
102
RTVSPropertyOp7
 70
     1
102
RTVSPropertyOp8
 70
     1
102
RTVSPropertyOp9
 70
     1
102
RTVSPropertyOp10
 70
     1
102
RTVSPropertyOp11
 70
     1
102
RTVSPropertyOp12
 70
     1
102
RTVSPropertyOp13
 70
     1
102
RTVSPropertyOp14
 70
     1
102
RTVSPropertyOp15
 70
     1
102
RTVSPropertyOp16
 70
     1
102
RTVSPropertyOp17
 70
     1
102
RTVSPropertyOp18
 70
     1
102
RTVSPropertyOp19
 70
     1
102
RTVSPropertyOp20
 70
     1
102
RTVSPropertyOp21
 70
     1
102
RTVSPropertyOp22
 70
     1
102
RTVSPropertyOp23
 70
     1
102
RTVSPropertyOp24
 70
     1
102
RTVSPropertyOp25
 70
     1
102
RTVSPropertyOp26
 70
     1
102
RTVSPropertyOp27
 70
     1
102
RTVSPropertyOp28
 70
     1
102
RTVSPropertyOp29
 70
     1
102
RTVSPropertyOp30
 70
     1
102
RTVSPropertyOp31
 70
     1
102
RTVSPropertyOp32
 70
     1
102
RTVSPropertyOp33
 70
     1
102
RTVSPropertyOp34
 70
     1
102
RTVSPropertyOp35
 70
     1
102
RTVSPropertyOp36
 70
     1
102
RTVSPropertyOp37
 70
     1
102
RTVSPropertyOp38
 70
     1
102
RTVSPropertyOp39
 70
     1
102
RTVSPropertyOp40
 70
     1
102
RTVSPropertyOp41
 70
     1
102
RTVSPropertyOp42
 70
     1
102
RTVSPropertyOp43
 70
     1
102
RTVSPropertyOp44
 70
     1
102
RTVSPropertyOp45
 70
     1
102
RTVSPropertyOp46
 70
     1
102
RTVSPropertyOp47
 70
     1
102
RTVSPropertyOp48
 70
     1
102
RTVSPropertyOp49
 70
     1
102
RTVSPropertyOp50
 70
     1
102
RTVSPropertyOp51
 70
     0
102
RTVSPropertyOp52
 70
     0
102
RTVSPropertyOp53
 70
     1
102
RTVSPropertyOp54
 70
     1
102
RTVSPropertyOp55
 70
     1
102
RTVSPropertyOp56
 70
     1
102
RTVSPropertyOp57
 70
     1
102
RTVSPost2010Prop28
280
     1
102
RTVSPost2010PropOp28
 70
     1
102
RTVSPost2010Prop29
280
     1
102
RTVSPost2010PropOp29
 70
     1
102
RTVSPost2010Prop30
280
     0
102
RTVSPost2010PropOp30
 70
     1
102
RTVSPost2010Prop31
280
     0
102
RTVSPost2010PropOp31
 70
     1
102
RTVSPost2010Prop32
280
     0
102
RTVSPost2010PropOp32
 70
     1
102
RTVSPost2010Prop33
280
     0
102
RTVSPost2010PropOp33
 70
     1
102
RTVSPost2010Prop34
280
     0
102
RTVSPost2010PropOp34
 70
     1
102
RTVSPost2010Prop35
280
     0
102
RTVSPost2010PropOp35
 70
     1
102
RTVSPost2010Prop36
280
     0
102
RTVSPost2010PropOp36
 70
     1
102
RTVSPost2010Prop37
 90
       50
102
RTVSPost2010PropOp37
 70
     1
102
RTVSPost2010Prop38
140
0.0
102
RTVSPost2010PropOp38
 70
     1
102
RTVSPost2010Prop39
140
1.0
102
RTVSPost2010PropOp39
 70
     1
102
RTVSPost2010Prop40
 90
        0
102
RTVSPost2010PropOp40
 70
     1
102
RTVSPost2010Prop41ColorIndex
 90
      178
102
RTVSPost2010Prop41ColorRGB
 90
        0
102
RTVSPost2010PropOp41
 70
     1
102
RTVSPost2010Prop42
 90
       50
102
RTVSPost2010PropOp42
 70
     1
102
RTVSPost2010Prop43
 90
        3
102
RTVSPost2010PropOp43
 70
     1
102
RTVSPost2010Prop44ColorIndex
 90
        5
102
RTVSPost2010Prop44ColorRGB
 90
      255
102
RTVSPost2010PropOp44
 70
     1
102
RTVSPost2010Prop45
280
     0
102
RTVSPost2010PropOp45
 70
     1
102
RTVSPost2010Prop46
 90
       50
102
RTVSPost2010PropOp46
 70
     1
102
RTVSPost2010Prop47
 90
       50
102
RTVSPost2010PropOp47
 70
     1
102
RTVSPost2010Prop48
 90
       50
102
RTVSPost2010PropOp48
 70
     1
102
RTVSPost2010Prop49
280
     0
102
RTVSPost2010PropOp49
 70
     1
102
RTVSPost2010Prop50
 90
       50
102
RTVSPost2010PropOp50
 70
     1
102
RTVSPost2010Prop51ColorIndex
 90
      256
102
RTVSPost2010Prop51ColorRGB
 90
-16777216
102
RTVSPost2010PropOp51
 70
     0
102
RTVSPost2010Prop52
140
1.0
102
RTVSPost2010PropOp52
 70
     0
102
RTVSPost2010Prop53
 90
        2
102
RTVSPost2010PropOp53
 70
     1
102
RTVSPost2010Prop54
  1
strokes_ogs.tif
102
RTVSPost2010PropOp54
 70
     1
102
RTVSPost2010Prop55
280
     0
102
RTVSPost2010PropOp55
 70
     1
102
RTVSPost2010Prop56
140
1.0
102
RTVSPost2010PropOp56
 70
     1
102
RTVSPost2010Prop57
140
1.0
102
RTVSPost2010PropOp57
 70
     1
  0
XRECORD
  5
3C4
102
{ACAD_REACTORS
330
3C3
102
}
330
3C3
100
AcDbXrecord
280
     1
102
RTVSPropertyOp0
 70
     1
102
RTVSPropertyOp1
 70
     1
102
RTVSPropertyOp2
 70
     1
102
RTVSPropertyOp3
 70
     1
102
RTVSPropertyOp4
 70
     1
102
RTVSPropertyOp5
 70
     1
102
RTVSPropertyOp6
 70
     1
102
RTVSPropertyOp7
 70
     1
102
RTVSPropertyOp8
 70
     1
102
RTVSPropertyOp9
 70
     1
102
RTVSPropertyOp10
 70
     1
102
RTVSPropertyOp11
 70
     1
102
RTVSPropertyOp12
 70
     1
102
RTVSPropertyOp13
 70
     1
102
RTVSPropertyOp14
 70
     1
102
RTVSPropertyOp15
 70
     1
102
RTVSPropertyOp16
 70
     1
102
RTVSPropertyOp17
 70
     1
102
RTVSPropertyOp18
 70
     1
102
RTVSPropertyOp19
 70
     1
102
RTVSPropertyOp20
 70
     1
102
RTVSPropertyOp21
 70
     1
102
RTVSPropertyOp22
 70
     1
102
RTVSPropertyOp23
 70
     1
102
RTVSPropertyOp24
 70
     1
102
RTVSPropertyOp25
 70
     1
102
RTVSPropertyOp26
 70
     1
102
RTVSPropertyOp27
 70
     1
102
RTVSPropertyOp28
 70
     1
102
RTVSPropertyOp29
 70
     1
102
RTVSPropertyOp30
 70
     1
102
RTVSPropertyOp31
 70
     1
102
RTVSPropertyOp32
 70
     1
102
RTVSPropertyOp33
 70
     1
102
RTVSPropertyOp34
 70
     1
102
RTVSPropertyOp35
 70
     1
102
RTVSPropertyOp36
 70
     1
102
RTVSPropertyOp37
 70
     1
102
RTVSPropertyOp38
 70
     1
102
RTVSPropertyOp39
 70
     1
102
RTVSPropertyOp40
 70
     1
102
RTVSPropertyOp41
 70
     1
102
RTVSPropertyOp42
 70
     1
102
RTVSPropertyOp43
 70
     1
102
RTVSPropertyOp44
 70
     1
102
RTVSPropertyOp45
 70
     1
102
RTVSPropertyOp46
 70
     1
102
RTVSPropertyOp47
 70
     1
102
RTVSPropertyOp48
 70
     1
102
RTVSPropertyOp49
 70
     1
102
RTVSPropertyOp50
 70
     1
102
RTVSPropertyOp51
 70
     0
102
RTVSPropertyOp52
 70
     0
102
RTVSPropertyOp53
 70
     1
102
RTVSPropertyOp54
 70
     1
102
RTVSPropertyOp55
 70
     1
102
RTVSPropertyOp56
 70
     1
102
RTVSPropertyOp57
 70
     1
102
RTVSPost2010Prop28
280
     0
102
RTVSPost2010PropOp28
 70
     1
102
RTVSPost2010Prop29
280
     1
102
RTVSPost2010PropOp29
 70
     1
102
RTVSPost2010Prop30
280
     1
102
RTVSPost2010PropOp30
 70
     1
102
RTVSPost2010Prop31
280
     0
102
RTVSPost2010PropOp31
 70
     1
102
RTVSPost2010Prop32
280
     0
102
RTVSPost2010PropOp32
 70
     1
102
RTVSPost2010Prop33
280
     0
102
RTVSPost2010PropOp33
 70
     1
102
RTVSPost2010Prop34
280
     0
102
RTVSPost2010PropOp34
 70
     1
102
RTVSPost2010Prop35
280
     0
102
RTVSPost2010PropOp35
 70
     1
102
RTVSPost2010Prop36
280
     0
102
RTVSPost2010PropOp36
 70
     1
102
RTVSPost2010Prop37
 90
       50
102
RTVSPost2010PropOp37
 70
     1
102
RTVSPost2010Prop38
140
0.0
102
RTVSPost2010PropOp38
 70
     1
102
RTVSPost2010Prop39
140
1.0
102
RTVSPost2010PropOp39
 70
     1
102
RTVSPost2010Prop40
 90
        0
102
RTVSPost2010PropOp40
 70
     1
102
RTVSPost2010Prop41ColorIndex
 90
      178
102
RTVSPost2010Prop41ColorRGB
 90
        0
102
RTVSPost2010PropOp41
 70
     1
102
RTVSPost2010Prop42
 90
       50
102
RTVSPost2010PropOp42
 70
     1
102
RTVSPost2010Prop43
 90
        3
102
RTVSPost2010PropOp43
 70
     1
102
RTVSPost2010Prop44ColorIndex
 90
        5
102
RTVSPost2010Prop44ColorRGB
 90
      255
102
RTVSPost2010PropOp44
 70
     1
102
RTVSPost2010Prop45
280
     0
102
RTVSPost2010PropOp45
 70
     1
102
RTVSPost2010Prop46
 90
       50
102
RTVSPost2010PropOp46
 70
     1
102
RTVSPost2010Prop47
 90
       50
102
RTVSPost2010PropOp47
 70
     1
102
RTVSPost2010Prop48
 90
       50
102
RTVSPost2010PropOp48
 70
     1
102
RTVSPost2010Prop49
280
     0
102
RTVSPost2010PropOp49
 70
     1
102
RTVSPost2010Prop50
 90
       50
102
RTVSPost2010PropOp50
 70
     1
102
RTVSPost2010Prop51ColorIndex
 90
      256
102
RTVSPost2010Prop51ColorRGB
 90
-16777216
102
RTVSPost2010PropOp51
 70
     0
102
RTVSPost2010Prop52
140
1.0
102
RTVSPost2010PropOp52
 70
     0
102
RTVSPost2010Prop53
 90
        2
102
RTVSPost2010PropOp53
 70
     1
102
RTVSPost2010Prop54
  1
strokes_ogs.tif
102
RTVSPost2010PropOp54
 70
     1
102
RTVSPost2010Prop55
280
     0
102
RTVSPost2010PropOp55
 70
     1
102
RTVSPost2010Prop56
140
1.0
102
RTVSPost2010PropOp56
 70
     1
102
RTVSPost2010Prop57
140
1.0
102
RTVSPost2010PropOp57
 70
     1
  0
XRECORD
  5
3CC
102
{ACAD_REACTORS
330
3CB
102
}
330
3CB
100
AcDbXrecord
280
     1
102
RTVSPropertyOp0
 70
     1
102
RTVSPropertyOp1
 70
     1
102
RTVSPropertyOp2
 70
     1
102
RTVSPropertyOp3
 70
     1
102
RTVSPropertyOp4
 70
     1
102
RTVSPropertyOp5
 70
     1
102
RTVSPropertyOp6
 70
     1
102
RTVSPropertyOp7
 70
     1
102
RTVSPropertyOp8
 70
     1
102
RTVSPropertyOp9
 70
     1
102
RTVSPropertyOp10
 70
     1
102
RTVSPropertyOp11
 70
     1
102
RTVSPropertyOp12
 70
     1
102
RTVSPropertyOp13
 70
     1
102
RTVSPropertyOp14
 70
     1
102
RTVSPropertyOp15
 70
     1
102
RTVSPropertyOp16
 70
     1
102
RTVSPropertyOp17
 70
     1
102
RTVSPropertyOp18
 70
     1
102
RTVSPropertyOp19
 70
     1
102
RTVSPropertyOp20
 70
     1
102
RTVSPropertyOp21
 70
     1
102
RTVSPropertyOp22
 70
     1
102
RTVSPropertyOp23
 70
     1
102
RTVSPropertyOp24
 70
     1
102
RTVSPropertyOp25
 70
     1
102
RTVSPropertyOp26
 70
     1
102
RTVSPropertyOp27
 70
     1
102
RTVSPropertyOp28
 70
     1
102
RTVSPropertyOp29
 70
     1
102
RTVSPropertyOp30
 70
     1
102
RTVSPropertyOp31
 70
     1
102
RTVSPropertyOp32
 70
     1
102
RTVSPropertyOp33
 70
     1
102
RTVSPropertyOp34
 70
     1
102
RTVSPropertyOp35
 70
     1
102
RTVSPropertyOp36
 70
     1
102
RTVSPropertyOp37
 70
     1
102
RTVSPropertyOp38
 70
     1
102
RTVSPropertyOp39
 70
     1
102
RTVSPropertyOp40
 70
     1
102
RTVSPropertyOp41
 70
     1
102
RTVSPropertyOp42
 70
     1
102
RTVSPropertyOp43
 70
     1
102
RTVSPropertyOp44
 70
     1
102
RTVSPropertyOp45
 70
     1
102
RTVSPropertyOp46
 70
     1
102
RTVSPropertyOp47
 70
     1
102
RTVSPropertyOp48
 70
     1
102
RTVSPropertyOp49
 70
     1
102
RTVSPropertyOp50
 70
     1
102
RTVSPropertyOp51
 70
     0
102
RTVSPropertyOp52
 70
     0
102
RTVSPropertyOp53
 70
     1
102
RTVSPropertyOp54
 70
     1
102
RTVSPropertyOp55
 70
     1
102
RTVSPropertyOp56
 70
     1
102
RTVSPropertyOp57
 70
     1
102
RTVSPost2010Prop28
280
     0
102
RTVSPost2010PropOp28
 70
     1
102
RTVSPost2010Prop29
280
     1
102
RTVSPost2010PropOp29
 70
     1
102
RTVSPost2010Prop30
280
     1
102
RTVSPost2010PropOp30
 70
     1
102
RTVSPost2010Prop31
280
     0
102
RTVSPost2010PropOp31
 70
     1
102
RTVSPost2010Prop32
280
     0
102
RTVSPost2010PropOp32
 70
     1
102
RTVSPost2010Prop33
280
     0
102
RTVSPost2010PropOp33
 70
     1
102
RTVSPost2010Prop34
280
     0
102
RTVSPost2010PropOp34
 70
     1
102
RTVSPost2010Prop35
280
     0
102
RTVSPost2010PropOp35
 70
     1
102
RTVSPost2010Prop36
280
     0
102
RTVSPost2010PropOp36
 70
     1
102
RTVSPost2010Prop37
 90
       50
102
RTVSPost2010PropOp37
 70
     1
102
RTVSPost2010Prop38
140
0.0
102
RTVSPost2010PropOp38
 70
     1
102
RTVSPost2010Prop39
140
1.0
102
RTVSPost2010PropOp39
 70
     1
102
RTVSPost2010Prop40
 90
        0
102
RTVSPost2010PropOp40
 70
     1
102
RTVSPost2010Prop41ColorIndex
 90
      178
102
RTVSPost2010Prop41ColorRGB
 90
        0
102
RTVSPost2010PropOp41
 70
     1
102
RTVSPost2010Prop42
 90
       50
102
RTVSPost2010PropOp42
 70
     1
102
RTVSPost2010Prop43
 90
        3
102
RTVSPost2010PropOp43
 70
     1
102
RTVSPost2010Prop44ColorIndex
 90
        5
102
RTVSPost2010Prop44ColorRGB
 90
      255
102
RTVSPost2010PropOp44
 70
     1
102
RTVSPost2010Prop45
280
     0
102
RTVSPost2010PropOp45
 70
     1
102
RTVSPost2010Prop46
 90
       50
102
RTVSPost2010PropOp46
 70
     1
102
RTVSPost2010Prop47
 90
       50
102
RTVSPost2010PropOp47
 70
     1
102
RTVSPost2010Prop48
 90
       50
102
RTVSPost2010PropOp48
 70
     1
102
RTVSPost2010Prop49
280
     0
102
RTVSPost2010PropOp49
 70
     1
102
RTVSPost2010Prop50
 90
       50
102
RTVSPost2010PropOp50
 70
     1
102
RTVSPost2010Prop51ColorIndex
 90
      256
102
RTVSPost2010Prop51ColorRGB
 90
-16777216
102
RTVSPost2010PropOp51
 70
     0
102
RTVSPost2010Prop52
140
1.0
102
RTVSPost2010PropOp52
 70
     0
102
RTVSPost2010Prop53
 90
        2
102
RTVSPost2010PropOp53
 70
     1
102
RTVSPost2010Prop54
  1
strokes_ogs.tif
102
RTVSPost2010PropOp54
 70
     1
102
RTVSPost2010Prop55
280
     0
102
RTVSPost2010PropOp55
 70
     1
102
RTVSPost2010Prop56
140
1.0
102
RTVSPost2010PropOp56
 70
     1
102
RTVSPost2010Prop57
140
1.0
102
RTVSPost2010PropOp57
 70
     1
  0
XRECORD
  5
3D4
102
{ACAD_REACTORS
330
3D3
102
}
330
3D3
100
AcDbXrecord
280
     1
102
RTVSPropertyOp0
 70
     1
102
RTVSPropertyOp1
 70
     1
102
RTVSPropertyOp2
 70
     1
102
RTVSPropertyOp3
 70
     1
102
RTVSPropertyOp4
 70
     1
102
RTVSPropertyOp5
 70
     1
102
RTVSPropertyOp6
 70
     1
102
RTVSPropertyOp7
 70
     1
102
RTVSPropertyOp8
 70
     1
102
RTVSPropertyOp9
 70
     1
102
RTVSPropertyOp10
 70
     1
102
RTVSPropertyOp11
 70
     1
102
RTVSPropertyOp12
 70
     1
102
RTVSPropertyOp13
 70
     1
102
RTVSPropertyOp14
 70
     1
102
RTVSPropertyOp15
 70
     1
102
RTVSPropertyOp16
 70
     1
102
RTVSPropertyOp17
 70
     1
102
RTVSPropertyOp18
 70
     1
102
RTVSPropertyOp19
 70
     1
102
RTVSPropertyOp20
 70
     1
102
RTVSPropertyOp21
 70
     1
102
RTVSPropertyOp22
 70
     1
102
RTVSPropertyOp23
 70
     1
102
RTVSPropertyOp24
 70
     1
102
RTVSPropertyOp25
 70
     1
102
RTVSPropertyOp26
 70
     1
102
RTVSPropertyOp27
 70
     1
102
RTVSPropertyOp28
 70
     1
102
RTVSPropertyOp29
 70
     1
102
RTVSPropertyOp30
 70
     1
102
RTVSPropertyOp31
 70
     1
102
RTVSPropertyOp32
 70
     1
102
RTVSPropertyOp33
 70
     1
102
RTVSPropertyOp34
 70
     1
102
RTVSPropertyOp35
 70
     1
102
RTVSPropertyOp36
 70
     1
102
RTVSPropertyOp37
 70
     1
102
RTVSPropertyOp38
 70
     1
102
RTVSPropertyOp39
 70
     1
102
RTVSPropertyOp40
 70
     1
102
RTVSPropertyOp41
 70
     1
102
RTVSPropertyOp42
 70
     1
102
RTVSPropertyOp43
 70
     1
102
RTVSPropertyOp44
 70
     1
102
RTVSPropertyOp45
 70
     1
102
RTVSPropertyOp46
 70
     1
102
RTVSPropertyOp47
 70
     1
102
RTVSPropertyOp48
 70
     1
102
RTVSPropertyOp49
 70
     1
102
RTVSPropertyOp50
 70
     1
102
RTVSPropertyOp51
 70
     0
102
RTVSPropertyOp52
 70
     0
102
RTVSPropertyOp53
 70
     1
102
RTVSPropertyOp54
 70
     1
102
RTVSPropertyOp55
 70
     1
102
RTVSPropertyOp56
 70
     1
102
RTVSPropertyOp57
 70
     1
102
RTVSPost2010Prop28
280
     0
102
RTVSPost2010PropOp28
 70
     1
102
RTVSPost2010Prop29
280
     1
102
RTVSPost2010PropOp29
 70
     1
102
RTVSPost2010Prop30
280
     1
102
RTVSPost2010PropOp30
 70
     1
102
RTVSPost2010Prop31
280
     0
102
RTVSPost2010PropOp31
 70
     1
102
RTVSPost2010Prop32
280
     0
102
RTVSPost2010PropOp32
 70
     1
102
RTVSPost2010Prop33
280
     0
102
RTVSPost2010PropOp33
 70
     1
102
RTVSPost2010Prop34
280
     0
102
RTVSPost2010PropOp34
 70
     1
102
RTVSPost2010Prop35
280
     0
102
RTVSPost2010PropOp35
 70
     1
102
RTVSPost2010Prop36
280
     0
102
RTVSPost2010PropOp36
 70
     1
102
RTVSPost2010Prop37
 90
       50
102
RTVSPost2010PropOp37
 70
     1
102
RTVSPost2010Prop38
140
0.0
102
RTVSPost2010PropOp38
 70
     1
102
RTVSPost2010Prop39
140
1.0
102
RTVSPost2010PropOp39
 70
     1
102
RTVSPost2010Prop40
 90
        0
102
RTVSPost2010PropOp40
 70
     1
102
RTVSPost2010Prop41ColorIndex
 90
      178
102
RTVSPost2010Prop41ColorRGB
 90
        0
102
RTVSPost2010PropOp41
 70
     1
102
RTVSPost2010Prop42
 90
       50
102
RTVSPost2010PropOp42
 70
     1
102
RTVSPost2010Prop43
 90
        3
102
RTVSPost2010PropOp43
 70
     1
102
RTVSPost2010Prop44ColorIndex
 90
        5
102
RTVSPost2010Prop44ColorRGB
 90
      255
102
RTVSPost2010PropOp44
 70
     1
102
RTVSPost2010Prop45
280
     0
102
RTVSPost2010PropOp45
 70
     1
102
RTVSPost2010Prop46
 90
       50
102
RTVSPost2010PropOp46
 70
     1
102
RTVSPost2010Prop47
 90
       50
102
RTVSPost2010PropOp47
 70
     1
102
RTVSPost2010Prop48
 90
       50
102
RTVSPost2010PropOp48
 70
     1
102
RTVSPost2010Prop49
280
     0
102
RTVSPost2010PropOp49
 70
     1
102
RTVSPost2010Prop50
 90
       50
102
RTVSPost2010PropOp50
 70
     1
102
RTVSPost2010Prop51ColorIndex
 90
      256
102
RTVSPost2010Prop51ColorRGB
 90
-16777216
102
RTVSPost2010PropOp51
 70
     0
102
RTVSPost2010Prop52
140
1.0
102
RTVSPost2010PropOp52
 70
     0
102
RTVSPost2010Prop53
 90
        2
102
RTVSPost2010PropOp53
 70
     1
102
RTVSPost2010Prop54
  1
strokes_ogs.tif
102
RTVSPost2010PropOp54
 70
     1
102
RTVSPost2010Prop55
280
     0
102
RTVSPost2010PropOp55
 70
     1
102
RTVSPost2010Prop56
140
1.0
102
RTVSPost2010PropOp56
 70
     1
102
RTVSPost2010Prop57
140
1.0
102
RTVSPost2010PropOp57
 70
     1
  0
XRECORD
  5
3C8
102
{ACAD_REACTORS
330
3C7
102
}
330
3C7
100
AcDbXrecord
280
     1
102
RTVSPropertyOp0
 70
     1
102
RTVSPropertyOp1
 70
     1
102
RTVSPropertyOp2
 70
     1
102
RTVSPropertyOp3
 70
     1
102
RTVSPropertyOp4
 70
     1
102
RTVSPropertyOp5
 70
     1
102
RTVSPropertyOp6
 70
     1
102
RTVSPropertyOp7
 70
     1
102
RTVSPropertyOp8
 70
     1
102
RTVSPropertyOp9
 70
     1
102
RTVSPropertyOp10
 70
     1
102
RTVSPropertyOp11
 70
     1
102
RTVSPropertyOp12
 70
     1
102
RTVSPropertyOp13
 70
     1
102
RTVSPropertyOp14
 70
     1
102
RTVSPropertyOp15
 70
     1
102
RTVSPropertyOp16
 70
     1
102
RTVSPropertyOp17
 70
     1
102
RTVSPropertyOp18
 70
     1
102
RTVSPropertyOp19
 70
     1
102
RTVSPropertyOp20
 70
     1
102
RTVSPropertyOp21
 70
     1
102
RTVSPropertyOp22
 70
     1
102
RTVSPropertyOp23
 70
     1
102
RTVSPropertyOp24
 70
     1
102
RTVSPropertyOp25
 70
     1
102
RTVSPropertyOp26
 70
     1
102
RTVSPropertyOp27
 70
     1
102
RTVSPropertyOp28
 70
     1
102
RTVSPropertyOp29
 70
     1
102
RTVSPropertyOp30
 70
     1
102
RTVSPropertyOp31
 70
     1
102
RTVSPropertyOp32
 70
     1
102
RTVSPropertyOp33
 70
     1
102
RTVSPropertyOp34
 70
     1
102
RTVSPropertyOp35
 70
     1
102
RTVSPropertyOp36
 70
     1
102
RTVSPropertyOp37
 70
     1
102
RTVSPropertyOp38
 70
     1
102
RTVSPropertyOp39
 70
     1
102
RTVSPropertyOp40
 70
     1
102
RTVSPropertyOp41
 70
     1
102
RTVSPropertyOp42
 70
     1
102
RTVSPropertyOp43
 70
     1
102
RTVSPropertyOp44
 70
     1
102
RTVSPropertyOp45
 70
     1
102
RTVSPropertyOp46
 70
     1
102
RTVSPropertyOp47
 70
     1
102
RTVSPropertyOp48
 70
     1
102
RTVSPropertyOp49
 70
     1
102
RTVSPropertyOp50
 70
     1
102
RTVSPropertyOp51
 70
     0
102
RTVSPropertyOp52
 70
     0
102
RTVSPropertyOp53
 70
     1
102
RTVSPropertyOp54
 70
     1
102
RTVSPropertyOp55
 70
     1
102
RTVSPropertyOp56
 70
     1
102
RTVSPropertyOp57
 70
     1
102
RTVSPost2010Prop28
280
     0
102
RTVSPost2010PropOp28
 70
     1
102
RTVSPost2010Prop29
280
     1
102
RTVSPost2010PropOp29
 70
     1
102
RTVSPost2010Prop30
280
     1
102
RTVSPost2010PropOp30
 70
     1
102
RTVSPost2010Prop31
280
     0
102
RTVSPost2010PropOp31
 70
     1
102
RTVSPost2010Prop32
280
     0
102
RTVSPost2010PropOp32
 70
     1
102
RTVSPost2010Prop33
280
     0
102
RTVSPost2010PropOp33
 70
     1
102
RTVSPost2010Prop34
280
     0
102
RTVSPost2010PropOp34
 70
     1
102
RTVSPost2010Prop35
280
     0
102
RTVSPost2010PropOp35
 70
     1
102
RTVSPost2010Prop36
280
     0
102
RTVSPost2010PropOp36
 70
     1
102
RTVSPost2010Prop37
 90
       50
102
RTVSPost2010PropOp37
 70
     1
102
RTVSPost2010Prop38
140
0.0
102
RTVSPost2010PropOp38
 70
     1
102
RTVSPost2010Prop39
140
1.0
102
RTVSPost2010PropOp39
 70
     1
102
RTVSPost2010Prop40
 90
        0
102
RTVSPost2010PropOp40
 70
     1
102
RTVSPost2010Prop41ColorIndex
 90
      178
102
RTVSPost2010Prop41ColorRGB
 90
        0
102
RTVSPost2010PropOp41
 70
     1
102
RTVSPost2010Prop42
 90
       50
102
RTVSPost2010PropOp42
 70
     1
102
RTVSPost2010Prop43
 90
        3
102
RTVSPost2010PropOp43
 70
     1
102
RTVSPost2010Prop44ColorIndex
 90
        5
102
RTVSPost2010Prop44ColorRGB
 90
      255
102
RTVSPost2010PropOp44
 70
     1
102
RTVSPost2010Prop45
280
     0
102
RTVSPost2010PropOp45
 70
     1
102
RTVSPost2010Prop46
 90
       50
102
RTVSPost2010PropOp46
 70
     1
102
RTVSPost2010Prop47
 90
       50
102
RTVSPost2010PropOp47
 70
     1
102
RTVSPost2010Prop48
 90
       50
102
RTVSPost2010PropOp48
 70
     1
102
RTVSPost2010Prop49
280
     0
102
RTVSPost2010PropOp49
 70
     1
102
RTVSPost2010Prop50
 90
       50
102
RTVSPost2010PropOp50
 70
     1
102
RTVSPost2010Prop51ColorIndex
 90
      256
102
RTVSPost2010Prop51ColorRGB
 90
-16777216
102
RTVSPost2010PropOp51
 70
     0
102
RTVSPost2010Prop52
140
1.0
102
RTVSPost2010PropOp52
 70
     0
102
RTVSPost2010Prop53
 90
        2
102
RTVSPost2010PropOp53
 70
     1
102
RTVSPost2010Prop54
  1
strokes_ogs.tif
102
RTVSPost2010PropOp54
 70
     1
102
RTVSPost2010Prop55
280
     0
102
RTVSPost2010PropOp55
 70
     1
102
RTVSPost2010Prop56
140
1.0
102
RTVSPost2010PropOp56
 70
     1
102
RTVSPost2010Prop57
140
1.0
102
RTVSPost2010PropOp57
 70
     1
  0
XRECORD
  5
3CA
102
{ACAD_REACTORS
330
3C9
102
}
330
3C9
100
AcDbXrecord
280
     1
102
RTVSPropertyOp0
 70
     1
102
RTVSPropertyOp1
 70
     1
102
RTVSPropertyOp2
 70
     1
102
RTVSPropertyOp3
 70
     1
102
RTVSPropertyOp4
 70
     1
102
RTVSPropertyOp5
 70
     1
102
RTVSPropertyOp6
 70
     1
102
RTVSPropertyOp7
 70
     1
102
RTVSPropertyOp8
 70
     1
102
RTVSPropertyOp9
 70
     1
102
RTVSPropertyOp10
 70
     1
102
RTVSPropertyOp11
 70
     1
102
RTVSPropertyOp12
 70
     1
102
RTVSPropertyOp13
 70
     1
102
RTVSPropertyOp14
 70
     1
102
RTVSPropertyOp15
 70
     1
102
RTVSPropertyOp16
 70
     1
102
RTVSPropertyOp17
 70
     1
102
RTVSPropertyOp18
 70
     1
102
RTVSPropertyOp19
 70
     1
102
RTVSPropertyOp20
 70
     1
102
RTVSPropertyOp21
 70
     1
102
RTVSPropertyOp22
 70
     1
102
RTVSPropertyOp23
 70
     1
102
RTVSPropertyOp24
 70
     1
102
RTVSPropertyOp25
 70
     1
102
RTVSPropertyOp26
 70
     1
102
RTVSPropertyOp27
 70
     1
102
RTVSPropertyOp28
 70
     1
102
RTVSPropertyOp29
 70
     1
102
RTVSPropertyOp30
 70
     1
102
RTVSPropertyOp31
 70
     1
102
RTVSPropertyOp32
 70
     1
102
RTVSPropertyOp33
 70
     1
102
RTVSPropertyOp34
 70
     1
102
RTVSPropertyOp35
 70
     1
102
RTVSPropertyOp36
 70
     1
102
RTVSPropertyOp37
 70
     1
102
RTVSPropertyOp38
 70
     1
102
RTVSPropertyOp39
 70
     1
102
RTVSPropertyOp40
 70
     1
102
RTVSPropertyOp41
 70
     1
102
RTVSPropertyOp42
 70
     1
102
RTVSPropertyOp43
 70
     1
102
RTVSPropertyOp44
 70
     1
102
RTVSPropertyOp45
 70
     1
102
RTVSPropertyOp46
 70
     1
102
RTVSPropertyOp47
 70
     1
102
RTVSPropertyOp48
 70
     1
102
RTVSPropertyOp49
 70
     1
102
RTVSPropertyOp50
 70
     1
102
RTVSPropertyOp51
 70
     0
102
RTVSPropertyOp52
 70
     0
102
RTVSPropertyOp53
 70
     1
102
RTVSPropertyOp54
 70
     1
102
RTVSPropertyOp55
 70
     1
102
RTVSPropertyOp56
 70
     1
102
RTVSPropertyOp57
 70
     1
102
RTVSPost2010Prop28
280
     0
102
RTVSPost2010PropOp28
 70
     1
102
RTVSPost2010Prop29
280
     1
102
RTVSPost2010PropOp29
 70
     1
102
RTVSPost2010Prop30
280
     1
102
RTVSPost2010PropOp30
 70
     1
102
RTVSPost2010Prop31
280
     0
102
RTVSPost2010PropOp31
 70
     1
102
RTVSPost2010Prop32
280
     0
102
RTVSPost2010PropOp32
 70
     1
102
RTVSPost2010Prop33
280
     0
102
RTVSPost2010PropOp33
 70
     1
102
RTVSPost2010Prop34
280
     0
102
RTVSPost2010PropOp34
 70
     1
102
RTVSPost2010Prop35
280
     0
102
RTVSPost2010PropOp35
 70
     1
102
RTVSPost2010Prop36
280
     0
102
RTVSPost2010PropOp36
 70
     1
102
RTVSPost2010Prop37
 90
       50
102
RTVSPost2010PropOp37
 70
     1
102
RTVSPost2010Prop38
140
0.0
102
RTVSPost2010PropOp38
 70
     1
102
RTVSPost2010Prop39
140
1.0
102
RTVSPost2010PropOp39
 70
     1
102
RTVSPost2010Prop40
 90
        0
102
RTVSPost2010PropOp40
 70
     1
102
RTVSPost2010Prop41ColorIndex
 90
      178
102
RTVSPost2010Prop41ColorRGB
 90
        0
102
RTVSPost2010PropOp41
 70
     1
102
RTVSPost2010Prop42
 90
       50
102
RTVSPost2010PropOp42
 70
     1
102
RTVSPost2010Prop43
 90
        3
102
RTVSPost2010PropOp43
 70
     1
102
RTVSPost2010Prop44ColorIndex
 90
        5
102
RTVSPost2010Prop44ColorRGB
 90
      255
102
RTVSPost2010PropOp44
 70
     1
102
RTVSPost2010Prop45
280
     0
102
RTVSPost2010PropOp45
 70
     1
102
RTVSPost2010Prop46
 90
       50
102
RTVSPost2010PropOp46
 70
     1
102
RTVSPost2010Prop47
 90
       50
102
RTVSPost2010PropOp47
 70
     1
102
RTVSPost2010Prop48
 90
       50
102
RTVSPost2010PropOp48
 70
     1
102
RTVSPost2010Prop49
280
     0
102
RTVSPost2010PropOp49
 70
     1
102
RTVSPost2010Prop50
 90
       50
102
RTVSPost2010PropOp50
 70
     1
102
RTVSPost2010Prop51ColorIndex
 90
      256
102
RTVSPost2010Prop51ColorRGB
 90
-16777216
102
RTVSPost2010PropOp51
 70
     0
102
RTVSPost2010Prop52
140
1.0
102
RTVSPost2010PropOp52
 70
     0
102
RTVSPost2010Prop53
 90
        2
102
RTVSPost2010PropOp53
 70
     1
102
RTVSPost2010Prop54
  1
strokes_ogs.tif
102
RTVSPost2010PropOp54
 70
     1
102
RTVSPost2010Prop55
280
     0
102
RTVSPost2010PropOp55
 70
     1
102
RTVSPost2010Prop56
140
1.0
102
RTVSPost2010PropOp56
 70
     1
102
RTVSPost2010Prop57
140
1.0
102
RTVSPost2010PropOp57
 70
     1
  0
XRECORD
  5
3DA
102
{ACAD_REACTORS
330
3D9
102
}
330
3D9
100
AcDbXrecord
280
     1
102
RTVSPropertyOp0
 70
     0
102
RTVSPropertyOp1
 70
     0
102
RTVSPropertyOp2
 70
     0
102
RTVSPropertyOp3
 70
     0
102
RTVSPropertyOp4
 70
     0
102
RTVSPropertyOp5
 70
     0
102
RTVSPropertyOp6
 70
     0
102
RTVSPropertyOp7
 70
     0
102
RTVSPropertyOp8
 70
     0
102
RTVSPropertyOp9
 70
     0
102
RTVSPropertyOp10
 70
     0
102
RTVSPropertyOp11
 70
     0
102
RTVSPropertyOp12
 70
     0
102
RTVSPropertyOp13
 70
     0
102
RTVSPropertyOp14
 70
     2
102
RTVSPropertyOp15
 70
     0
102
RTVSPropertyOp16
 70
     0
102
RTVSPropertyOp17
 70
     0
102
RTVSPropertyOp18
 70
     0
102
RTVSPropertyOp19
 70
     0
102
RTVSPropertyOp20
 70
     0
102
RTVSPropertyOp21
 70
     0
102
RTVSPropertyOp22
 70
     0
102
RTVSPropertyOp23
 70
     0
102
RTVSPropertyOp24
 70
     0
102
RTVSPropertyOp25
 70
     0
102
RTVSPropertyOp26
 70
     0
102
RTVSPropertyOp27
 70
     0
102
RTVSPropertyOp28
 70
     0
102
RTVSPropertyOp29
 70
     0
102
RTVSPropertyOp30
 70
     0
102
RTVSPropertyOp31
 70
     0
102
RTVSPropertyOp32
 70
     0
102
RTVSPropertyOp33
 70
     0
102
RTVSPropertyOp34
 70
     0
102
RTVSPropertyOp35
 70
     0
102
RTVSPropertyOp36
 70
     0
102
RTVSPropertyOp37
 70
     0
102
RTVSPropertyOp38
 70
     0
102
RTVSPropertyOp39
 70
     0
102
RTVSPropertyOp40
 70
     0
102
RTVSPropertyOp41
 70
     0
102
RTVSPropertyOp42
 70
     0
102
RTVSPropertyOp43
 70
     0
102
RTVSPropertyOp44
 70
     0
102
RTVSPropertyOp45
 70
     0
102
RTVSPropertyOp46
 70
     0
102
RTVSPropertyOp47
 70
     0
102
RTVSPropertyOp48
 70
     0
102
RTVSPropertyOp49
 70
     0
102
RTVSPropertyOp50
 70
     0
102
RTVSPropertyOp51
 70
     0
102
RTVSPropertyOp52
 70
     0
102
RTVSPropertyOp53
 70
     0
102
RTVSPropertyOp54
 70
     0
102
RTVSPropertyOp55
 70
     0
102
RTVSPropertyOp56
 70
     0
102
RTVSPropertyOp57
 70
     0
102
RTVSPost2010Prop28
280
     0
102
RTVSPost2010PropOp28
 70
     0
102
RTVSPost2010Prop29
280
     1
102
RTVSPost2010PropOp29
 70
     0
102
RTVSPost2010Prop30
280
     1
102
RTVSPost2010PropOp30
 70
     0
102
RTVSPost2010Prop31
280
     0
102
RTVSPost2010PropOp31
 70
     0
102
RTVSPost2010Prop32
280
     0
102
RTVSPost2010PropOp32
 70
     0
102
RTVSPost2010Prop33
280
     0
102
RTVSPost2010PropOp33
 70
     0
102
RTVSPost2010Prop34
280
     0
102
RTVSPost2010PropOp34
 70
     0
102
RTVSPost2010Prop35
280
     0
102
RTVSPost2010PropOp35
 70
     0
102
RTVSPost2010Prop36
280
     0
102
RTVSPost2010PropOp36
 70
     0
102
RTVSPost2010Prop37
 90
       50
102
RTVSPost2010PropOp37
 70
     0
102
RTVSPost2010Prop38
140
0.0
102
RTVSPost2010PropOp38
 70
     0
102
RTVSPost2010Prop39
140
1.0
102
RTVSPost2010PropOp39
 70
     0
102
RTVSPost2010Prop40
 90
        0
102
RTVSPost2010PropOp40
 70
     0
102
RTVSPost2010Prop41ColorIndex
 90
      178
102
RTVSPost2010Prop41ColorRGB
 90
        0
102
RTVSPost2010PropOp41
 70
     0
102
RTVSPost2010Prop42
 90
       50
102
RTVSPost2010PropOp42
 70
     0
102
RTVSPost2010Prop43
 90
        3
102
RTVSPost2010PropOp43
 70
     0
102
RTVSPost2010Prop44ColorIndex
 90
        5
102
RTVSPost2010Prop44ColorRGB
 90
      255
102
RTVSPost2010PropOp44
 70
     0
102
RTVSPost2010Prop45
280
     0
102
RTVSPost2010PropOp45
 70
     0
102
RTVSPost2010Prop46
 90
       50
102
RTVSPost2010PropOp46
 70
     0
102
RTVSPost2010Prop47
 90
       50
102
RTVSPost2010PropOp47
 70
     0
102
RTVSPost2010Prop48
 90
       50
102
RTVSPost2010PropOp48
 70
     0
102
RTVSPost2010Prop49
280
     0
102
RTVSPost2010PropOp49
 70
     0
102
RTVSPost2010Prop50
 90
       50
102
RTVSPost2010PropOp50
 70
     0
102
RTVSPost2010Prop51ColorIndex
 90
      256
102
RTVSPost2010Prop51ColorRGB
 90
-16777216
102
RTVSPost2010PropOp51
 70
     0
102
RTVSPost2010Prop52
140
1.0
102
RTVSPost2010PropOp52
 70
     0
102
RTVSPost2010Prop53
 90
        2
102
RTVSPost2010PropOp53
 70
     0
102
RTVSPost2010Prop54
  1
strokes_ogs.tif
102
RTVSPost2010PropOp54
 70
     0
102
RTVSPost2010Prop55
280
     0
102
RTVSPost2010PropOp55
 70
     0
102
RTVSPost2010Prop56
140
1.0
102
RTVSPost2010PropOp56
 70
     0
102
RTVSPost2010Prop57
140
1.0
102
RTVSPost2010PropOp57
 70
     0
  0
XRECORD
  5
3D2
102
{ACAD_REACTORS
330
3D1
102
}
330
3D1
100
AcDbXrecord
280
     1
102
RTVSPropertyOp0
 70
     1
102
RTVSPropertyOp1
 70
     1
102
RTVSPropertyOp2
 70
     1
102
RTVSPropertyOp3
 70
     1
102
RTVSPropertyOp4
 70
     1
102
RTVSPropertyOp5
 70
     1
102
RTVSPropertyOp6
 70
     1
102
RTVSPropertyOp7
 70
     1
102
RTVSPropertyOp8
 70
     1
102
RTVSPropertyOp9
 70
     1
102
RTVSPropertyOp10
 70
     1
102
RTVSPropertyOp11
 70
     1
102
RTVSPropertyOp12
 70
     1
102
RTVSPropertyOp13
 70
     1
102
RTVSPropertyOp14
 70
     1
102
RTVSPropertyOp15
 70
     1
102
RTVSPropertyOp16
 70
     1
102
RTVSPropertyOp17
 70
     1
102
RTVSPropertyOp18
 70
     1
102
RTVSPropertyOp19
 70
     1
102
RTVSPropertyOp20
 70
     1
102
RTVSPropertyOp21
 70
     1
102
RTVSPropertyOp22
 70
     1
102
RTVSPropertyOp23
 70
     1
102
RTVSPropertyOp24
 70
     1
102
RTVSPropertyOp25
 70
     1
102
RTVSPropertyOp26
 70
     1
102
RTVSPropertyOp27
 70
     1
102
RTVSPropertyOp28
 70
     1
102
RTVSPropertyOp29
 70
     1
102
RTVSPropertyOp30
 70
     1
102
RTVSPropertyOp31
 70
     1
102
RTVSPropertyOp32
 70
     1
102
RTVSPropertyOp33
 70
     1
102
RTVSPropertyOp34
 70
     1
102
RTVSPropertyOp35
 70
     1
102
RTVSPropertyOp36
 70
     1
102
RTVSPropertyOp37
 70
     1
102
RTVSPropertyOp38
 70
     1
102
RTVSPropertyOp39
 70
     1
102
RTVSPropertyOp40
 70
     1
102
RTVSPropertyOp41
 70
     1
102
RTVSPropertyOp42
 70
     1
102
RTVSPropertyOp43
 70
     1
102
RTVSPropertyOp44
 70
     1
102
RTVSPropertyOp45
 70
     1
102
RTVSPropertyOp46
 70
     1
102
RTVSPropertyOp47
 70
     1
102
RTVSPropertyOp48
 70
     1
102
RTVSPropertyOp49
 70
     1
102
RTVSPropertyOp50
 70
     1
102
RTVSPropertyOp51
 70
     0
102
RTVSPropertyOp52
 70
     0
102
RTVSPropertyOp53
 70
     1
102
RTVSPropertyOp54
 70
     1
102
RTVSPropertyOp55
 70
     1
102
RTVSPropertyOp56
 70
     1
102
RTVSPropertyOp57
 70
     1
102
RTVSPost2010Prop28
280
     0
102
RTVSPost2010PropOp28
 70
     1
102
RTVSPost2010Prop29
280
     1
102
RTVSPost2010PropOp29
 70
     1
102
RTVSPost2010Prop30
280
     1
102
RTVSPost2010PropOp30
 70
     1
102
RTVSPost2010Prop31
280
     0
102
RTVSPost2010PropOp31
 70
     1
102
RTVSPost2010Prop32
280
     0
102
RTVSPost2010PropOp32
 70
     1
102
RTVSPost2010Prop33
280
     0
102
RTVSPost2010PropOp33
 70
     1
102
RTVSPost2010Prop34
280
     0
102
RTVSPost2010PropOp34
 70
     1
102
RTVSPost2010Prop35
280
     0
102
RTVSPost2010PropOp35
 70
     1
102
RTVSPost2010Prop36
280
     0
102
RTVSPost2010PropOp36
 70
     1
102
RTVSPost2010Prop37
 90
       50
102
RTVSPost2010PropOp37
 70
     1
102
RTVSPost2010Prop38
140
0.0
102
RTVSPost2010PropOp38
 70
     1
102
RTVSPost2010Prop39
140
1.0
102
RTVSPost2010PropOp39
 70
     1
102
RTVSPost2010Prop40
 90
        0
102
RTVSPost2010PropOp40
 70
     1
102
RTVSPost2010Prop41ColorIndex
 90
      178
102
RTVSPost2010Prop41ColorRGB
 90
        0
102
RTVSPost2010PropOp41
 70
     1
102
RTVSPost2010Prop42
 90
       50
102
RTVSPost2010PropOp42
 70
     1
102
RTVSPost2010Prop43
 90
        3
102
RTVSPost2010PropOp43
 70
     1
102
RTVSPost2010Prop44ColorIndex
 90
        5
102
RTVSPost2010Prop44ColorRGB
 90
      255
102
RTVSPost2010PropOp44
 70
     1
102
RTVSPost2010Prop45
280
     0
102
RTVSPost2010PropOp45
 70
     1
102
RTVSPost2010Prop46
 90
       50
102
RTVSPost2010PropOp46
 70
     1
102
RTVSPost2010Prop47
 90
       50
102
RTVSPost2010PropOp47
 70
     1
102
RTVSPost2010Prop48
 90
       50
102
RTVSPost2010PropOp48
 70
     1
102
RTVSPost2010Prop49
280
     0
102
RTVSPost2010PropOp49
 70
     1
102
RTVSPost2010Prop50
 90
       50
102
RTVSPost2010PropOp50
 70
     1
102
RTVSPost2010Prop51ColorIndex
 90
      256
102
RTVSPost2010Prop51ColorRGB
 90
-16777216
102
RTVSPost2010PropOp51
 70
     0
102
RTVSPost2010Prop52
140
1.0
102
RTVSPost2010PropOp52
 70
     0
102
RTVSPost2010Prop53
 90
        2
102
RTVSPost2010PropOp53
 70
     1
102
RTVSPost2010Prop54
  1
strokes_ogs.tif
102
RTVSPost2010PropOp54
 70
     1
102
RTVSPost2010Prop55
280
     0
102
RTVSPost2010PropOp55
 70
     1
102
RTVSPost2010Prop56
140
1.0
102
RTVSPost2010PropOp56
 70
     1
102
RTVSPost2010Prop57
140
1.0
102
RTVSPost2010PropOp57
 70
     1
  0
XRECORD
  5
3B6
102
{ACAD_REACTORS
330
3B5
102
}
330
3B5
100
AcDbXrecord
280
     1
102
RTVSPropertyOp0
 70
     1
102
RTVSPropertyOp1
 70
     1
102
RTVSPropertyOp2
 70
     1
102
RTVSPropertyOp3
 70
     1
102
RTVSPropertyOp4
 70
     1
102
RTVSPropertyOp5
 70
     1
102
RTVSPropertyOp6
 70
     1
102
RTVSPropertyOp7
 70
     1
102
RTVSPropertyOp8
 70
     1
102
RTVSPropertyOp9
 70
     1
102
RTVSPropertyOp10
 70
     1
102
RTVSPropertyOp11
 70
     1
102
RTVSPropertyOp12
 70
     1
102
RTVSPropertyOp13
 70
     1
102
RTVSPropertyOp14
 70
     1
102
RTVSPropertyOp15
 70
     1
102
RTVSPropertyOp16
 70
     1
102
RTVSPropertyOp17
 70
     1
102
RTVSPropertyOp18
 70
     1
102
RTVSPropertyOp19
 70
     1
102
RTVSPropertyOp20
 70
     1
102
RTVSPropertyOp21
 70
     1
102
RTVSPropertyOp22
 70
     1
102
RTVSPropertyOp23
 70
     1
102
RTVSPropertyOp24
 70
     1
102
RTVSPropertyOp25
 70
     1
102
RTVSPropertyOp26
 70
     1
102
RTVSPropertyOp27
 70
     1
102
RTVSPropertyOp28
 70
     1
102
RTVSPropertyOp29
 70
     1
102
RTVSPropertyOp30
 70
     1
102
RTVSPropertyOp31
 70
     1
102
RTVSPropertyOp32
 70
     1
102
RTVSPropertyOp33
 70
     1
102
RTVSPropertyOp34
 70
     1
102
RTVSPropertyOp35
 70
     1
102
RTVSPropertyOp36
 70
     1
102
RTVSPropertyOp37
 70
     1
102
RTVSPropertyOp38
 70
     1
102
RTVSPropertyOp39
 70
     1
102
RTVSPropertyOp40
 70
     1
102
RTVSPropertyOp41
 70
     1
102
RTVSPropertyOp42
 70
     1
102
RTVSPropertyOp43
 70
     1
102
RTVSPropertyOp44
 70
     1
102
RTVSPropertyOp45
 70
     1
102
RTVSPropertyOp46
 70
     1
102
RTVSPropertyOp47
 70
     1
102
RTVSPropertyOp48
 70
     1
102
RTVSPropertyOp49
 70
     1
102
RTVSPropertyOp50
 70
     1
102
RTVSPropertyOp51
 70
     0
102
RTVSPropertyOp52
 70
     0
102
RTVSPropertyOp53
 70
     1
102
RTVSPropertyOp54
 70
     1
102
RTVSPropertyOp55
 70
     1
102
RTVSPropertyOp56
 70
     1
102
RTVSPropertyOp57
 70
     1
102
RTVSPost2010Prop28
280
     0
102
RTVSPost2010PropOp28
 70
     1
102
RTVSPost2010Prop29
280
     1
102
RTVSPost2010PropOp29
 70
     1
102
RTVSPost2010Prop30
280
     1
102
RTVSPost2010PropOp30
 70
     1
102
RTVSPost2010Prop31
280
     0
102
RTVSPost2010PropOp31
 70
     1
102
RTVSPost2010Prop32
280
     0
102
RTVSPost2010PropOp32
 70
     1
102
RTVSPost2010Prop33
280
     0
102
RTVSPost2010PropOp33
 70
     1
102
RTVSPost2010Prop34
280
     0
102
RTVSPost2010PropOp34
 70
     1
102
RTVSPost2010Prop35
280
     0
102
RTVSPost2010PropOp35
 70
     1
102
RTVSPost2010Prop36
280
     0
102
RTVSPost2010PropOp36
 70
     1
102
RTVSPost2010Prop37
 90
       50
102
RTVSPost2010PropOp37
 70
     1
102
RTVSPost2010Prop38
140
0.0
102
RTVSPost2010PropOp38
 70
     1
102
RTVSPost2010Prop39
140
1.0
102
RTVSPost2010PropOp39
 70
     1
102
RTVSPost2010Prop40
 90
        0
102
RTVSPost2010PropOp40
 70
     1
102
RTVSPost2010Prop41ColorIndex
 90
      178
102
RTVSPost2010Prop41ColorRGB
 90
        0
102
RTVSPost2010PropOp41
 70
     1
102
RTVSPost2010Prop42
 90
       50
102
RTVSPost2010PropOp42
 70
     1
102
RTVSPost2010Prop43
 90
        3
102
RTVSPost2010PropOp43
 70
     1
102
RTVSPost2010Prop44ColorIndex
 90
        5
102
RTVSPost2010Prop44ColorRGB
 90
      255
102
RTVSPost2010PropOp44
 70
     1
102
RTVSPost2010Prop45
280
     0
102
RTVSPost2010PropOp45
 70
     1
102
RTVSPost2010Prop46
 90
       50
102
RTVSPost2010PropOp46
 70
     1
102
RTVSPost2010Prop47
 90
       50
102
RTVSPost2010PropOp47
 70
     1
102
RTVSPost2010Prop48
 90
       50
102
RTVSPost2010PropOp48
 70
     1
102
RTVSPost2010Prop49
280
     0
102
RTVSPost2010PropOp49
 70
     1
102
RTVSPost2010Prop50
 90
       50
102
RTVSPost2010PropOp50
 70
     1
102
RTVSPost2010Prop51ColorIndex
 90
      256
102
RTVSPost2010Prop51ColorRGB
 90
-16777216
102
RTVSPost2010PropOp51
 70
     0
102
RTVSPost2010Prop52
140
1.0
102
RTVSPost2010PropOp52
 70
     0
102
RTVSPost2010Prop53
 90
        2
102
RTVSPost2010PropOp53
 70
     1
102
RTVSPost2010Prop54
  1
strokes_ogs.tif
102
RTVSPost2010PropOp54
 70
     1
102
RTVSPost2010Prop55
280
     0
102
RTVSPost2010PropOp55
 70
     1
102
RTVSPost2010Prop56
140
1.0
102
RTVSPost2010PropOp56
 70
     1
102
RTVSPost2010Prop57
140
1.0
102
RTVSPost2010PropOp57
 70
     1
  0
XRECORD
  5
3B8
102
{ACAD_REACTORS
330
3B7
102
}
330
3B7
100
AcDbXrecord
280
     1
102
RTVSPropertyOp0
 70
     1
102
RTVSPropertyOp1
 70
     1
102
RTVSPropertyOp2
 70
     1
102
RTVSPropertyOp3
 70
     1
102
RTVSPropertyOp4
 70
     1
102
RTVSPropertyOp5
 70
     1
102
RTVSPropertyOp6
 70
     1
102
RTVSPropertyOp7
 70
     1
102
RTVSPropertyOp8
 70
     1
102
RTVSPropertyOp9
 70
     1
102
RTVSPropertyOp10
 70
     1
102
RTVSPropertyOp11
 70
     1
102
RTVSPropertyOp12
 70
     1
102
RTVSPropertyOp13
 70
     1
102
RTVSPropertyOp14
 70
     1
102
RTVSPropertyOp15
 70
     1
102
RTVSPropertyOp16
 70
     1
102
RTVSPropertyOp17
 70
     1
102
RTVSPropertyOp18
 70
     1
102
RTVSPropertyOp19
 70
     1
102
RTVSPropertyOp20
 70
     1
102
RTVSPropertyOp21
 70
     1
102
RTVSPropertyOp22
 70
     1
102
RTVSPropertyOp23
 70
     1
102
RTVSPropertyOp24
 70
     1
102
RTVSPropertyOp25
 70
     1
102
RTVSPropertyOp26
 70
     1
102
RTVSPropertyOp27
 70
     1
102
RTVSPropertyOp28
 70
     1
102
RTVSPropertyOp29
 70
     1
102
RTVSPropertyOp30
 70
     1
102
RTVSPropertyOp31
 70
     1
102
RTVSPropertyOp32
 70
     1
102
RTVSPropertyOp33
 70
     1
102
RTVSPropertyOp34
 70
     1
102
RTVSPropertyOp35
 70
     1
102
RTVSPropertyOp36
 70
     1
102
RTVSPropertyOp37
 70
     1
102
RTVSPropertyOp38
 70
     1
102
RTVSPropertyOp39
 70
     1
102
RTVSPropertyOp40
 70
     1
102
RTVSPropertyOp41
 70
     1
102
RTVSPropertyOp42
 70
     1
102
RTVSPropertyOp43
 70
     1
102
RTVSPropertyOp44
 70
     1
102
RTVSPropertyOp45
 70
     1
102
RTVSPropertyOp46
 70
     1
102
RTVSPropertyOp47
 70
     1
102
RTVSPropertyOp48
 70
     1
102
RTVSPropertyOp49
 70
     1
102
RTVSPropertyOp50
 70
     1
102
RTVSPropertyOp51
 70
     0
102
RTVSPropertyOp52
 70
     0
102
RTVSPropertyOp53
 70
     1
102
RTVSPropertyOp54
 70
     1
102
RTVSPropertyOp55
 70
     1
102
RTVSPropertyOp56
 70
     1
102
RTVSPropertyOp57
 70
     1
102
RTVSPost2010Prop28
280
     0
102
RTVSPost2010PropOp28
 70
     1
102
RTVSPost2010Prop29
280
     1
102
RTVSPost2010PropOp29
 70
     1
102
RTVSPost2010Prop30
280
     1
102
RTVSPost2010PropOp30
 70
     1
102
RTVSPost2010Prop31
280
     0
102
RTVSPost2010PropOp31
 70
     1
102
RTVSPost2010Prop32
280
     0
102
RTVSPost2010PropOp32
 70
     1
102
RTVSPost2010Prop33
280
     0
102
RTVSPost2010PropOp33
 70
     1
102
RTVSPost2010Prop34
280
     0
102
RTVSPost2010PropOp34
 70
     1
102
RTVSPost2010Prop35
280
     0
102
RTVSPost2010PropOp35
 70
     1
102
RTVSPost2010Prop36
280
     0
102
RTVSPost2010PropOp36
 70
     1
102
RTVSPost2010Prop37
 90
       50
102
RTVSPost2010PropOp37
 70
     1
102
RTVSPost2010Prop38
140
0.0
102
RTVSPost2010PropOp38
 70
     1
102
RTVSPost2010Prop39
140
1.0
102
RTVSPost2010PropOp39
 70
     1
102
RTVSPost2010Prop40
 90
        0
102
RTVSPost2010PropOp40
 70
     1
102
RTVSPost2010Prop41ColorIndex
 90
      178
102
RTVSPost2010Prop41ColorRGB
 90
        0
102
RTVSPost2010PropOp41
 70
     1
102
RTVSPost2010Prop42
 90
       50
102
RTVSPost2010PropOp42
 70
     1
102
RTVSPost2010Prop43
 90
        3
102
RTVSPost2010PropOp43
 70
     1
102
RTVSPost2010Prop44ColorIndex
 90
        5
102
RTVSPost2010Prop44ColorRGB
 90
      255
102
RTVSPost2010PropOp44
 70
     1
102
RTVSPost2010Prop45
280
     0
102
RTVSPost2010PropOp45
 70
     1
102
RTVSPost2010Prop46
 90
       50
102
RTVSPost2010PropOp46
 70
     1
102
RTVSPost2010Prop47
 90
       50
102
RTVSPost2010PropOp47
 70
     1
102
RTVSPost2010Prop48
 90
       50
102
RTVSPost2010PropOp48
 70
     1
102
RTVSPost2010Prop49
280
     0
102
RTVSPost2010PropOp49
 70
     1
102
RTVSPost2010Prop50
 90
       50
102
RTVSPost2010PropOp50
 70
     1
102
RTVSPost2010Prop51ColorIndex
 90
      256
102
RTVSPost2010Prop51ColorRGB
 90
-16777216
102
RTVSPost2010PropOp51
 70
     0
102
RTVSPost2010Prop52
140
1.0
102
RTVSPost2010PropOp52
 70
     0
102
RTVSPost2010Prop53
 90
        2
102
RTVSPost2010PropOp53
 70
     1
102
RTVSPost2010Prop54
  1
strokes_ogs.tif
102
RTVSPost2010PropOp54
 70
     1
102
RTVSPost2010Prop55
280
     0
102
RTVSPost2010PropOp55
 70
     1
102
RTVSPost2010Prop56
140
1.0
102
RTVSPost2010PropOp56
 70
     1
102
RTVSPost2010Prop57
140
1.0
102
RTVSPost2010PropOp57
 70
     1
  0
XRECORD
  5
3BA
102
{ACAD_REACTORS
330
3B9
102
}
330
3B9
100
AcDbXrecord
280
     1
102
RTVSPropertyOp0
 70
     1
102
RTVSPropertyOp1
 70
     1
102
RTVSPropertyOp2
 70
     1
102
RTVSPropertyOp3
 70
     1
102
RTVSPropertyOp4
 70
     1
102
RTVSPropertyOp5
 70
     1
102
RTVSPropertyOp6
 70
     1
102
RTVSPropertyOp7
 70
     1
102
RTVSPropertyOp8
 70
     1
102
RTVSPropertyOp9
 70
     1
102
RTVSPropertyOp10
 70
     1
102
RTVSPropertyOp11
 70
     1
102
RTVSPropertyOp12
 70
     1
102
RTVSPropertyOp13
 70
     1
102
RTVSPropertyOp14
 70
     1
102
RTVSPropertyOp15
 70
     1
102
RTVSPropertyOp16
 70
     1
102
RTVSPropertyOp17
 70
     1
102
RTVSPropertyOp18
 70
     1
102
RTVSPropertyOp19
 70
     1
102
RTVSPropertyOp20
 70
     1
102
RTVSPropertyOp21
 70
     1
102
RTVSPropertyOp22
 70
     1
102
RTVSPropertyOp23
 70
     1
102
RTVSPropertyOp24
 70
     1
102
RTVSPropertyOp25
 70
     1
102
RTVSPropertyOp26
 70
     1
102
RTVSPropertyOp27
 70
     1
102
RTVSPropertyOp28
 70
     1
102
RTVSPropertyOp29
 70
     1
102
RTVSPropertyOp30
 70
     1
102
RTVSPropertyOp31
 70
     1
102
RTVSPropertyOp32
 70
     1
102
RTVSPropertyOp33
 70
     1
102
RTVSPropertyOp34
 70
     1
102
RTVSPropertyOp35
 70
     1
102
RTVSPropertyOp36
 70
     1
102
RTVSPropertyOp37
 70
     1
102
RTVSPropertyOp38
 70
     1
102
RTVSPropertyOp39
 70
     1
102
RTVSPropertyOp40
 70
     1
102
RTVSPropertyOp41
 70
     1
102
RTVSPropertyOp42
 70
     1
102
RTVSPropertyOp43
 70
     1
102
RTVSPropertyOp44
 70
     1
102
RTVSPropertyOp45
 70
     1
102
RTVSPropertyOp46
 70
     1
102
RTVSPropertyOp47
 70
     1
102
RTVSPropertyOp48
 70
     1
102
RTVSPropertyOp49
 70
     1
102
RTVSPropertyOp50
 70
     1
102
RTVSPropertyOp51
 70
     0
102
RTVSPropertyOp52
 70
     0
102
RTVSPropertyOp53
 70
     1
102
RTVSPropertyOp54
 70
     1
102
RTVSPropertyOp55
 70
     1
102
RTVSPropertyOp56
 70
     1
102
RTVSPropertyOp57
 70
     1
102
RTVSPost2010Prop28
280
     0
102
RTVSPost2010PropOp28
 70
     1
102
RTVSPost2010Prop29
280
     1
102
RTVSPost2010PropOp29
 70
     1
102
RTVSPost2010Prop30
280
     1
102
RTVSPost2010PropOp30
 70
     1
102
RTVSPost2010Prop31
280
     0
102
RTVSPost2010PropOp31
 70
     1
102
RTVSPost2010Prop32
280
     0
102
RTVSPost2010PropOp32
 70
     1
102
RTVSPost2010Prop33
280
     0
102
RTVSPost2010PropOp33
 70
     1
102
RTVSPost2010Prop34
280
     0
102
RTVSPost2010PropOp34
 70
     1
102
RTVSPost2010Prop35
280
     0
102
RTVSPost2010PropOp35
 70
     1
102
RTVSPost2010Prop36
280
     0
102
RTVSPost2010PropOp36
 70
     1
102
RTVSPost2010Prop37
 90
       50
102
RTVSPost2010PropOp37
 70
     1
102
RTVSPost2010Prop38
140
0.0
102
RTVSPost2010PropOp38
 70
     1
102
RTVSPost2010Prop39
140
1.0
102
RTVSPost2010PropOp39
 70
     1
102
RTVSPost2010Prop40
 90
        0
102
RTVSPost2010PropOp40
 70
     1
102
RTVSPost2010Prop41ColorIndex
 90
      178
102
RTVSPost2010Prop41ColorRGB
 90
        0
102
RTVSPost2010PropOp41
 70
     1
102
RTVSPost2010Prop42
 90
       50
102
RTVSPost2010PropOp42
 70
     1
102
RTVSPost2010Prop43
 90
        3
102
RTVSPost2010PropOp43
 70
     1
102
RTVSPost2010Prop44ColorIndex
 90
        5
102
RTVSPost2010Prop44ColorRGB
 90
      255
102
RTVSPost2010PropOp44
 70
     1
102
RTVSPost2010Prop45
280
     0
102
RTVSPost2010PropOp45
 70
     1
102
RTVSPost2010Prop46
 90
       50
102
RTVSPost2010PropOp46
 70
     1
102
RTVSPost2010Prop47
 90
       50
102
RTVSPost2010PropOp47
 70
     1
102
RTVSPost2010Prop48
 90
       50
102
RTVSPost2010PropOp48
 70
     1
102
RTVSPost2010Prop49
280
     0
102
RTVSPost2010PropOp49
 70
     1
102
RTVSPost2010Prop50
 90
       50
102
RTVSPost2010PropOp50
 70
     1
102
RTVSPost2010Prop51ColorIndex
 90
      256
102
RTVSPost2010Prop51ColorRGB
 90
-16777216
102
RTVSPost2010PropOp51
 70
     0
102
RTVSPost2010Prop52
140
1.0
102
RTVSPost2010PropOp52
 70
     0
102
RTVSPost2010Prop53
 90
        2
102
RTVSPost2010PropOp53
 70
     1
102
RTVSPost2010Prop54
  1
strokes_ogs.tif
102
RTVSPost2010PropOp54
 70
     1
102
RTVSPost2010Prop55
280
     0
102
RTVSPost2010PropOp55
 70
     1
102
RTVSPost2010Prop56
140
1.0
102
RTVSPost2010PropOp56
 70
     1
102
RTVSPost2010Prop57
140
1.0
102
RTVSPost2010PropOp57
 70
     1
  0
XRECORD
  5
3BC
102
{ACAD_REACTORS
330
3BB
102
}
330
3BB
100
AcDbXrecord
280
     1
102
RTVSPropertyOp0
 70
     1
102
RTVSPropertyOp1
 70
     1
102
RTVSPropertyOp2
 70
     1
102
RTVSPropertyOp3
 70
     1
102
RTVSPropertyOp4
 70
     1
102
RTVSPropertyOp5
 70
     1
102
RTVSPropertyOp6
 70
     1
102
RTVSPropertyOp7
 70
     1
102
RTVSPropertyOp8
 70
     1
102
RTVSPropertyOp9
 70
     1
102
RTVSPropertyOp10
 70
     1
102
RTVSPropertyOp11
 70
     1
102
RTVSPropertyOp12
 70
     1
102
RTVSPropertyOp13
 70
     1
102
RTVSPropertyOp14
 70
     1
102
RTVSPropertyOp15
 70
     1
102
RTVSPropertyOp16
 70
     1
102
RTVSPropertyOp17
 70
     1
102
RTVSPropertyOp18
 70
     1
102
RTVSPropertyOp19
 70
     1
102
RTVSPropertyOp20
 70
     1
102
RTVSPropertyOp21
 70
     1
102
RTVSPropertyOp22
 70
     1
102
RTVSPropertyOp23
 70
     1
102
RTVSPropertyOp24
 70
     1
102
RTVSPropertyOp25
 70
     1
102
RTVSPropertyOp26
 70
     1
102
RTVSPropertyOp27
 70
     1
102
RTVSPropertyOp28
 70
     1
102
RTVSPropertyOp29
 70
     1
102
RTVSPropertyOp30
 70
     1
102
RTVSPropertyOp31
 70
     1
102
RTVSPropertyOp32
 70
     1
102
RTVSPropertyOp33
 70
     1
102
RTVSPropertyOp34
 70
     1
102
RTVSPropertyOp35
 70
     1
102
RTVSPropertyOp36
 70
     1
102
RTVSPropertyOp37
 70
     1
102
RTVSPropertyOp38
 70
     1
102
RTVSPropertyOp39
 70
     1
102
RTVSPropertyOp40
 70
     1
102
RTVSPropertyOp41
 70
     1
102
RTVSPropertyOp42
 70
     1
102
RTVSPropertyOp43
 70
     1
102
RTVSPropertyOp44
 70
     1
102
RTVSPropertyOp45
 70
     1
102
RTVSPropertyOp46
 70
     1
102
RTVSPropertyOp47
 70
     1
102
RTVSPropertyOp48
 70
     1
102
RTVSPropertyOp49
 70
     1
102
RTVSPropertyOp50
 70
     1
102
RTVSPropertyOp51
 70
     0
102
RTVSPropertyOp52
 70
     0
102
RTVSPropertyOp53
 70
     1
102
RTVSPropertyOp54
 70
     1
102
RTVSPropertyOp55
 70
     1
102
RTVSPropertyOp56
 70
     1
102
RTVSPropertyOp57
 70
     1
102
RTVSPost2010Prop28
280
     0
102
RTVSPost2010PropOp28
 70
     1
102
RTVSPost2010Prop29
280
     1
102
RTVSPost2010PropOp29
 70
     1
102
RTVSPost2010Prop30
280
     1
102
RTVSPost2010PropOp30
 70
     1
102
RTVSPost2010Prop31
280
     0
102
RTVSPost2010PropOp31
 70
     1
102
RTVSPost2010Prop32
280
     0
102
RTVSPost2010PropOp32
 70
     1
102
RTVSPost2010Prop33
280
     0
102
RTVSPost2010PropOp33
 70
     1
102
RTVSPost2010Prop34
280
     0
102
RTVSPost2010PropOp34
 70
     1
102
RTVSPost2010Prop35
280
     0
102
RTVSPost2010PropOp35
 70
     1
102
RTVSPost2010Prop36
280
     0
102
RTVSPost2010PropOp36
 70
     1
102
RTVSPost2010Prop37
 90
       50
102
RTVSPost2010PropOp37
 70
     1
102
RTVSPost2010Prop38
140
0.0
102
RTVSPost2010PropOp38
 70
     1
102
RTVSPost2010Prop39
140
1.0
102
RTVSPost2010PropOp39
 70
     1
102
RTVSPost2010Prop40
 90
        0
102
RTVSPost2010PropOp40
 70
     1
102
RTVSPost2010Prop41ColorIndex
 90
      178
102
RTVSPost2010Prop41ColorRGB
 90
        0
102
RTVSPost2010PropOp41
 70
     1
102
RTVSPost2010Prop42
 90
       50
102
RTVSPost2010PropOp42
 70
     1
102
RTVSPost2010Prop43
 90
        3
102
RTVSPost2010PropOp43
 70
     1
102
RTVSPost2010Prop44ColorIndex
 90
        5
102
RTVSPost2010Prop44ColorRGB
 90
      255
102
RTVSPost2010PropOp44
 70
     1
102
RTVSPost2010Prop45
280
     0
102
RTVSPost2010PropOp45
 70
     1
102
RTVSPost2010Prop46
 90
       50
102
RTVSPost2010PropOp46
 70
     1
102
RTVSPost2010Prop47
 90
       50
102
RTVSPost2010PropOp47
 70
     1
102
RTVSPost2010Prop48
 90
       50
102
RTVSPost2010PropOp48
 70
     1
102
RTVSPost2010Prop49
280
     0
102
RTVSPost2010PropOp49
 70
     1
102
RTVSPost2010Prop50
 90
       50
102
RTVSPost2010PropOp50
 70
     1
102
RTVSPost2010Prop51ColorIndex
 90
      256
102
RTVSPost2010Prop51ColorRGB
 90
-16777216
102
RTVSPost2010PropOp51
 70
     0
102
RTVSPost2010Prop52
140
1.0
102
RTVSPost2010PropOp52
 70
     0
102
RTVSPost2010Prop53
 90
        2
102
RTVSPost2010PropOp53
 70
     1
102
RTVSPost2010Prop54
  1
strokes_ogs.tif
102
RTVSPost2010PropOp54
 70
     1
102
RTVSPost2010Prop55
280
     0
102
RTVSPost2010PropOp55
 70
     1
102
RTVSPost2010Prop56
140
1.0
102
RTVSPost2010PropOp56
 70
     1
102
RTVSPost2010Prop57
140
1.0
102
RTVSPost2010PropOp57
 70
     1
  0
XRECORD
  5
3C2
102
{ACAD_REACTORS
330
3C1
102
}
330
3C1
100
AcDbXrecord
280
     1
102
RTVSPropertyOp0
 70
     1
102
RTVSPropertyOp1
 70
     1
102
RTVSPropertyOp2
 70
     1
102
RTVSPropertyOp3
 70
     1
102
RTVSPropertyOp4
 70
     1
102
RTVSPropertyOp5
 70
     1
102
RTVSPropertyOp6
 70
     1
102
RTVSPropertyOp7
 70
     1
102
RTVSPropertyOp8
 70
     1
102
RTVSPropertyOp9
 70
     1
102
RTVSPropertyOp10
 70
     1
102
RTVSPropertyOp11
 70
     1
102
RTVSPropertyOp12
 70
     1
102
RTVSPropertyOp13
 70
     1
102
RTVSPropertyOp14
 70
     1
102
RTVSPropertyOp15
 70
     1
102
RTVSPropertyOp16
 70
     1
102
RTVSPropertyOp17
 70
     1
102
RTVSPropertyOp18
 70
     1
102
RTVSPropertyOp19
 70
     1
102
RTVSPropertyOp20
 70
     1
102
RTVSPropertyOp21
 70
     1
102
RTVSPropertyOp22
 70
     1
102
RTVSPropertyOp23
 70
     1
102
RTVSPropertyOp24
 70
     1
102
RTVSPropertyOp25
 70
     1
102
RTVSPropertyOp26
 70
     1
102
RTVSPropertyOp27
 70
     1
102
RTVSPropertyOp28
 70
     1
102
RTVSPropertyOp29
 70
     1
102
RTVSPropertyOp30
 70
     1
102
RTVSPropertyOp31
 70
     1
102
RTVSPropertyOp32
 70
     1
102
RTVSPropertyOp33
 70
     1
102
RTVSPropertyOp34
 70
     1
102
RTVSPropertyOp35
 70
     1
102
RTVSPropertyOp36
 70
     1
102
RTVSPropertyOp37
 70
     1
102
RTVSPropertyOp38
 70
     1
102
RTVSPropertyOp39
 70
     1
102
RTVSPropertyOp40
 70
     1
102
RTVSPropertyOp41
 70
     1
102
RTVSPropertyOp42
 70
     1
102
RTVSPropertyOp43
 70
     1
102
RTVSPropertyOp44
 70
     1
102
RTVSPropertyOp45
 70
     1
102
RTVSPropertyOp46
 70
     1
102
RTVSPropertyOp47
 70
     1
102
RTVSPropertyOp48
 70
     1
102
RTVSPropertyOp49
 70
     1
102
RTVSPropertyOp50
 70
     1
102
RTVSPropertyOp51
 70
     0
102
RTVSPropertyOp52
 70
     0
102
RTVSPropertyOp53
 70
     1
102
RTVSPropertyOp54
 70
     1
102
RTVSPropertyOp55
 70
     1
102
RTVSPropertyOp56
 70
     1
102
RTVSPropertyOp57
 70
     1
102
RTVSPost2010Prop28
280
     0
102
RTVSPost2010PropOp28
 70
     1
102
RTVSPost2010Prop29
280
     1
102
RTVSPost2010PropOp29
 70
     1
102
RTVSPost2010Prop30
280
     1
102
RTVSPost2010PropOp30
 70
     1
102
RTVSPost2010Prop31
280
     0
102
RTVSPost2010PropOp31
 70
     1
102
RTVSPost2010Prop32
280
     0
102
RTVSPost2010PropOp32
 70
     1
102
RTVSPost2010Prop33
280
     0
102
RTVSPost2010PropOp33
 70
     1
102
RTVSPost2010Prop34
280
     0
102
RTVSPost2010PropOp34
 70
     1
102
RTVSPost2010Prop35
280
     0
102
RTVSPost2010PropOp35
 70
     1
102
RTVSPost2010Prop36
280
     0
102
RTVSPost2010PropOp36
 70
     1
102
RTVSPost2010Prop37
 90
       50
102
RTVSPost2010PropOp37
 70
     1
102
RTVSPost2010Prop38
140
0.0
102
RTVSPost2010PropOp38
 70
     1
102
RTVSPost2010Prop39
140
1.0
102
RTVSPost2010PropOp39
 70
     1
102
RTVSPost2010Prop40
 90
        0
102
RTVSPost2010PropOp40
 70
     1
102
RTVSPost2010Prop41ColorIndex
 90
      178
102
RTVSPost2010Prop41ColorRGB
 90
        0
102
RTVSPost2010PropOp41
 70
     1
102
RTVSPost2010Prop42
 90
       50
102
RTVSPost2010PropOp42
 70
     1
102
RTVSPost2010Prop43
 90
        3
102
RTVSPost2010PropOp43
 70
     1
102
RTVSPost2010Prop44ColorIndex
 90
        5
102
RTVSPost2010Prop44ColorRGB
 90
      255
102
RTVSPost2010PropOp44
 70
     1
102
RTVSPost2010Prop45
280
     0
102
RTVSPost2010PropOp45
 70
     1
102
RTVSPost2010Prop46
 90
       50
102
RTVSPost2010PropOp46
 70
     1
102
RTVSPost2010Prop47
 90
       50
102
RTVSPost2010PropOp47
 70
     1
102
RTVSPost2010Prop48
 90
       50
102
RTVSPost2010PropOp48
 70
     1
102
RTVSPost2010Prop49
280
     0
102
RTVSPost2010PropOp49
 70
     1
102
RTVSPost2010Prop50
 90
       50
102
RTVSPost2010PropOp50
 70
     1
102
RTVSPost2010Prop51ColorIndex
 90
      256
102
RTVSPost2010Prop51ColorRGB
 90
-16777216
102
RTVSPost2010PropOp51
 70
     0
102
RTVSPost2010Prop52
140
1.0
102
RTVSPost2010PropOp52
 70
     0
102
RTVSPost2010Prop53
 90
        2
102
RTVSPost2010PropOp53
 70
     1
102
RTVSPost2010Prop54
  1
strokes_ogs.tif
102
RTVSPost2010PropOp54
 70
     1
102
RTVSPost2010Prop55
280
     0
102
RTVSPost2010PropOp55
 70
     1
102
RTVSPost2010Prop56
140
1.0
102
RTVSPost2010PropOp56
 70
     1
102
RTVSPost2010Prop57
140
1.0
102
RTVSPost2010PropOp57
 70
     1
  0
XRECORD
  5
3D6
102
{ACAD_REACTORS
330
3D5
102
}
330
3D5
100
AcDbXrecord
280
     1
102
RTVSPropertyOp0
 70
     0
102
RTVSPropertyOp1
 70
     0
102
RTVSPropertyOp2
 70
     0
102
RTVSPropertyOp3
 70
     0
102
RTVSPropertyOp4
 70
     0
102
RTVSPropertyOp5
 70
     0
102
RTVSPropertyOp6
 70
     0
102
RTVSPropertyOp7
 70
     0
102
RTVSPropertyOp8
 70
     0
102
RTVSPropertyOp9
 70
     0
102
RTVSPropertyOp10
 70
     0
102
RTVSPropertyOp11
 70
     0
102
RTVSPropertyOp12
 70
     0
102
RTVSPropertyOp13
 70
     0
102
RTVSPropertyOp14
 70
     2
102
RTVSPropertyOp15
 70
     0
102
RTVSPropertyOp16
 70
     0
102
RTVSPropertyOp17
 70
     0
102
RTVSPropertyOp18
 70
     0
102
RTVSPropertyOp19
 70
     0
102
RTVSPropertyOp20
 70
     0
102
RTVSPropertyOp21
 70
     0
102
RTVSPropertyOp22
 70
     0
102
RTVSPropertyOp23
 70
     0
102
RTVSPropertyOp24
 70
     0
102
RTVSPropertyOp25
 70
     0
102
RTVSPropertyOp26
 70
     0
102
RTVSPropertyOp27
 70
     0
102
RTVSPropertyOp28
 70
     0
102
RTVSPropertyOp29
 70
     0
102
RTVSPropertyOp30
 70
     0
102
RTVSPropertyOp31
 70
     0
102
RTVSPropertyOp32
 70
     0
102
RTVSPropertyOp33
 70
     0
102
RTVSPropertyOp34
 70
     0
102
RTVSPropertyOp35
 70
     0
102
RTVSPropertyOp36
 70
     0
102
RTVSPropertyOp37
 70
     0
102
RTVSPropertyOp38
 70
     0
102
RTVSPropertyOp39
 70
     0
102
RTVSPropertyOp40
 70
     0
102
RTVSPropertyOp41
 70
     0
102
RTVSPropertyOp42
 70
     0
102
RTVSPropertyOp43
 70
     0
102
RTVSPropertyOp44
 70
     0
102
RTVSPropertyOp45
 70
     0
102
RTVSPropertyOp46
 70
     0
102
RTVSPropertyOp47
 70
     0
102
RTVSPropertyOp48
 70
     0
102
RTVSPropertyOp49
 70
     0
102
RTVSPropertyOp50
 70
     0
102
RTVSPropertyOp51
 70
     0
102
RTVSPropertyOp52
 70
     0
102
RTVSPropertyOp53
 70
     0
102
RTVSPropertyOp54
 70
     0
102
RTVSPropertyOp55
 70
     0
102
RTVSPropertyOp56
 70
     0
102
RTVSPropertyOp57
 70
     0
102
RTVSPost2010Prop28
280
     0
102
RTVSPost2010PropOp28
 70
     0
102
RTVSPost2010Prop29
280
     1
102
RTVSPost2010PropOp29
 70
     0
102
RTVSPost2010Prop30
280
     1
102
RTVSPost2010PropOp30
 70
     0
102
RTVSPost2010Prop31
280
     0
102
RTVSPost2010PropOp31
 70
     0
102
RTVSPost2010Prop32
280
     0
102
RTVSPost2010PropOp32
 70
     0
102
RTVSPost2010Prop33
280
     0
102
RTVSPost2010PropOp33
 70
     0
102
RTVSPost2010Prop34
280
     0
102
RTVSPost2010PropOp34
 70
     0
102
RTVSPost2010Prop35
280
     0
102
RTVSPost2010PropOp35
 70
     0
102
RTVSPost2010Prop36
280
     0
102
RTVSPost2010PropOp36
 70
     0
102
RTVSPost2010Prop37
 90
       50
102
RTVSPost2010PropOp37
 70
     0
102
RTVSPost2010Prop38
140
0.0
102
RTVSPost2010PropOp38
 70
     0
102
RTVSPost2010Prop39
140
1.0
102
RTVSPost2010PropOp39
 70
     0
102
RTVSPost2010Prop40
 90
        0
102
RTVSPost2010PropOp40
 70
     0
102
RTVSPost2010Prop41ColorIndex
 90
      178
102
RTVSPost2010Prop41ColorRGB
 90
        0
102
RTVSPost2010PropOp41
 70
     0
102
RTVSPost2010Prop42
 90
       50
102
RTVSPost2010PropOp42
 70
     0
102
RTVSPost2010Prop43
 90
        3
102
RTVSPost2010PropOp43
 70
     0
102
RTVSPost2010Prop44ColorIndex
 90
        5
102
RTVSPost2010Prop44ColorRGB
 90
      255
102
RTVSPost2010PropOp44
 70
     0
102
RTVSPost2010Prop45
280
     0
102
RTVSPost2010PropOp45
 70
     0
102
RTVSPost2010Prop46
 90
       50
102
RTVSPost2010PropOp46
 70
     0
102
RTVSPost2010Prop47
 90
       50
102
RTVSPost2010PropOp47
 70
     0
102
RTVSPost2010Prop48
 90
       50
102
RTVSPost2010PropOp48
 70
     0
102
RTVSPost2010Prop49
280
     0
102
RTVSPost2010PropOp49
 70
     0
102
RTVSPost2010Prop50
 90
       50
102
RTVSPost2010PropOp50
 70
     0
102
RTVSPost2010Prop51ColorIndex
 90
      256
102
RTVSPost2010Prop51ColorRGB
 90
-16777216
102
RTVSPost2010PropOp51
 70
     0
102
RTVSPost2010Prop52
140
1.0
102
RTVSPost2010PropOp52
 70
     0
102
RTVSPost2010Prop53
 90
        2
102
RTVSPost2010PropOp53
 70
     0
102
RTVSPost2010Prop54
  1
strokes_ogs.tif
102
RTVSPost2010PropOp54
 70
     0
102
RTVSPost2010Prop55
280
     0
102
RTVSPost2010PropOp55
 70
     0
102
RTVSPost2010Prop56
140
1.0
102
RTVSPost2010PropOp56
 70
     0
102
RTVSPost2010Prop57
140
1.0
102
RTVSPost2010PropOp57
 70
     0
  0
XRECORD
  5
3D0
102
{ACAD_REACTORS
330
3CF
102
}
330
3CF
100
AcDbXrecord
280
     1
102
RTVSPropertyOp0
 70
     1
102
RTVSPropertyOp1
 70
     1
102
RTVSPropertyOp2
 70
     1
102
RTVSPropertyOp3
 70
     1
102
RTVSPropertyOp4
 70
     1
102
RTVSPropertyOp5
 70
     1
102
RTVSPropertyOp6
 70
     1
102
RTVSPropertyOp7
 70
     1
102
RTVSPropertyOp8
 70
     1
102
RTVSPropertyOp9
 70
     1
102
RTVSPropertyOp10
 70
     1
102
RTVSPropertyOp11
 70
     1
102
RTVSPropertyOp12
 70
     1
102
RTVSPropertyOp13
 70
     1
102
RTVSPropertyOp14
 70
     1
102
RTVSPropertyOp15
 70
     1
102
RTVSPropertyOp16
 70
     1
102
RTVSPropertyOp17
 70
     1
102
RTVSPropertyOp18
 70
     1
102
RTVSPropertyOp19
 70
     1
102
RTVSPropertyOp20
 70
     1
102
RTVSPropertyOp21
 70
     1
102
RTVSPropertyOp22
 70
     1
102
RTVSPropertyOp23
 70
     1
102
RTVSPropertyOp24
 70
     1
102
RTVSPropertyOp25
 70
     1
102
RTVSPropertyOp26
 70
     1
102
RTVSPropertyOp27
 70
     1
102
RTVSPropertyOp28
 70
     1
102
RTVSPropertyOp29
 70
     1
102
RTVSPropertyOp30
 70
     1
102
RTVSPropertyOp31
 70
     1
102
RTVSPropertyOp32
 70
     1
102
RTVSPropertyOp33
 70
     1
102
RTVSPropertyOp34
 70
     1
102
RTVSPropertyOp35
 70
     1
102
RTVSPropertyOp36
 70
     1
102
RTVSPropertyOp37
 70
     1
102
RTVSPropertyOp38
 70
     1
102
RTVSPropertyOp39
 70
     1
102
RTVSPropertyOp40
 70
     1
102
RTVSPropertyOp41
 70
     1
102
RTVSPropertyOp42
 70
     1
102
RTVSPropertyOp43
 70
     1
102
RTVSPropertyOp44
 70
     1
102
RTVSPropertyOp45
 70
     1
102
RTVSPropertyOp46
 70
     1
102
RTVSPropertyOp47
 70
     1
102
RTVSPropertyOp48
 70
     1
102
RTVSPropertyOp49
 70
     1
102
RTVSPropertyOp50
 70
     1
102
RTVSPropertyOp51
 70
     0
102
RTVSPropertyOp52
 70
     0
102
RTVSPropertyOp53
 70
     1
102
RTVSPropertyOp54
 70
     1
102
RTVSPropertyOp55
 70
     1
102
RTVSPropertyOp56
 70
     1
102
RTVSPropertyOp57
 70
     1
102
RTVSPost2010Prop28
280
     0
102
RTVSPost2010PropOp28
 70
     1
102
RTVSPost2010Prop29
280
     1
102
RTVSPost2010PropOp29
 70
     1
102
RTVSPost2010Prop30
280
     1
102
RTVSPost2010PropOp30
 70
     1
102
RTVSPost2010Prop31
280
     0
102
RTVSPost2010PropOp31
 70
     1
102
RTVSPost2010Prop32
280
     0
102
RTVSPost2010PropOp32
 70
     1
102
RTVSPost2010Prop33
280
     0
102
RTVSPost2010PropOp33
 70
     1
102
RTVSPost2010Prop34
280
     0
102
RTVSPost2010PropOp34
 70
     1
102
RTVSPost2010Prop35
280
     0
102
RTVSPost2010PropOp35
 70
     1
102
RTVSPost2010Prop36
280
     0
102
RTVSPost2010PropOp36
 70
     1
102
RTVSPost2010Prop37
 90
       50
102
RTVSPost2010PropOp37
 70
     1
102
RTVSPost2010Prop38
140
0.0
102
RTVSPost2010PropOp38
 70
     1
102
RTVSPost2010Prop39
140
1.0
102
RTVSPost2010PropOp39
 70
     1
102
RTVSPost2010Prop40
 90
        0
102
RTVSPost2010PropOp40
 70
     1
102
RTVSPost2010Prop41ColorIndex
 90
      178
102
RTVSPost2010Prop41ColorRGB
 90
        0
102
RTVSPost2010PropOp41
 70
     1
102
RTVSPost2010Prop42
 90
       50
102
RTVSPost2010PropOp42
 70
     1
102
RTVSPost2010Prop43
 90
        3
102
RTVSPost2010PropOp43
 70
     1
102
RTVSPost2010Prop44ColorIndex
 90
        5
102
RTVSPost2010Prop44ColorRGB
 90
      255
102
RTVSPost2010PropOp44
 70
     1
102
RTVSPost2010Prop45
280
     0
102
RTVSPost2010PropOp45
 70
     1
102
RTVSPost2010Prop46
 90
       50
102
RTVSPost2010PropOp46
 70
     1
102
RTVSPost2010Prop47
 90
       50
102
RTVSPost2010PropOp47
 70
     1
102
RTVSPost2010Prop48
 90
       50
102
RTVSPost2010PropOp48
 70
     1
102
RTVSPost2010Prop49
280
     0
102
RTVSPost2010PropOp49
 70
     1
102
RTVSPost2010Prop50
 90
       50
102
RTVSPost2010PropOp50
 70
     1
102
RTVSPost2010Prop51ColorIndex
 90
      256
102
RTVSPost2010Prop51ColorRGB
 90
-16777216
102
RTVSPost2010PropOp51
 70
     0
102
RTVSPost2010Prop52
140
1.0
102
RTVSPost2010PropOp52
 70
     0
102
RTVSPost2010Prop53
 90
        2
102
RTVSPost2010PropOp53
 70
     1
102
RTVSPost2010Prop54
  1
strokes_ogs.tif
102
RTVSPost2010PropOp54
 70
     1
102
RTVSPost2010Prop55
280
     0
102
RTVSPost2010PropOp55
 70
     1
102
RTVSPost2010Prop56
140
1.0
102
RTVSPost2010PropOp56
 70
     1
102
RTVSPost2010Prop57
140
1.0
102
RTVSPost2010PropOp57
 70
     1
  0
XRECORD
  5
3D8
102
{ACAD_REACTORS
330
3D7
102
}
330
3D7
100
AcDbXrecord
280
     1
102
RTVSPropertyOp0
 70
     0
102
RTVSPropertyOp1
 70
     0
102
RTVSPropertyOp2
 70
     0
102
RTVSPropertyOp3
 70
     0
102
RTVSPropertyOp4
 70
     0
102
RTVSPropertyOp5
 70
     0
102
RTVSPropertyOp6
 70
     0
102
RTVSPropertyOp7
 70
     0
102
RTVSPropertyOp8
 70
     0
102
RTVSPropertyOp9
 70
     0
102
RTVSPropertyOp10
 70
     0
102
RTVSPropertyOp11
 70
     0
102
RTVSPropertyOp12
 70
     0
102
RTVSPropertyOp13
 70
     0
102
RTVSPropertyOp14
 70
     2
102
RTVSPropertyOp15
 70
     0
102
RTVSPropertyOp16
 70
     0
102
RTVSPropertyOp17
 70
     0
102
RTVSPropertyOp18
 70
     0
102
RTVSPropertyOp19
 70
     0
102
RTVSPropertyOp20
 70
     0
102
RTVSPropertyOp21
 70
     0
102
RTVSPropertyOp22
 70
     0
102
RTVSPropertyOp23
 70
     0
102
RTVSPropertyOp24
 70
     0
102
RTVSPropertyOp25
 70
     0
102
RTVSPropertyOp26
 70
     0
102
RTVSPropertyOp27
 70
     0
102
RTVSPropertyOp28
 70
     0
102
RTVSPropertyOp29
 70
     0
102
RTVSPropertyOp30
 70
     0
102
RTVSPropertyOp31
 70
     0
102
RTVSPropertyOp32
 70
     0
102
RTVSPropertyOp33
 70
     0
102
RTVSPropertyOp34
 70
     0
102
RTVSPropertyOp35
 70
     0
102
RTVSPropertyOp36
 70
     0
102
RTVSPropertyOp37
 70
     0
102
RTVSPropertyOp38
 70
     0
102
RTVSPropertyOp39
 70
     0
102
RTVSPropertyOp40
 70
     0
102
RTVSPropertyOp41
 70
     0
102
RTVSPropertyOp42
 70
     0
102
RTVSPropertyOp43
 70
     0
102
RTVSPropertyOp44
 70
     0
102
RTVSPropertyOp45
 70
     0
102
RTVSPropertyOp46
 70
     0
102
RTVSPropertyOp47
 70
     0
102
RTVSPropertyOp48
 70
     0
102
RTVSPropertyOp49
 70
     0
102
RTVSPropertyOp50
 70
     0
102
RTVSPropertyOp51
 70
     0
102
RTVSPropertyOp52
 70
     0
102
RTVSPropertyOp53
 70
     0
102
RTVSPropertyOp54
 70
     0
102
RTVSPropertyOp55
 70
     0
102
RTVSPropertyOp56
 70
     0
102
RTVSPropertyOp57
 70
     0
102
RTVSPost2010Prop28
280
     0
102
RTVSPost2010PropOp28
 70
     0
102
RTVSPost2010Prop29
280
     1
102
RTVSPost2010PropOp29
 70
     0
102
RTVSPost2010Prop30
280
     1
102
RTVSPost2010PropOp30
 70
     0
102
RTVSPost2010Prop31
280
     0
102
RTVSPost2010PropOp31
 70
     0
102
RTVSPost2010Prop32
280
     0
102
RTVSPost2010PropOp32
 70
     0
102
RTVSPost2010Prop33
280
     0
102
RTVSPost2010PropOp33
 70
     0
102
RTVSPost2010Prop34
280
     0
102
RTVSPost2010PropOp34
 70
     0
102
RTVSPost2010Prop35
280
     0
102
RTVSPost2010PropOp35
 70
     0
102
RTVSPost2010Prop36
280
     0
102
RTVSPost2010PropOp36
 70
     0
102
RTVSPost2010Prop37
 90
       50
102
RTVSPost2010PropOp37
 70
     0
102
RTVSPost2010Prop38
140
0.0
102
RTVSPost2010PropOp38
 70
     0
102
RTVSPost2010Prop39
140
1.0
102
RTVSPost2010PropOp39
 70
     0
102
RTVSPost2010Prop40
 90
        0
102
RTVSPost2010PropOp40
 70
     0
102
RTVSPost2010Prop41ColorIndex
 90
      178
102
RTVSPost2010Prop41ColorRGB
 90
        0
102
RTVSPost2010PropOp41
 70
     0
102
RTVSPost2010Prop42
 90
       50
102
RTVSPost2010PropOp42
 70
     0
102
RTVSPost2010Prop43
 90
        3
102
RTVSPost2010PropOp43
 70
     0
102
RTVSPost2010Prop44ColorIndex
 90
        5
102
RTVSPost2010Prop44ColorRGB
 90
      255
102
RTVSPost2010PropOp44
 70
     0
102
RTVSPost2010Prop45
280
     0
102
RTVSPost2010PropOp45
 70
     0
102
RTVSPost2010Prop46
 90
       50
102
RTVSPost2010PropOp46
 70
     0
102
RTVSPost2010Prop47
 90
       50
102
RTVSPost2010PropOp47
 70
     0
102
RTVSPost2010Prop48
 90
       50
102
RTVSPost2010PropOp48
 70
     0
102
RTVSPost2010Prop49
280
     0
102
RTVSPost2010PropOp49
 70
     0
102
RTVSPost2010Prop50
 90
       50
102
RTVSPost2010PropOp50
 70
     0
102
RTVSPost2010Prop51ColorIndex
 90
      256
102
RTVSPost2010Prop51ColorRGB
 90
-16777216
102
RTVSPost2010PropOp51
 70
     0
102
RTVSPost2010Prop52
140
1.0
102
RTVSPost2010PropOp52
 70
     0
102
RTVSPost2010Prop53
 90
        2
102
RTVSPost2010PropOp53
 70
     0
102
RTVSPost2010Prop54
  1
strokes_ogs.tif
102
RTVSPost2010PropOp54
 70
     0
102
RTVSPost2010Prop55
280
     0
102
RTVSPost2010PropOp55
 70
     0
102
RTVSPost2010Prop56
140
1.0
102
RTVSPost2010PropOp56
 70
     0
102
RTVSPost2010Prop57
140
1.0
102
RTVSPost2010PropOp57
 70
     0
  0
XRECORD
  5
3C6
102
{ACAD_REACTORS
330
3C5
102
}
330
3C5
100
AcDbXrecord
280
     1
102
RTVSPropertyOp0
 70
     1
102
RTVSPropertyOp1
 70
     1
102
RTVSPropertyOp2
 70
     1
102
RTVSPropertyOp3
 70
     1
102
RTVSPropertyOp4
 70
     1
102
RTVSPropertyOp5
 70
     1
102
RTVSPropertyOp6
 70
     1
102
RTVSPropertyOp7
 70
     1
102
RTVSPropertyOp8
 70
     1
102
RTVSPropertyOp9
 70
     1
102
RTVSPropertyOp10
 70
     1
102
RTVSPropertyOp11
 70
     1
102
RTVSPropertyOp12
 70
     1
102
RTVSPropertyOp13
 70
     1
102
RTVSPropertyOp14
 70
     1
102
RTVSPropertyOp15
 70
     1
102
RTVSPropertyOp16
 70
     1
102
RTVSPropertyOp17
 70
     1
102
RTVSPropertyOp18
 70
     1
102
RTVSPropertyOp19
 70
     1
102
RTVSPropertyOp20
 70
     1
102
RTVSPropertyOp21
 70
     1
102
RTVSPropertyOp22
 70
     1
102
RTVSPropertyOp23
 70
     1
102
RTVSPropertyOp24
 70
     1
102
RTVSPropertyOp25
 70
     1
102
RTVSPropertyOp26
 70
     1
102
RTVSPropertyOp27
 70
     1
102
RTVSPropertyOp28
 70
     1
102
RTVSPropertyOp29
 70
     1
102
RTVSPropertyOp30
 70
     1
102
RTVSPropertyOp31
 70
     1
102
RTVSPropertyOp32
 70
     1
102
RTVSPropertyOp33
 70
     1
102
RTVSPropertyOp34
 70
     1
102
RTVSPropertyOp35
 70
     1
102
RTVSPropertyOp36
 70
     1
102
RTVSPropertyOp37
 70
     1
102
RTVSPropertyOp38
 70
     1
102
RTVSPropertyOp39
 70
     1
102
RTVSPropertyOp40
 70
     1
102
RTVSPropertyOp41
 70
     1
102
RTVSPropertyOp42
 70
     1
102
RTVSPropertyOp43
 70
     1
102
RTVSPropertyOp44
 70
     1
102
RTVSPropertyOp45
 70
     1
102
RTVSPropertyOp46
 70
     1
102
RTVSPropertyOp47
 70
     1
102
RTVSPropertyOp48
 70
     1
102
RTVSPropertyOp49
 70
     1
102
RTVSPropertyOp50
 70
     1
102
RTVSPropertyOp51
 70
     0
102
RTVSPropertyOp52
 70
     0
102
RTVSPropertyOp53
 70
     1
102
RTVSPropertyOp54
 70
     1
102
RTVSPropertyOp55
 70
     1
102
RTVSPropertyOp56
 70
     1
102
RTVSPropertyOp57
 70
     1
102
RTVSPost2010Prop28
280
     0
102
RTVSPost2010PropOp28
 70
     1
102
RTVSPost2010Prop29
280
     1
102
RTVSPost2010PropOp29
 70
     1
102
RTVSPost2010Prop30
280
     1
102
RTVSPost2010PropOp30
 70
     1
102
RTVSPost2010Prop31
280
     0
102
RTVSPost2010PropOp31
 70
     1
102
RTVSPost2010Prop32
280
     0
102
RTVSPost2010PropOp32
 70
     1
102
RTVSPost2010Prop33
280
     0
102
RTVSPost2010PropOp33
 70
     1
102
RTVSPost2010Prop34
280
     0
102
RTVSPost2010PropOp34
 70
     1
102
RTVSPost2010Prop35
280
     0
102
RTVSPost2010PropOp35
 70
     1
102
RTVSPost2010Prop36
280
     0
102
RTVSPost2010PropOp36
 70
     1
102
RTVSPost2010Prop37
 90
       50
102
RTVSPost2010PropOp37
 70
     1
102
RTVSPost2010Prop38
140
0.0
102
RTVSPost2010PropOp38
 70
     1
102
RTVSPost2010Prop39
140
1.0
102
RTVSPost2010PropOp39
 70
     1
102
RTVSPost2010Prop40
 90
        0
102
RTVSPost2010PropOp40
 70
     1
102
RTVSPost2010Prop41ColorIndex
 90
      178
102
RTVSPost2010Prop41ColorRGB
 90
        0
102
RTVSPost2010PropOp41
 70
     1
102
RTVSPost2010Prop42
 90
       50
102
RTVSPost2010PropOp42
 70
     1
102
RTVSPost2010Prop43
 90
        3
102
RTVSPost2010PropOp43
 70
     1
102
RTVSPost2010Prop44ColorIndex
 90
        5
102
RTVSPost2010Prop44ColorRGB
 90
      255
102
RTVSPost2010PropOp44
 70
     1
102
RTVSPost2010Prop45
280
     0
102
RTVSPost2010PropOp45
 70
     1
102
RTVSPost2010Prop46
 90
       50
102
RTVSPost2010PropOp46
 70
     1
102
RTVSPost2010Prop47
 90
       50
102
RTVSPost2010PropOp47
 70
     1
102
RTVSPost2010Prop48
 90
       50
102
RTVSPost2010PropOp48
 70
     1
102
RTVSPost2010Prop49
280
     0
102
RTVSPost2010PropOp49
 70
     1
102
RTVSPost2010Prop50
 90
       50
102
RTVSPost2010PropOp50
 70
     1
102
RTVSPost2010Prop51ColorIndex
 90
      256
102
RTVSPost2010Prop51ColorRGB
 90
-16777216
102
RTVSPost2010PropOp51
 70
     0
102
RTVSPost2010Prop52
140
1.0
102
RTVSPost2010PropOp52
 70
     0
102
RTVSPost2010Prop53
 90
        2
102
RTVSPost2010PropOp53
 70
     1
102
RTVSPost2010Prop54
  1
strokes_ogs.tif
102
RTVSPost2010PropOp54
 70
     1
102
RTVSPost2010Prop55
280
     0
102
RTVSPost2010PropOp55
 70
     1
102
RTVSPost2010Prop56
140
1.0
102
RTVSPost2010PropOp56
 70
     1
102
RTVSPost2010Prop57
140
1.0
102
RTVSPost2010PropOp57
 70
     1
  0
XRECORD
  5
3E4
102
{ACAD_REACTORS
330
3E3
102
}
330
3E3
100
AcDbXrecord
280
     1
102
RTVSPropertyOp0
 70
     1
102
RTVSPropertyOp1
 70
     1
102
RTVSPropertyOp2
 70
     1
102
RTVSPropertyOp3
 70
     1
102
RTVSPropertyOp4
 70
     1
102
RTVSPropertyOp5
 70
     1
102
RTVSPropertyOp6
 70
     1
102
RTVSPropertyOp7
 70
     1
102
RTVSPropertyOp8
 70
     1
102
RTVSPropertyOp9
 70
     1
102
RTVSPropertyOp10
 70
     1
102
RTVSPropertyOp11
 70
     1
102
RTVSPropertyOp12
 70
     1
102
RTVSPropertyOp13
 70
     1
102
RTVSPropertyOp14
 70
     1
102
RTVSPropertyOp15
 70
     1
102
RTVSPropertyOp16
 70
     1
102
RTVSPropertyOp17
 70
     1
102
RTVSPropertyOp18
 70
     1
102
RTVSPropertyOp19
 70
     1
102
RTVSPropertyOp20
 70
     1
102
RTVSPropertyOp21
 70
     1
102
RTVSPropertyOp22
 70
     1
102
RTVSPropertyOp23
 70
     1
102
RTVSPropertyOp24
 70
     1
102
RTVSPropertyOp25
 70
     1
102
RTVSPropertyOp26
 70
     1
102
RTVSPropertyOp27
 70
     1
102
RTVSPropertyOp28
 70
     1
102
RTVSPropertyOp29
 70
     1
102
RTVSPropertyOp30
 70
     1
102
RTVSPropertyOp31
 70
     1
102
RTVSPropertyOp32
 70
     1
102
RTVSPropertyOp33
 70
     1
102
RTVSPropertyOp34
 70
     1
102
RTVSPropertyOp35
 70
     1
102
RTVSPropertyOp36
 70
     1
102
RTVSPropertyOp37
 70
     1
102
RTVSPropertyOp38
 70
     1
102
RTVSPropertyOp39
 70
     1
102
RTVSPropertyOp40
 70
     1
102
RTVSPropertyOp41
 70
     1
102
RTVSPropertyOp42
 70
     1
102
RTVSPropertyOp43
 70
     1
102
RTVSPropertyOp44
 70
     1
102
RTVSPropertyOp45
 70
     1
102
RTVSPropertyOp46
 70
     1
102
RTVSPropertyOp47
 70
     1
102
RTVSPropertyOp48
 70
     1
102
RTVSPropertyOp49
 70
     1
102
RTVSPropertyOp50
 70
     1
102
RTVSPropertyOp51
 70
     0
102
RTVSPropertyOp52
 70
     0
102
RTVSPropertyOp53
 70
     1
102
RTVSPropertyOp54
 70
     1
102
RTVSPropertyOp55
 70
     1
102
RTVSPropertyOp56
 70
     1
102
RTVSPropertyOp57
 70
     1
102
RTVSPost2010Prop28
280
     0
102
RTVSPost2010PropOp28
 70
     1
102
RTVSPost2010Prop29
280
     1
102
RTVSPost2010PropOp29
 70
     1
102
RTVSPost2010Prop30
280
     1
102
RTVSPost2010PropOp30
 70
     1
102
RTVSPost2010Prop31
280
     0
102
RTVSPost2010PropOp31
 70
     1
102
RTVSPost2010Prop32
280
     0
102
RTVSPost2010PropOp32
 70
     1
102
RTVSPost2010Prop33
280
     0
102
RTVSPost2010PropOp33
 70
     1
102
RTVSPost2010Prop34
280
     0
102
RTVSPost2010PropOp34
 70
     1
102
RTVSPost2010Prop35
280
     0
102
RTVSPost2010PropOp35
 70
     1
102
RTVSPost2010Prop36
280
     0
102
RTVSPost2010PropOp36
 70
     1
102
RTVSPost2010Prop37
 90
       50
102
RTVSPost2010PropOp37
 70
     1
102
RTVSPost2010Prop38
140
0.0
102
RTVSPost2010PropOp38
 70
     1
102
RTVSPost2010Prop39
140
1.0
102
RTVSPost2010PropOp39
 70
     1
102
RTVSPost2010Prop40
 90
        0
102
RTVSPost2010PropOp40
 70
     1
102
RTVSPost2010Prop41ColorIndex
 90
      178
102
RTVSPost2010Prop41ColorRGB
 90
        0
102
RTVSPost2010PropOp41
 70
     1
102
RTVSPost2010Prop42
 90
       50
102
RTVSPost2010PropOp42
 70
     1
102
RTVSPost2010Prop43
 90
        3
102
RTVSPost2010PropOp43
 70
     1
102
RTVSPost2010Prop44ColorIndex
 90
        5
102
RTVSPost2010Prop44ColorRGB
 90
      255
102
RTVSPost2010PropOp44
 70
     1
102
RTVSPost2010Prop45
280
     0
102
RTVSPost2010PropOp45
 70
     1
102
RTVSPost2010Prop46
 90
       50
102
RTVSPost2010PropOp46
 70
     1
102
RTVSPost2010Prop47
 90
       50
102
RTVSPost2010PropOp47
 70
     1
102
RTVSPost2010Prop48
 90
       50
102
RTVSPost2010PropOp48
 70
     1
102
RTVSPost2010Prop49
280
     0
102
RTVSPost2010PropOp49
 70
     1
102
RTVSPost2010Prop50
 90
       50
102
RTVSPost2010PropOp50
 70
     1
102
RTVSPost2010Prop51ColorIndex
 90
      256
102
RTVSPost2010Prop51ColorRGB
 90
-16777216
102
RTVSPost2010PropOp51
 70
     0
102
RTVSPost2010Prop52
140
1.0
102
RTVSPost2010PropOp52
 70
     0
102
RTVSPost2010Prop53
 90
        2
102
RTVSPost2010PropOp53
 70
     1
102
RTVSPost2010Prop54
  1
strokes_ogs.tif
102
RTVSPost2010PropOp54
 70
     1
102
RTVSPost2010Prop55
280
     0
102
RTVSPost2010PropOp55
 70
     1
102
RTVSPost2010Prop56
140
1.0
102
RTVSPost2010PropOp56
 70
     1
102
RTVSPost2010Prop57
140
1.0
102
RTVSPost2010PropOp57
 70
     1
  0
XRECORD
  5
3E2
102
{ACAD_REACTORS
330
3E1
102
}
330
3E1
100
AcDbXrecord
280
     1
102
RTVSPropertyOp0
 70
     1
102
RTVSPropertyOp1
 70
     1
102
RTVSPropertyOp2
 70
     1
102
RTVSPropertyOp3
 70
     1
102
RTVSPropertyOp4
 70
     1
102
RTVSPropertyOp5
 70
     1
102
RTVSPropertyOp6
 70
     1
102
RTVSPropertyOp7
 70
     1
102
RTVSPropertyOp8
 70
     1
102
RTVSPropertyOp9
 70
     1
102
RTVSPropertyOp10
 70
     1
102
RTVSPropertyOp11
 70
     1
102
RTVSPropertyOp12
 70
     1
102
RTVSPropertyOp13
 70
     1
102
RTVSPropertyOp14
 70
     1
102
RTVSPropertyOp15
 70
     1
102
RTVSPropertyOp16
 70
     1
102
RTVSPropertyOp17
 70
     1
102
RTVSPropertyOp18
 70
     1
102
RTVSPropertyOp19
 70
     1
102
RTVSPropertyOp20
 70
     1
102
RTVSPropertyOp21
 70
     1
102
RTVSPropertyOp22
 70
     1
102
RTVSPropertyOp23
 70
     1
102
RTVSPropertyOp24
 70
     1
102
RTVSPropertyOp25
 70
     1
102
RTVSPropertyOp26
 70
     1
102
RTVSPropertyOp27
 70
     1
102
RTVSPropertyOp28
 70
     1
102
RTVSPropertyOp29
 70
     1
102
RTVSPropertyOp30
 70
     1
102
RTVSPropertyOp31
 70
     1
102
RTVSPropertyOp32
 70
     1
102
RTVSPropertyOp33
 70
     1
102
RTVSPropertyOp34
 70
     1
102
RTVSPropertyOp35
 70
     1
102
RTVSPropertyOp36
 70
     1
102
RTVSPropertyOp37
 70
     1
102
RTVSPropertyOp38
 70
     1
102
RTVSPropertyOp39
 70
     1
102
RTVSPropertyOp40
 70
     1
102
RTVSPropertyOp41
 70
     1
102
RTVSPropertyOp42
 70
     1
102
RTVSPropertyOp43
 70
     1
102
RTVSPropertyOp44
 70
     1
102
RTVSPropertyOp45
 70
     1
102
RTVSPropertyOp46
 70
     1
102
RTVSPropertyOp47
 70
     1
102
RTVSPropertyOp48
 70
     1
102
RTVSPropertyOp49
 70
     1
102
RTVSPropertyOp50
 70
     1
102
RTVSPropertyOp51
 70
     0
102
RTVSPropertyOp52
 70
     0
102
RTVSPropertyOp53
 70
     1
102
RTVSPropertyOp54
 70
     1
102
RTVSPropertyOp55
 70
     1
102
RTVSPropertyOp56
 70
     1
102
RTVSPropertyOp57
 70
     1
102
RTVSPost2010Prop28
280
     0
102
RTVSPost2010PropOp28
 70
     1
102
RTVSPost2010Prop29
280
     1
102
RTVSPost2010PropOp29
 70
     1
102
RTVSPost2010Prop30
280
     1
102
RTVSPost2010PropOp30
 70
     1
102
RTVSPost2010Prop31
280
     0
102
RTVSPost2010PropOp31
 70
     1
102
RTVSPost2010Prop32
280
     0
102
RTVSPost2010PropOp32
 70
     1
102
RTVSPost2010Prop33
280
     0
102
RTVSPost2010PropOp33
 70
     1
102
RTVSPost2010Prop34
280
     0
102
RTVSPost2010PropOp34
 70
     1
102
RTVSPost2010Prop35
280
     0
102
RTVSPost2010PropOp35
 70
     1
102
RTVSPost2010Prop36
280
     0
102
RTVSPost2010PropOp36
 70
     1
102
RTVSPost2010Prop37
 90
       50
102
RTVSPost2010PropOp37
 70
     1
102
RTVSPost2010Prop38
140
0.0
102
RTVSPost2010PropOp38
 70
     1
102
RTVSPost2010Prop39
140
1.0
102
RTVSPost2010PropOp39
 70
     1
102
RTVSPost2010Prop40
 90
        0
102
RTVSPost2010PropOp40
 70
     1
102
RTVSPost2010Prop41ColorIndex
 90
      178
102
RTVSPost2010Prop41ColorRGB
 90
        0
102
RTVSPost2010PropOp41
 70
     1
102
RTVSPost2010Prop42
 90
       50
102
RTVSPost2010PropOp42
 70
     1
102
RTVSPost2010Prop43
 90
        3
102
RTVSPost2010PropOp43
 70
     1
102
RTVSPost2010Prop44ColorIndex
 90
        5
102
RTVSPost2010Prop44ColorRGB
 90
      255
102
RTVSPost2010PropOp44
 70
     1
102
RTVSPost2010Prop45
280
     0
102
RTVSPost2010PropOp45
 70
     1
102
RTVSPost2010Prop46
 90
       50
102
RTVSPost2010PropOp46
 70
     1
102
RTVSPost2010Prop47
 90
       50
102
RTVSPost2010PropOp47
 70
     1
102
RTVSPost2010Prop48
 90
       50
102
RTVSPost2010PropOp48
 70
     1
102
RTVSPost2010Prop49
280
     0
102
RTVSPost2010PropOp49
 70
     1
102
RTVSPost2010Prop50
 90
       50
102
RTVSPost2010PropOp50
 70
     1
102
RTVSPost2010Prop51ColorIndex
 90
      256
102
RTVSPost2010Prop51ColorRGB
 90
-16777216
102
RTVSPost2010PropOp51
 70
     0
102
RTVSPost2010Prop52
140
1.0
102
RTVSPost2010PropOp52
 70
     0
102
RTVSPost2010Prop53
 90
        2
102
RTVSPost2010PropOp53
 70
     1
102
RTVSPost2010Prop54
  1
strokes_ogs.tif
102
RTVSPost2010PropOp54
 70
     1
102
RTVSPost2010Prop55
280
     0
102
RTVSPost2010PropOp55
 70
     1
102
RTVSPost2010Prop56
140
1.0
102
RTVSPost2010PropOp56
 70
     1
102
RTVSPost2010Prop57
140
1.0
102
RTVSPost2010PropOp57
 70
     1
  0
XRECORD
  5
3DC
102
{ACAD_REACTORS
330
3DB
102
}
330
3DB
100
AcDbXrecord
280
     1
102
RTVSPropertyOp0
 70
     1
102
RTVSPropertyOp1
 70
     1
102
RTVSPropertyOp2
 70
     1
102
RTVSPropertyOp3
 70
     1
102
RTVSPropertyOp4
 70
     1
102
RTVSPropertyOp5
 70
     1
102
RTVSPropertyOp6
 70
     1
102
RTVSPropertyOp7
 70
     1
102
RTVSPropertyOp8
 70
     1
102
RTVSPropertyOp9
 70
     1
102
RTVSPropertyOp10
 70
     1
102
RTVSPropertyOp11
 70
     1
102
RTVSPropertyOp12
 70
     1
102
RTVSPropertyOp13
 70
     1
102
RTVSPropertyOp14
 70
     1
102
RTVSPropertyOp15
 70
     1
102
RTVSPropertyOp16
 70
     1
102
RTVSPropertyOp17
 70
     1
102
RTVSPropertyOp18
 70
     1
102
RTVSPropertyOp19
 70
     1
102
RTVSPropertyOp20
 70
     1
102
RTVSPropertyOp21
 70
     1
102
RTVSPropertyOp22
 70
     1
102
RTVSPropertyOp23
 70
     1
102
RTVSPropertyOp24
 70
     1
102
RTVSPropertyOp25
 70
     1
102
RTVSPropertyOp26
 70
     1
102
RTVSPropertyOp27
 70
     1
102
RTVSPropertyOp28
 70
     1
102
RTVSPropertyOp29
 70
     1
102
RTVSPropertyOp30
 70
     1
102
RTVSPropertyOp31
 70
     1
102
RTVSPropertyOp32
 70
     1
102
RTVSPropertyOp33
 70
     1
102
RTVSPropertyOp34
 70
     1
102
RTVSPropertyOp35
 70
     1
102
RTVSPropertyOp36
 70
     1
102
RTVSPropertyOp37
 70
     1
102
RTVSPropertyOp38
 70
     1
102
RTVSPropertyOp39
 70
     1
102
RTVSPropertyOp40
 70
     1
102
RTVSPropertyOp41
 70
     1
102
RTVSPropertyOp42
 70
     1
102
RTVSPropertyOp43
 70
     1
102
RTVSPropertyOp44
 70
     1
102
RTVSPropertyOp45
 70
     1
102
RTVSPropertyOp46
 70
     1
102
RTVSPropertyOp47
 70
     1
102
RTVSPropertyOp48
 70
     1
102
RTVSPropertyOp49
 70
     1
102
RTVSPropertyOp50
 70
     1
102
RTVSPropertyOp51
 70
     0
102
RTVSPropertyOp52
 70
     0
102
RTVSPropertyOp53
 70
     1
102
RTVSPropertyOp54
 70
     1
102
RTVSPropertyOp55
 70
     1
102
RTVSPropertyOp56
 70
     1
102
RTVSPropertyOp57
 70
     1
102
RTVSPost2010Prop28
280
     0
102
RTVSPost2010PropOp28
 70
     1
102
RTVSPost2010Prop29
280
     1
102
RTVSPost2010PropOp29
 70
     1
102
RTVSPost2010Prop30
280
     1
102
RTVSPost2010PropOp30
 70
     1
102
RTVSPost2010Prop31
280
     0
102
RTVSPost2010PropOp31
 70
     1
102
RTVSPost2010Prop32
280
     0
102
RTVSPost2010PropOp32
 70
     1
102
RTVSPost2010Prop33
280
     0
102
RTVSPost2010PropOp33
 70
     1
102
RTVSPost2010Prop34
280
     0
102
RTVSPost2010PropOp34
 70
     1
102
RTVSPost2010Prop35
280
     0
102
RTVSPost2010PropOp35
 70
     1
102
RTVSPost2010Prop36
280
     0
102
RTVSPost2010PropOp36
 70
     1
102
RTVSPost2010Prop37
 90
       50
102
RTVSPost2010PropOp37
 70
     1
102
RTVSPost2010Prop38
140
0.0
102
RTVSPost2010PropOp38
 70
     1
102
RTVSPost2010Prop39
140
1.0
102
RTVSPost2010PropOp39
 70
     1
102
RTVSPost2010Prop40
 90
        0
102
RTVSPost2010PropOp40
 70
     1
102
RTVSPost2010Prop41ColorIndex
 90
      178
102
RTVSPost2010Prop41ColorRGB
 90
        0
102
RTVSPost2010PropOp41
 70
     1
102
RTVSPost2010Prop42
 90
       50
102
RTVSPost2010PropOp42
 70
     1
102
RTVSPost2010Prop43
 90
        3
102
RTVSPost2010PropOp43
 70
     1
102
RTVSPost2010Prop44ColorIndex
 90
        5
102
RTVSPost2010Prop44ColorRGB
 90
      255
102
RTVSPost2010PropOp44
 70
     1
102
RTVSPost2010Prop45
280
     0
102
RTVSPost2010PropOp45
 70
     1
102
RTVSPost2010Prop46
 90
       50
102
RTVSPost2010PropOp46
 70
     1
102
RTVSPost2010Prop47
 90
       50
102
RTVSPost2010PropOp47
 70
     1
102
RTVSPost2010Prop48
 90
       50
102
RTVSPost2010PropOp48
 70
     1
102
RTVSPost2010Prop49
280
     0
102
RTVSPost2010PropOp49
 70
     1
102
RTVSPost2010Prop50
 90
       50
102
RTVSPost2010PropOp50
 70
     1
102
RTVSPost2010Prop51ColorIndex
 90
      256
102
RTVSPost2010Prop51ColorRGB
 90
-16777216
102
RTVSPost2010PropOp51
 70
     0
102
RTVSPost2010Prop52
140
1.0
102
RTVSPost2010PropOp52
 70
     0
102
RTVSPost2010Prop53
 90
        2
102
RTVSPost2010PropOp53
 70
     1
102
RTVSPost2010Prop54
  1
strokes_ogs.tif
102
RTVSPost2010PropOp54
 70
     1
102
RTVSPost2010Prop55
280
     0
102
RTVSPost2010PropOp55
 70
     1
102
RTVSPost2010Prop56
140
1.0
102
RTVSPost2010PropOp56
 70
     1
102
RTVSPost2010Prop57
140
1.0
102
RTVSPost2010PropOp57
 70
     1
  0
XRECORD
  5
3DE
102
{ACAD_REACTORS
330
3DD
102
}
330
3DD
100
AcDbXrecord
280
     1
102
RTVSPropertyOp0
 70
     1
102
RTVSPropertyOp1
 70
     1
102
RTVSPropertyOp2
 70
     1
102
RTVSPropertyOp3
 70
     1
102
RTVSPropertyOp4
 70
     1
102
RTVSPropertyOp5
 70
     1
102
RTVSPropertyOp6
 70
     1
102
RTVSPropertyOp7
 70
     1
102
RTVSPropertyOp8
 70
     1
102
RTVSPropertyOp9
 70
     1
102
RTVSPropertyOp10
 70
     1
102
RTVSPropertyOp11
 70
     1
102
RTVSPropertyOp12
 70
     1
102
RTVSPropertyOp13
 70
     1
102
RTVSPropertyOp14
 70
     1
102
RTVSPropertyOp15
 70
     1
102
RTVSPropertyOp16
 70
     1
102
RTVSPropertyOp17
 70
     1
102
RTVSPropertyOp18
 70
     1
102
RTVSPropertyOp19
 70
     1
102
RTVSPropertyOp20
 70
     1
102
RTVSPropertyOp21
 70
     1
102
RTVSPropertyOp22
 70
     1
102
RTVSPropertyOp23
 70
     1
102
RTVSPropertyOp24
 70
     1
102
RTVSPropertyOp25
 70
     1
102
RTVSPropertyOp26
 70
     1
102
RTVSPropertyOp27
 70
     1
102
RTVSPropertyOp28
 70
     1
102
RTVSPropertyOp29
 70
     1
102
RTVSPropertyOp30
 70
     1
102
RTVSPropertyOp31
 70
     1
102
RTVSPropertyOp32
 70
     1
102
RTVSPropertyOp33
 70
     1
102
RTVSPropertyOp34
 70
     1
102
RTVSPropertyOp35
 70
     1
102
RTVSPropertyOp36
 70
     1
102
RTVSPropertyOp37
 70
     1
102
RTVSPropertyOp38
 70
     1
102
RTVSPropertyOp39
 70
     1
102
RTVSPropertyOp40
 70
     1
102
RTVSPropertyOp41
 70
     1
102
RTVSPropertyOp42
 70
     1
102
RTVSPropertyOp43
 70
     1
102
RTVSPropertyOp44
 70
     1
102
RTVSPropertyOp45
 70
     1
102
RTVSPropertyOp46
 70
     1
102
RTVSPropertyOp47
 70
     1
102
RTVSPropertyOp48
 70
     1
102
RTVSPropertyOp49
 70
     1
102
RTVSPropertyOp50
 70
     1
102
RTVSPropertyOp51
 70
     0
102
RTVSPropertyOp52
 70
     0
102
RTVSPropertyOp53
 70
     1
102
RTVSPropertyOp54
 70
     1
102
RTVSPropertyOp55
 70
     1
102
RTVSPropertyOp56
 70
     1
102
RTVSPropertyOp57
 70
     1
102
RTVSPost2010Prop28
280
     0
102
RTVSPost2010PropOp28
 70
     1
102
RTVSPost2010Prop29
280
     1
102
RTVSPost2010PropOp29
 70
     1
102
RTVSPost2010Prop30
280
     1
102
RTVSPost2010PropOp30
 70
     1
102
RTVSPost2010Prop31
280
     0
102
RTVSPost2010PropOp31
 70
     1
102
RTVSPost2010Prop32
280
     0
102
RTVSPost2010PropOp32
 70
     1
102
RTVSPost2010Prop33
280
     0
102
RTVSPost2010PropOp33
 70
     1
102
RTVSPost2010Prop34
280
     0
102
RTVSPost2010PropOp34
 70
     1
102
RTVSPost2010Prop35
280
     0
102
RTVSPost2010PropOp35
 70
     1
102
RTVSPost2010Prop36
280
     0
102
RTVSPost2010PropOp36
 70
     1
102
RTVSPost2010Prop37
 90
       50
102
RTVSPost2010PropOp37
 70
     1
102
RTVSPost2010Prop38
140
0.0
102
RTVSPost2010PropOp38
 70
     1
102
RTVSPost2010Prop39
140
1.0
102
RTVSPost2010PropOp39
 70
     1
102
RTVSPost2010Prop40
 90
        0
102
RTVSPost2010PropOp40
 70
     1
102
RTVSPost2010Prop41ColorIndex
 90
      178
102
RTVSPost2010Prop41ColorRGB
 90
        0
102
RTVSPost2010PropOp41
 70
     1
102
RTVSPost2010Prop42
 90
       50
102
RTVSPost2010PropOp42
 70
     1
102
RTVSPost2010Prop43
 90
        3
102
RTVSPost2010PropOp43
 70
     1
102
RTVSPost2010Prop44ColorIndex
 90
        5
102
RTVSPost2010Prop44ColorRGB
 90
      255
102
RTVSPost2010PropOp44
 70
     1
102
RTVSPost2010Prop45
280
     0
102
RTVSPost2010PropOp45
 70
     1
102
RTVSPost2010Prop46
 90
       50
102
RTVSPost2010PropOp46
 70
     1
102
RTVSPost2010Prop47
 90
       50
102
RTVSPost2010PropOp47
 70
     1
102
RTVSPost2010Prop48
 90
       50
102
RTVSPost2010PropOp48
 70
     1
102
RTVSPost2010Prop49
280
     0
102
RTVSPost2010PropOp49
 70
     1
102
RTVSPost2010Prop50
 90
       50
102
RTVSPost2010PropOp50
 70
     1
102
RTVSPost2010Prop51ColorIndex
 90
      256
102
RTVSPost2010Prop51ColorRGB
 90
-16777216
102
RTVSPost2010PropOp51
 70
     0
102
RTVSPost2010Prop52
140
1.0
102
RTVSPost2010PropOp52
 70
     0
102
RTVSPost2010Prop53
 90
        2
102
RTVSPost2010PropOp53
 70
     1
102
RTVSPost2010Prop54
  1
strokes_ogs.tif
102
RTVSPost2010PropOp54
 70
     1
102
RTVSPost2010Prop55
280
     0
102
RTVSPost2010PropOp55
 70
     1
102
RTVSPost2010Prop56
140
1.0
102
RTVSPost2010PropOp56
 70
     1
102
RTVSPost2010Prop57
140
1.0
102
RTVSPost2010PropOp57
 70
     1
  0
XRECORD
  5
3CE
102
{ACAD_REACTORS
330
3CD
102
}
330
3CD
100
AcDbXrecord
280
     1
102
RTVSPropertyOp0
 70
     1
102
RTVSPropertyOp1
 70
     1
102
RTVSPropertyOp2
 70
     1
102
RTVSPropertyOp3
 70
     1
102
RTVSPropertyOp4
 70
     1
102
RTVSPropertyOp5
 70
     1
102
RTVSPropertyOp6
 70
     1
102
RTVSPropertyOp7
 70
     1
102
RTVSPropertyOp8
 70
     1
102
RTVSPropertyOp9
 70
     1
102
RTVSPropertyOp10
 70
     1
102
RTVSPropertyOp11
 70
     1
102
RTVSPropertyOp12
 70
     1
102
RTVSPropertyOp13
 70
     1
102
RTVSPropertyOp14
 70
     1
102
RTVSPropertyOp15
 70
     1
102
RTVSPropertyOp16
 70
     1
102
RTVSPropertyOp17
 70
     1
102
RTVSPropertyOp18
 70
     1
102
RTVSPropertyOp19
 70
     1
102
RTVSPropertyOp20
 70
     1
102
RTVSPropertyOp21
 70
     1
102
RTVSPropertyOp22
 70
     1
102
RTVSPropertyOp23
 70
     1
102
RTVSPropertyOp24
 70
     1
102
RTVSPropertyOp25
 70
     1
102
RTVSPropertyOp26
 70
     1
102
RTVSPropertyOp27
 70
     1
102
RTVSPropertyOp28
 70
     1
102
RTVSPropertyOp29
 70
     1
102
RTVSPropertyOp30
 70
     1
102
RTVSPropertyOp31
 70
     1
102
RTVSPropertyOp32
 70
     1
102
RTVSPropertyOp33
 70
     1
102
RTVSPropertyOp34
 70
     1
102
RTVSPropertyOp35
 70
     1
102
RTVSPropertyOp36
 70
     1
102
RTVSPropertyOp37
 70
     1
102
RTVSPropertyOp38
 70
     1
102
RTVSPropertyOp39
 70
     1
102
RTVSPropertyOp40
 70
     1
102
RTVSPropertyOp41
 70
     1
102
RTVSPropertyOp42
 70
     1
102
RTVSPropertyOp43
 70
     1
102
RTVSPropertyOp44
 70
     1
102
RTVSPropertyOp45
 70
     1
102
RTVSPropertyOp46
 70
     1
102
RTVSPropertyOp47
 70
     1
102
RTVSPropertyOp48
 70
     1
102
RTVSPropertyOp49
 70
     1
102
RTVSPropertyOp50
 70
     1
102
RTVSPropertyOp51
 70
     0
102
RTVSPropertyOp52
 70
     0
102
RTVSPropertyOp53
 70
     1
102
RTVSPropertyOp54
 70
     1
102
RTVSPropertyOp55
 70
     1
102
RTVSPropertyOp56
 70
     1
102
RTVSPropertyOp57
 70
     1
102
RTVSPost2010Prop28
280
     0
102
RTVSPost2010PropOp28
 70
     1
102
RTVSPost2010Prop29
280
     1
102
RTVSPost2010PropOp29
 70
     1
102
RTVSPost2010Prop30
280
     1
102
RTVSPost2010PropOp30
 70
     1
102
RTVSPost2010Prop31
280
     0
102
RTVSPost2010PropOp31
 70
     1
102
RTVSPost2010Prop32
280
     0
102
RTVSPost2010PropOp32
 70
     1
102
RTVSPost2010Prop33
280
     0
102
RTVSPost2010PropOp33
 70
     1
102
RTVSPost2010Prop34
280
     0
102
RTVSPost2010PropOp34
 70
     1
102
RTVSPost2010Prop35
280
     0
102
RTVSPost2010PropOp35
 70
     1
102
RTVSPost2010Prop36
280
     0
102
RTVSPost2010PropOp36
 70
     1
102
RTVSPost2010Prop37
 90
       50
102
RTVSPost2010PropOp37
 70
     1
102
RTVSPost2010Prop38
140
0.0
102
RTVSPost2010PropOp38
 70
     1
102
RTVSPost2010Prop39
140
1.0
102
RTVSPost2010PropOp39
 70
     1
102
RTVSPost2010Prop40
 90
        0
102
RTVSPost2010PropOp40
 70
     1
102
RTVSPost2010Prop41ColorIndex
 90
      178
102
RTVSPost2010Prop41ColorRGB
 90
        0
102
RTVSPost2010PropOp41
 70
     1
102
RTVSPost2010Prop42
 90
       50
102
RTVSPost2010PropOp42
 70
     1
102
RTVSPost2010Prop43
 90
        3
102
RTVSPost2010PropOp43
 70
     1
102
RTVSPost2010Prop44ColorIndex
 90
        5
102
RTVSPost2010Prop44ColorRGB
 90
      255
102
RTVSPost2010PropOp44
 70
     1
102
RTVSPost2010Prop45
280
     0
102
RTVSPost2010PropOp45
 70
     1
102
RTVSPost2010Prop46
 90
       50
102
RTVSPost2010PropOp46
 70
     1
102
RTVSPost2010Prop47
 90
       50
102
RTVSPost2010PropOp47
 70
     1
102
RTVSPost2010Prop48
 90
       50
102
RTVSPost2010PropOp48
 70
     1
102
RTVSPost2010Prop49
280
     0
102
RTVSPost2010PropOp49
 70
     1
102
RTVSPost2010Prop50
 90
       50
102
RTVSPost2010PropOp50
 70
     1
102
RTVSPost2010Prop51ColorIndex
 90
      256
102
RTVSPost2010Prop51ColorRGB
 90
-16777216
102
RTVSPost2010PropOp51
 70
     0
102
RTVSPost2010Prop52
140
1.0
102
RTVSPost2010PropOp52
 70
     0
102
RTVSPost2010Prop53
 90
        2
102
RTVSPost2010PropOp53
 70
     1
102
RTVSPost2010Prop54
  1
strokes_ogs.tif
102
RTVSPost2010PropOp54
 70
     1
102
RTVSPost2010Prop55
280
     0
102
RTVSPost2010PropOp55
 70
     1
102
RTVSPost2010Prop56
140
1.0
102
RTVSPost2010PropOp56
 70
     1
102
RTVSPost2010Prop57
140
1.0
102
RTVSPost2010PropOp57
 70
     1
  0
XRECORD
  5
3C0
102
{ACAD_REACTORS
330
3BF
102
}
330
3BF
100
AcDbXrecord
280
     1
102
RTVSPropertyOp0
 70
     1
102
RTVSPropertyOp1
 70
     1
102
RTVSPropertyOp2
 70
     1
102
RTVSPropertyOp3
 70
     1
102
RTVSPropertyOp4
 70
     1
102
RTVSPropertyOp5
 70
     1
102
RTVSPropertyOp6
 70
     1
102
RTVSPropertyOp7
 70
     1
102
RTVSPropertyOp8
 70
     1
102
RTVSPropertyOp9
 70
     1
102
RTVSPropertyOp10
 70
     1
102
RTVSPropertyOp11
 70
     1
102
RTVSPropertyOp12
 70
     1
102
RTVSPropertyOp13
 70
     1
102
RTVSPropertyOp14
 70
     1
102
RTVSPropertyOp15
 70
     1
102
RTVSPropertyOp16
 70
     1
102
RTVSPropertyOp17
 70
     1
102
RTVSPropertyOp18
 70
     1
102
RTVSPropertyOp19
 70
     1
102
RTVSPropertyOp20
 70
     1
102
RTVSPropertyOp21
 70
     1
102
RTVSPropertyOp22
 70
     1
102
RTVSPropertyOp23
 70
     1
102
RTVSPropertyOp24
 70
     1
102
RTVSPropertyOp25
 70
     1
102
RTVSPropertyOp26
 70
     1
102
RTVSPropertyOp27
 70
     1
102
RTVSPropertyOp28
 70
     1
102
RTVSPropertyOp29
 70
     1
102
RTVSPropertyOp30
 70
     1
102
RTVSPropertyOp31
 70
     1
102
RTVSPropertyOp32
 70
     1
102
RTVSPropertyOp33
 70
     1
102
RTVSPropertyOp34
 70
     1
102
RTVSPropertyOp35
 70
     1
102
RTVSPropertyOp36
 70
     1
102
RTVSPropertyOp37
 70
     1
102
RTVSPropertyOp38
 70
     1
102
RTVSPropertyOp39
 70
     1
102
RTVSPropertyOp40
 70
     1
102
RTVSPropertyOp41
 70
     1
102
RTVSPropertyOp42
 70
     1
102
RTVSPropertyOp43
 70
     1
102
RTVSPropertyOp44
 70
     1
102
RTVSPropertyOp45
 70
     1
102
RTVSPropertyOp46
 70
     1
102
RTVSPropertyOp47
 70
     1
102
RTVSPropertyOp48
 70
     1
102
RTVSPropertyOp49
 70
     1
102
RTVSPropertyOp50
 70
     1
102
RTVSPropertyOp51
 70
     0
102
RTVSPropertyOp52
 70
     0
102
RTVSPropertyOp53
 70
     1
102
RTVSPropertyOp54
 70
     1
102
RTVSPropertyOp55
 70
     1
102
RTVSPropertyOp56
 70
     1
102
RTVSPropertyOp57
 70
     1
102
RTVSPost2010Prop28
280
     0
102
RTVSPost2010PropOp28
 70
     1
102
RTVSPost2010Prop29
280
     1
102
RTVSPost2010PropOp29
 70
     1
102
RTVSPost2010Prop30
280
     1
102
RTVSPost2010PropOp30
 70
     1
102
RTVSPost2010Prop31
280
     0
102
RTVSPost2010PropOp31
 70
     1
102
RTVSPost2010Prop32
280
     0
102
RTVSPost2010PropOp32
 70
     1
102
RTVSPost2010Prop33
280
     0
102
RTVSPost2010PropOp33
 70
     1
102
RTVSPost2010Prop34
280
     0
102
RTVSPost2010PropOp34
 70
     1
102
RTVSPost2010Prop35
280
     0
102
RTVSPost2010PropOp35
 70
     1
102
RTVSPost2010Prop36
280
     0
102
RTVSPost2010PropOp36
 70
     1
102
RTVSPost2010Prop37
 90
       50
102
RTVSPost2010PropOp37
 70
     1
102
RTVSPost2010Prop38
140
0.0
102
RTVSPost2010PropOp38
 70
     1
102
RTVSPost2010Prop39
140
1.0
102
RTVSPost2010PropOp39
 70
     1
102
RTVSPost2010Prop40
 90
        0
102
RTVSPost2010PropOp40
 70
     1
102
RTVSPost2010Prop41ColorIndex
 90
      178
102
RTVSPost2010Prop41ColorRGB
 90
        0
102
RTVSPost2010PropOp41
 70
     1
102
RTVSPost2010Prop42
 90
       50
102
RTVSPost2010PropOp42
 70
     1
102
RTVSPost2010Prop43
 90
        3
102
RTVSPost2010PropOp43
 70
     1
102
RTVSPost2010Prop44ColorIndex
 90
        5
102
RTVSPost2010Prop44ColorRGB
 90
      255
102
RTVSPost2010PropOp44
 70
     1
102
RTVSPost2010Prop45
280
     0
102
RTVSPost2010PropOp45
 70
     1
102
RTVSPost2010Prop46
 90
       50
102
RTVSPost2010PropOp46
 70
     1
102
RTVSPost2010Prop47
 90
       50
102
RTVSPost2010PropOp47
 70
     1
102
RTVSPost2010Prop48
 90
       50
102
RTVSPost2010PropOp48
 70
     1
102
RTVSPost2010Prop49
280
     0
102
RTVSPost2010PropOp49
 70
     1
102
RTVSPost2010Prop50
 90
       50
102
RTVSPost2010PropOp50
 70
     1
102
RTVSPost2010Prop51ColorIndex
 90
      256
102
RTVSPost2010Prop51ColorRGB
 90
-16777216
102
RTVSPost2010PropOp51
 70
     0
102
RTVSPost2010Prop52
140
1.0
102
RTVSPost2010PropOp52
 70
     0
102
RTVSPost2010Prop53
 90
        2
102
RTVSPost2010PropOp53
 70
     1
102
RTVSPost2010Prop54
  1
strokes_ogs.tif
102
RTVSPost2010PropOp54
 70
     1
102
RTVSPost2010Prop55
280
     0
102
RTVSPost2010PropOp55
 70
     1
102
RTVSPost2010Prop56
140
1.0
102
RTVSPost2010PropOp56
 70
     1
102
RTVSPost2010Prop57
140
1.0
102
RTVSPost2010PropOp57
 70
     1
  0
XRECORD
  5
3E0
102
{ACAD_REACTORS
330
3DF
102
}
330
3DF
100
AcDbXrecord
280
     1
102
RTVSPropertyOp0
 70
     1
102
RTVSPropertyOp1
 70
     1
102
RTVSPropertyOp2
 70
     1
102
RTVSPropertyOp3
 70
     1
102
RTVSPropertyOp4
 70
     1
102
RTVSPropertyOp5
 70
     1
102
RTVSPropertyOp6
 70
     1
102
RTVSPropertyOp7
 70
     1
102
RTVSPropertyOp8
 70
     1
102
RTVSPropertyOp9
 70
     1
102
RTVSPropertyOp10
 70
     1
102
RTVSPropertyOp11
 70
     1
102
RTVSPropertyOp12
 70
     1
102
RTVSPropertyOp13
 70
     1
102
RTVSPropertyOp14
 70
     1
102
RTVSPropertyOp15
 70
     1
102
RTVSPropertyOp16
 70
     1
102
RTVSPropertyOp17
 70
     1
102
RTVSPropertyOp18
 70
     1
102
RTVSPropertyOp19
 70
     1
102
RTVSPropertyOp20
 70
     1
102
RTVSPropertyOp21
 70
     1
102
RTVSPropertyOp22
 70
     1
102
RTVSPropertyOp23
 70
     1
102
RTVSPropertyOp24
 70
     1
102
RTVSPropertyOp25
 70
     1
102
RTVSPropertyOp26
 70
     1
102
RTVSPropertyOp27
 70
     1
102
RTVSPropertyOp28
 70
     1
102
RTVSPropertyOp29
 70
     1
102
RTVSPropertyOp30
 70
     1
102
RTVSPropertyOp31
 70
     1
102
RTVSPropertyOp32
 70
     1
102
RTVSPropertyOp33
 70
     1
102
RTVSPropertyOp34
 70
     1
102
RTVSPropertyOp35
 70
     1
102
RTVSPropertyOp36
 70
     1
102
RTVSPropertyOp37
 70
     1
102
RTVSPropertyOp38
 70
     1
102
RTVSPropertyOp39
 70
     1
102
RTVSPropertyOp40
 70
     1
102
RTVSPropertyOp41
 70
     1
102
RTVSPropertyOp42
 70
     1
102
RTVSPropertyOp43
 70
     1
102
RTVSPropertyOp44
 70
     1
102
RTVSPropertyOp45
 70
     1
102
RTVSPropertyOp46
 70
     1
102
RTVSPropertyOp47
 70
     1
102
RTVSPropertyOp48
 70
     1
102
RTVSPropertyOp49
 70
     1
102
RTVSPropertyOp50
 70
     1
102
RTVSPropertyOp51
 70
     0
102
RTVSPropertyOp52
 70
     0
102
RTVSPropertyOp53
 70
     1
102
RTVSPropertyOp54
 70
     1
102
RTVSPropertyOp55
 70
     1
102
RTVSPropertyOp56
 70
     1
102
RTVSPropertyOp57
 70
     1
102
RTVSPost2010Prop28
280
     0
102
RTVSPost2010PropOp28
 70
     1
102
RTVSPost2010Prop29
280
     1
102
RTVSPost2010PropOp29
 70
     1
102
RTVSPost2010Prop30
280
     1
102
RTVSPost2010PropOp30
 70
     1
102
RTVSPost2010Prop31
280
     0
102
RTVSPost2010PropOp31
 70
     1
102
RTVSPost2010Prop32
280
     0
102
RTVSPost2010PropOp32
 70
     1
102
RTVSPost2010Prop33
280
     0
102
RTVSPost2010PropOp33
 70
     1
102
RTVSPost2010Prop34
280
     0
102
RTVSPost2010PropOp34
 70
     1
102
RTVSPost2010Prop35
280
     0
102
RTVSPost2010PropOp35
 70
     1
102
RTVSPost2010Prop36
280
     0
102
RTVSPost2010PropOp36
 70
     1
102
RTVSPost2010Prop37
 90
       50
102
RTVSPost2010PropOp37
 70
     1
102
RTVSPost2010Prop38
140
0.0
102
RTVSPost2010PropOp38
 70
     1
102
RTVSPost2010Prop39
140
1.0
102
RTVSPost2010PropOp39
 70
     1
102
RTVSPost2010Prop40
 90
        0
102
RTVSPost2010PropOp40
 70
     1
102
RTVSPost2010Prop41ColorIndex
 90
      178
102
RTVSPost2010Prop41ColorRGB
 90
        0
102
RTVSPost2010PropOp41
 70
     1
102
RTVSPost2010Prop42
 90
       50
102
RTVSPost2010PropOp42
 70
     1
102
RTVSPost2010Prop43
 90
        3
102
RTVSPost2010PropOp43
 70
     1
102
RTVSPost2010Prop44ColorIndex
 90
        5
102
RTVSPost2010Prop44ColorRGB
 90
      255
102
RTVSPost2010PropOp44
 70
     1
102
RTVSPost2010Prop45
280
     0
102
RTVSPost2010PropOp45
 70
     1
102
RTVSPost2010Prop46
 90
       50
102
RTVSPost2010PropOp46
 70
     1
102
RTVSPost2010Prop47
 90
       50
102
RTVSPost2010PropOp47
 70
     1
102
RTVSPost2010Prop48
 90
       50
102
RTVSPost2010PropOp48
 70
     1
102
RTVSPost2010Prop49
280
     0
102
RTVSPost2010PropOp49
 70
     1
102
RTVSPost2010Prop50
 90
       50
102
RTVSPost2010PropOp50
 70
     1
102
RTVSPost2010Prop51ColorIndex
 90
      256
102
RTVSPost2010Prop51ColorRGB
 90
-16777216
102
RTVSPost2010PropOp51
 70
     0
102
RTVSPost2010Prop52
140
1.0
102
RTVSPost2010PropOp52
 70
     0
102
RTVSPost2010Prop53
 90
        2
102
RTVSPost2010PropOp53
 70
     1
102
RTVSPost2010Prop54
  1
strokes_ogs.tif
102
RTVSPost2010PropOp54
 70
     1
102
RTVSPost2010Prop55
280
     0
102
RTVSPost2010PropOp55
 70
     1
102
RTVSPost2010Prop56
140
1.0
102
RTVSPost2010PropOp56
 70
     1
102
RTVSPost2010Prop57
140
1.0
102
RTVSPost2010PropOp57
 70
     1
  0
ENDSEC
  0
EOF
